ISO-10303-21;
HEADER;
/* Generated by software containing ST-Developer
 * from STEP Tools, Inc. (www.steptools.com) 
 */
/* OPTION: using custom renumber hook */

FILE_DESCRIPTION(
/* description */ ('STEP AP214'),
/* implementation_level */ '2;1');

FILE_NAME(
/* name */ '11133_YSRP-12',
/* time_stamp */ '2024-09-18T13:46:34+02:00',
/* author */ ('License CC BY-ND 4.0'),
/* organization */ ('CADENAS'),
/* preprocessor_version */ 'ST-DEVELOPER v19.3',
/* originating_system */ 'PARTsolutions',
/* authorisation */ '  ');

FILE_SCHEMA (('AUTOMOTIVE_DESIGN {1 0 10303 214 3 1 1}'));
ENDSEC;

DATA;
#10=PROPERTY_DEFINITION_REPRESENTATION(#14,#12);
#11=PROPERTY_DEFINITION_REPRESENTATION(#15,#13);
#12=REPRESENTATION('',(#16),#619);
#13=REPRESENTATION('',(#17),#619);
#14=PROPERTY_DEFINITION('pmi validation property','',#624);
#15=PROPERTY_DEFINITION('pmi validation property','',#624);
#16=VALUE_REPRESENTATION_ITEM('number of annotations',COUNT_MEASURE(0.));
#17=VALUE_REPRESENTATION_ITEM('number of views',COUNT_MEASURE(0.));
#18=SHAPE_REPRESENTATION_RELATIONSHIP('','',#351,#19);
#19=ADVANCED_BREP_SHAPE_REPRESENTATION('',(#349),#619);
#20=VERTEX_LOOP('',#224);
#21=LINE('',#579,#39);
#22=LINE('',#582,#40);
#23=LINE('',#584,#41);
#24=LINE('',#586,#42);
#25=LINE('',#588,#43);
#26=LINE('',#590,#44);
#27=LINE('',#594,#45);
#28=LINE('',#596,#46);
#29=LINE('',#598,#47);
#30=LINE('',#600,#48);
#31=LINE('',#602,#49);
#32=LINE('',#604,#50);
#33=LINE('',#606,#51);
#34=LINE('',#608,#52);
#35=LINE('',#610,#53);
#36=LINE('',#612,#54);
#37=LINE('',#614,#55);
#38=LINE('',#616,#56);
#39=VECTOR('',#447,1000.);
#40=VECTOR('',#448,1000.);
#41=VECTOR('',#449,1000.);
#42=VECTOR('',#450,1000.);
#43=VECTOR('',#451,1000.);
#44=VECTOR('',#452,1000.);
#45=VECTOR('',#457,1000.);
#46=VECTOR('',#458,1000.);
#47=VECTOR('',#459,1000.);
#48=VECTOR('',#462,1000.);
#49=VECTOR('',#463,1000.);
#50=VECTOR('',#466,1000.);
#51=VECTOR('',#467,1000.);
#52=VECTOR('',#470,1000.);
#53=VECTOR('',#471,1000.);
#54=VECTOR('',#474,1000.);
#55=VECTOR('',#475,1000.);
#56=VECTOR('',#478,1000.);
#57=PLANE('',#367);
#58=PLANE('',#368);
#59=PLANE('',#373);
#60=PLANE('',#377);
#61=PLANE('',#380);
#62=PLANE('',#382);
#63=PLANE('',#383);
#64=PLANE('',#384);
#65=PLANE('',#385);
#66=PLANE('',#386);
#67=PLANE('',#387);
#68=PLANE('',#388);
#69=CONICAL_SURFACE('',#363,2.,0.785398163397448);
#70=CONICAL_SURFACE('',#365,2.,0.785398163397448);
#71=CONICAL_SURFACE('',#370,5.625,0.785398163397448);
#72=CONICAL_SURFACE('',#371,6.,0.785398163397448);
#73=CONICAL_SURFACE('',#375,4.8,0.261799387799149);
#74=CONICAL_SURFACE('',#378,1.5705,0.785398163397448);
#75=CONICAL_SURFACE('',#381,2.,1.30899693899575);
#76=B_SPLINE_CURVE_WITH_KNOTS('',3,(#485,#486,#487,#488,#489,#490,#491),
 .UNSPECIFIED.,.F.,.F.,(4,1,1,1,4),(0.00339645157586861,0.00428309947460077,
0.00516974737333293,0.0060563952720651,0.00694304317079726),
 .UNSPECIFIED.);
#77=B_SPLINE_CURVE_WITH_KNOTS('',3,(#494,#495,#496,#497,#498,#499,#500),
 .UNSPECIFIED.,.F.,.F.,(4,1,1,1,4),(0.00341435095747266,0.00391928275029524,
0.00442421454311782,0.0049291463359404,0.00543407812876298),
 .UNSPECIFIED.);
#78=B_SPLINE_CURVE_WITH_KNOTS('',3,(#502,#503,#504,#505,#506,#507,#508),
 .UNSPECIFIED.,.F.,.F.,(4,1,1,1,4),(0.00856232664366372,0.00944862573540296,
0.0103349248271422,0.0112212239188814,0.0121075230106207),.UNSPECIFIED.);
#79=B_SPLINE_CURVE_WITH_KNOTS('',3,(#510,#511,#512,#513,#514,#515,#516),
 .UNSPECIFIED.,.F.,.F.,(4,1,1,1,4),(0.0084376788326211,0.00894275155085796,
0.00944782426909482,0.00995289698733168,0.0104579697055685),
 .UNSPECIFIED.);
#80=B_SPLINE_CURVE_WITH_KNOTS('',3,(#522,#523,#524,#525,#526,#527,#528),
 .UNSPECIFIED.,.F.,.F.,(4,1,1,1,4),(0.0111680853516685,0.0122271001457484,
0.0132861149398283,0.0143451297339083,0.0154041445279882),.UNSPECIFIED.);
#81=B_SPLINE_CURVE_WITH_KNOTS('',3,(#531,#532,#533,#534,#535),
 .UNSPECIFIED.,.F.,.F.,(4,1,4),(0.00861738368927579,0.00948441609548087,
0.010351448501686),.UNSPECIFIED.);
#82=B_SPLINE_CURVE_WITH_KNOTS('',3,(#537,#538,#539,#540,#541,#542,#543),
 .UNSPECIFIED.,.F.,.F.,(4,1,1,1,4),(0.0052816872508941,0.00633985327303605,
0.007398019295178,0.00845618531731994,0.00951435133946189),
 .UNSPECIFIED.);
#83=B_SPLINE_CURVE_WITH_KNOTS('',3,(#545,#546,#547,#548,#549),
 .UNSPECIFIED.,.F.,.F.,(4,1,4),(0.00322282532762484,0.00409096064863268,
0.00495909596964052),.UNSPECIFIED.);
#84=ORIENTED_EDGE('',*,*,#162,.F.);
#85=ORIENTED_EDGE('',*,*,#163,.F.);
#86=ORIENTED_EDGE('',*,*,#164,.F.);
#87=ORIENTED_EDGE('',*,*,#165,.F.);
#88=ORIENTED_EDGE('',*,*,#166,.F.);
#89=ORIENTED_EDGE('',*,*,#167,.T.);
#90=ORIENTED_EDGE('',*,*,#168,.F.);
#91=ORIENTED_EDGE('',*,*,#169,.F.);
#92=ORIENTED_EDGE('',*,*,#170,.F.);
#93=ORIENTED_EDGE('',*,*,#171,.F.);
#94=ORIENTED_EDGE('',*,*,#172,.F.);
#95=ORIENTED_EDGE('',*,*,#173,.T.);
#96=ORIENTED_EDGE('',*,*,#165,.T.);
#97=ORIENTED_EDGE('',*,*,#174,.T.);
#98=ORIENTED_EDGE('',*,*,#163,.T.);
#99=ORIENTED_EDGE('',*,*,#175,.T.);
#100=ORIENTED_EDGE('',*,*,#176,.T.);
#101=ORIENTED_EDGE('',*,*,#171,.T.);
#102=ORIENTED_EDGE('',*,*,#169,.T.);
#103=ORIENTED_EDGE('',*,*,#177,.T.);
#104=ORIENTED_EDGE('',*,*,#167,.F.);
#105=ORIENTED_EDGE('',*,*,#178,.F.);
#106=ORIENTED_EDGE('',*,*,#162,.T.);
#107=ORIENTED_EDGE('',*,*,#173,.F.);
#108=ORIENTED_EDGE('',*,*,#178,.T.);
#109=ORIENTED_EDGE('',*,*,#179,.F.);
#110=ORIENTED_EDGE('',*,*,#168,.T.);
#111=ORIENTED_EDGE('',*,*,#180,.F.);
#112=ORIENTED_EDGE('',*,*,#179,.T.);
#113=ORIENTED_EDGE('',*,*,#181,.F.);
#114=ORIENTED_EDGE('',*,*,#180,.T.);
#115=ORIENTED_EDGE('',*,*,#181,.T.);
#116=ORIENTED_EDGE('',*,*,#176,.F.);
#117=ORIENTED_EDGE('',*,*,#170,.T.);
#118=ORIENTED_EDGE('',*,*,#177,.F.);
#119=ORIENTED_EDGE('',*,*,#172,.T.);
#120=ORIENTED_EDGE('',*,*,#182,.T.);
#121=ORIENTED_EDGE('',*,*,#182,.F.);
#122=ORIENTED_EDGE('',*,*,#183,.F.);
#123=ORIENTED_EDGE('',*,*,#184,.F.);
#124=ORIENTED_EDGE('',*,*,#185,.F.);
#125=ORIENTED_EDGE('',*,*,#186,.F.);
#126=ORIENTED_EDGE('',*,*,#187,.F.);
#127=ORIENTED_EDGE('',*,*,#188,.T.);
#128=ORIENTED_EDGE('',*,*,#166,.T.);
#129=ORIENTED_EDGE('',*,*,#174,.F.);
#130=ORIENTED_EDGE('',*,*,#164,.T.);
#131=ORIENTED_EDGE('',*,*,#175,.F.);
#132=ORIENTED_EDGE('',*,*,#185,.T.);
#133=ORIENTED_EDGE('',*,*,#189,.F.);
#134=ORIENTED_EDGE('',*,*,#190,.F.);
#135=ORIENTED_EDGE('',*,*,#191,.T.);
#136=ORIENTED_EDGE('',*,*,#184,.T.);
#137=ORIENTED_EDGE('',*,*,#192,.F.);
#138=ORIENTED_EDGE('',*,*,#193,.F.);
#139=ORIENTED_EDGE('',*,*,#189,.T.);
#140=ORIENTED_EDGE('',*,*,#183,.T.);
#141=ORIENTED_EDGE('',*,*,#194,.F.);
#142=ORIENTED_EDGE('',*,*,#195,.F.);
#143=ORIENTED_EDGE('',*,*,#192,.T.);
#144=ORIENTED_EDGE('',*,*,#194,.T.);
#145=ORIENTED_EDGE('',*,*,#188,.F.);
#146=ORIENTED_EDGE('',*,*,#196,.F.);
#147=ORIENTED_EDGE('',*,*,#197,.F.);
#148=ORIENTED_EDGE('',*,*,#187,.T.);
#149=ORIENTED_EDGE('',*,*,#198,.F.);
#150=ORIENTED_EDGE('',*,*,#199,.F.);
#151=ORIENTED_EDGE('',*,*,#196,.T.);
#152=ORIENTED_EDGE('',*,*,#186,.T.);
#153=ORIENTED_EDGE('',*,*,#191,.F.);
#154=ORIENTED_EDGE('',*,*,#200,.F.);
#155=ORIENTED_EDGE('',*,*,#198,.T.);
#156=ORIENTED_EDGE('',*,*,#190,.T.);
#157=ORIENTED_EDGE('',*,*,#193,.T.);
#158=ORIENTED_EDGE('',*,*,#195,.T.);
#159=ORIENTED_EDGE('',*,*,#197,.T.);
#160=ORIENTED_EDGE('',*,*,#199,.T.);
#161=ORIENTED_EDGE('',*,*,#200,.T.);
#162=EDGE_CURVE('',#201,#201,#231,.T.);
#163=EDGE_CURVE('',#202,#203,#76,.T.);
#164=EDGE_CURVE('',#204,#202,#77,.T.);
#165=EDGE_CURVE('',#205,#204,#78,.T.);
#166=EDGE_CURVE('',#203,#205,#79,.T.);
#167=EDGE_CURVE('',#206,#206,#232,.T.);
#168=EDGE_CURVE('',#207,#207,#233,.T.);
#169=EDGE_CURVE('',#208,#209,#80,.T.);
#170=EDGE_CURVE('',#210,#208,#81,.T.);
#171=EDGE_CURVE('',#211,#210,#82,.T.);
#172=EDGE_CURVE('',#209,#211,#83,.T.);
#173=EDGE_CURVE('',#212,#212,#234,.T.);
#174=EDGE_CURVE('',#204,#205,#235,.T.);
#175=EDGE_CURVE('',#203,#202,#236,.T.);
#176=EDGE_CURVE('',#210,#211,#237,.T.);
#177=EDGE_CURVE('',#209,#208,#238,.T.);
#178=EDGE_CURVE('',#213,#213,#239,.T.);
#179=EDGE_CURVE('',#214,#214,#240,.T.);
#180=EDGE_CURVE('',#215,#215,#241,.T.);
#181=EDGE_CURVE('',#216,#216,#242,.T.);
#182=EDGE_CURVE('',#217,#217,#243,.T.);
#183=EDGE_CURVE('',#218,#219,#21,.T.);
#184=EDGE_CURVE('',#220,#218,#22,.T.);
#185=EDGE_CURVE('',#221,#220,#23,.T.);
#186=EDGE_CURVE('',#222,#221,#24,.T.);
#187=EDGE_CURVE('',#223,#222,#25,.T.);
#188=EDGE_CURVE('',#223,#219,#26,.T.);
#189=EDGE_CURVE('',#225,#220,#27,.T.);
#190=EDGE_CURVE('',#226,#225,#28,.T.);
#191=EDGE_CURVE('',#226,#221,#29,.T.);
#192=EDGE_CURVE('',#227,#218,#30,.T.);
#193=EDGE_CURVE('',#225,#227,#31,.T.);
#194=EDGE_CURVE('',#228,#219,#32,.T.);
#195=EDGE_CURVE('',#227,#228,#33,.T.);
#196=EDGE_CURVE('',#229,#223,#34,.T.);
#197=EDGE_CURVE('',#228,#229,#35,.T.);
#198=EDGE_CURVE('',#230,#222,#36,.T.);
#199=EDGE_CURVE('',#229,#230,#37,.T.);
#200=EDGE_CURVE('',#230,#226,#38,.T.);
#201=VERTEX_POINT('',#484);
#202=VERTEX_POINT('',#492);
#203=VERTEX_POINT('',#493);
#204=VERTEX_POINT('',#501);
#205=VERTEX_POINT('',#509);
#206=VERTEX_POINT('',#518);
#207=VERTEX_POINT('',#521);
#208=VERTEX_POINT('',#529);
#209=VERTEX_POINT('',#530);
#210=VERTEX_POINT('',#536);
#211=VERTEX_POINT('',#544);
#212=VERTEX_POINT('',#551);
#213=VERTEX_POINT('',#563);
#214=VERTEX_POINT('',#567);
#215=VERTEX_POINT('',#570);
#216=VERTEX_POINT('',#573);
#217=VERTEX_POINT('',#577);
#218=VERTEX_POINT('',#580);
#219=VERTEX_POINT('',#581);
#220=VERTEX_POINT('',#583);
#221=VERTEX_POINT('',#585);
#222=VERTEX_POINT('',#587);
#223=VERTEX_POINT('',#589);
#224=VERTEX_POINT('',#592);
#225=VERTEX_POINT('',#595);
#226=VERTEX_POINT('',#597);
#227=VERTEX_POINT('',#601);
#228=VERTEX_POINT('',#605);
#229=VERTEX_POINT('',#609);
#230=VERTEX_POINT('',#613);
#231=CIRCLE('',#354,3.);
#232=CIRCLE('',#355,3.);
#233=CIRCLE('',#357,6.);
#234=CIRCLE('',#358,6.);
#235=CIRCLE('',#360,1.621);
#236=CIRCLE('',#362,1.621);
#237=CIRCLE('',#364,1.78525);
#238=CIRCLE('',#366,1.78525);
#239=CIRCLE('',#369,5.625);
#240=CIRCLE('',#372,5.625);
#241=CIRCLE('',#374,4.8);
#242=CIRCLE('',#376,4.53205080756888);
#243=CIRCLE('',#379,1.5705);
#244=EDGE_LOOP('',(#84));
#245=EDGE_LOOP('',(#85,#86,#87,#88));
#246=EDGE_LOOP('',(#89));
#247=EDGE_LOOP('',(#90));
#248=EDGE_LOOP('',(#91,#92,#93,#94));
#249=EDGE_LOOP('',(#95));
#250=EDGE_LOOP('',(#96,#97));
#251=EDGE_LOOP('',(#98,#99));
#252=EDGE_LOOP('',(#100,#101));
#253=EDGE_LOOP('',(#102,#103));
#254=EDGE_LOOP('',(#104));
#255=EDGE_LOOP('',(#105));
#256=EDGE_LOOP('',(#106));
#257=EDGE_LOOP('',(#107));
#258=EDGE_LOOP('',(#108));
#259=EDGE_LOOP('',(#109));
#260=EDGE_LOOP('',(#110));
#261=EDGE_LOOP('',(#111));
#262=EDGE_LOOP('',(#112));
#263=EDGE_LOOP('',(#113));
#264=EDGE_LOOP('',(#114));
#265=EDGE_LOOP('',(#115));
#266=EDGE_LOOP('',(#116,#117,#118,#119));
#267=EDGE_LOOP('',(#120));
#268=EDGE_LOOP('',(#121));
#269=EDGE_LOOP('',(#122,#123,#124,#125,#126,#127));
#270=EDGE_LOOP('',(#128,#129,#130,#131));
#271=EDGE_LOOP('',(#132,#133,#134,#135));
#272=EDGE_LOOP('',(#136,#137,#138,#139));
#273=EDGE_LOOP('',(#140,#141,#142,#143));
#274=EDGE_LOOP('',(#144,#145,#146,#147));
#275=EDGE_LOOP('',(#148,#149,#150,#151));
#276=EDGE_LOOP('',(#152,#153,#154,#155));
#277=EDGE_LOOP('',(#156,#157,#158,#159,#160,#161));
#278=FACE_BOUND('',#244,.T.);
#279=FACE_BOUND('',#245,.T.);
#280=FACE_BOUND('',#246,.T.);
#281=FACE_BOUND('',#247,.T.);
#282=FACE_BOUND('',#248,.T.);
#283=FACE_BOUND('',#249,.T.);
#284=FACE_BOUND('',#250,.T.);
#285=FACE_BOUND('',#251,.T.);
#286=FACE_BOUND('',#252,.T.);
#287=FACE_BOUND('',#253,.T.);
#288=FACE_BOUND('',#254,.T.);
#289=FACE_BOUND('',#255,.T.);
#290=FACE_BOUND('',#256,.T.);
#291=FACE_BOUND('',#257,.T.);
#292=FACE_BOUND('',#258,.T.);
#293=FACE_BOUND('',#259,.T.);
#294=FACE_BOUND('',#260,.T.);
#295=FACE_BOUND('',#261,.T.);
#296=FACE_BOUND('',#262,.T.);
#297=FACE_BOUND('',#263,.T.);
#298=FACE_BOUND('',#264,.T.);
#299=FACE_BOUND('',#265,.T.);
#300=FACE_BOUND('',#266,.T.);
#301=FACE_BOUND('',#267,.T.);
#302=FACE_BOUND('',#268,.T.);
#303=FACE_BOUND('',#269,.T.);
#304=FACE_BOUND('',#20,.T.);
#305=FACE_BOUND('',#270,.T.);
#306=FACE_BOUND('',#271,.T.);
#307=FACE_BOUND('',#272,.T.);
#308=FACE_BOUND('',#273,.T.);
#309=FACE_BOUND('',#274,.T.);
#310=FACE_BOUND('',#275,.T.);
#311=FACE_BOUND('',#276,.T.);
#312=FACE_BOUND('',#277,.T.);
#313=CYLINDRICAL_SURFACE('',#353,3.);
#314=CYLINDRICAL_SURFACE('',#356,6.);
#315=CYLINDRICAL_SURFACE('',#359,1.621);
#316=CYLINDRICAL_SURFACE('',#361,1.621);
#317=ADVANCED_FACE('',(#278,#279,#280),#313,.F.);
#318=ADVANCED_FACE('',(#281,#282,#283),#314,.T.);
#319=ADVANCED_FACE('',(#284),#315,.F.);
#320=ADVANCED_FACE('',(#285),#316,.F.);
#321=ADVANCED_FACE('',(#286),#69,.F.);
#322=ADVANCED_FACE('',(#287),#70,.F.);
#323=ADVANCED_FACE('',(#288),#57,.F.);
#324=ADVANCED_FACE('',(#289,#290),#58,.F.);
#325=ADVANCED_FACE('',(#291,#292),#71,.T.);
#326=ADVANCED_FACE('',(#293,#294),#72,.T.);
#327=ADVANCED_FACE('',(#295,#296),#59,.F.);
#328=ADVANCED_FACE('',(#297,#298),#73,.T.);
#329=ADVANCED_FACE('',(#299),#60,.F.);
#330=ADVANCED_FACE('',(#300,#301),#74,.T.);
#331=ADVANCED_FACE('',(#302,#303),#61,.F.);
#332=ADVANCED_FACE('',(#304,#305),#75,.T.);
#333=ADVANCED_FACE('',(#306),#62,.F.);
#334=ADVANCED_FACE('',(#307),#63,.F.);
#335=ADVANCED_FACE('',(#308),#64,.F.);
#336=ADVANCED_FACE('',(#309),#65,.F.);
#337=ADVANCED_FACE('',(#310),#66,.F.);
#338=ADVANCED_FACE('',(#311),#67,.F.);
#339=ADVANCED_FACE('',(#312),#68,.T.);
#340=CLOSED_SHELL('',(#317,#318,#319,#320,#321,#322,#323,#324,#325,#326,
#327,#328,#329,#330,#331,#332,#333,#334,#335,#336,#337,#338,#339));
#341=STYLED_ITEM('',(#342),#349);
#342=PRESENTATION_STYLE_ASSIGNMENT((#343));
#343=SURFACE_STYLE_USAGE(.BOTH.,#344);
#344=SURFACE_SIDE_STYLE('',(#345));
#345=SURFACE_STYLE_FILL_AREA(#346);
#346=FILL_AREA_STYLE('',(#347));
#347=FILL_AREA_STYLE_COLOUR('',#348);
#348=COLOUR_RGB('',0.689999997615814,0.689999997615814,0.689999997615814);
#349=MANIFOLD_SOLID_BREP('11133 YSRP-12',#340);
#350=SHAPE_DEFINITION_REPRESENTATION(#624,#351);
#351=SHAPE_REPRESENTATION('11133 YSRP-12',(#352),#619);
#352=AXIS2_PLACEMENT_3D('',#481,#389,#390);
#353=AXIS2_PLACEMENT_3D('',#482,#391,#392);
#354=AXIS2_PLACEMENT_3D('',#483,#393,#394);
#355=AXIS2_PLACEMENT_3D('',#517,#395,#396);
#356=AXIS2_PLACEMENT_3D('',#519,#397,#398);
#357=AXIS2_PLACEMENT_3D('',#520,#399,#400);
#358=AXIS2_PLACEMENT_3D('',#550,#401,#402);
#359=AXIS2_PLACEMENT_3D('',#552,#403,#404);
#360=AXIS2_PLACEMENT_3D('',#553,#405,#406);
#361=AXIS2_PLACEMENT_3D('',#554,#407,#408);
#362=AXIS2_PLACEMENT_3D('',#555,#409,#410);
#363=AXIS2_PLACEMENT_3D('',#556,#411,#412);
#364=AXIS2_PLACEMENT_3D('',#557,#413,#414);
#365=AXIS2_PLACEMENT_3D('',#558,#415,#416);
#366=AXIS2_PLACEMENT_3D('',#559,#417,#418);
#367=AXIS2_PLACEMENT_3D('',#560,#419,#420);
#368=AXIS2_PLACEMENT_3D('',#561,#421,#422);
#369=AXIS2_PLACEMENT_3D('',#562,#423,#424);
#370=AXIS2_PLACEMENT_3D('',#564,#425,#426);
#371=AXIS2_PLACEMENT_3D('',#565,#427,#428);
#372=AXIS2_PLACEMENT_3D('',#566,#429,#430);
#373=AXIS2_PLACEMENT_3D('',#568,#431,#432);
#374=AXIS2_PLACEMENT_3D('',#569,#433,#434);
#375=AXIS2_PLACEMENT_3D('',#571,#435,#436);
#376=AXIS2_PLACEMENT_3D('',#572,#437,#438);
#377=AXIS2_PLACEMENT_3D('',#574,#439,#440);
#378=AXIS2_PLACEMENT_3D('',#575,#441,#442);
#379=AXIS2_PLACEMENT_3D('',#576,#443,#444);
#380=AXIS2_PLACEMENT_3D('',#578,#445,#446);
#381=AXIS2_PLACEMENT_3D('',#591,#453,#454);
#382=AXIS2_PLACEMENT_3D('',#593,#455,#456);
#383=AXIS2_PLACEMENT_3D('',#599,#460,#461);
#384=AXIS2_PLACEMENT_3D('',#603,#464,#465);
#385=AXIS2_PLACEMENT_3D('',#607,#468,#469);
#386=AXIS2_PLACEMENT_3D('',#611,#472,#473);
#387=AXIS2_PLACEMENT_3D('',#615,#476,#477);
#388=AXIS2_PLACEMENT_3D('',#617,#479,#480);
#389=DIRECTION('',(0.,0.,1.));
#390=DIRECTION('',(1.,0.,0.));
#391=DIRECTION('',(1.,0.,0.));
#392=DIRECTION('',(0.,0.,-1.));
#393=DIRECTION('',(1.,0.,0.));
#394=DIRECTION('',(0.,0.,-1.));
#395=DIRECTION('',(1.,0.,0.));
#396=DIRECTION('',(0.,0.,-1.));
#397=DIRECTION('',(1.,0.,0.));
#398=DIRECTION('',(0.,0.,-1.));
#399=DIRECTION('',(1.,0.,0.));
#400=DIRECTION('',(0.,0.,-1.));
#401=DIRECTION('',(1.,0.,0.));
#402=DIRECTION('',(0.,0.,-1.));
#403=DIRECTION('',(0.,-1.,0.));
#404=DIRECTION('',(0.,0.,-1.));
#405=DIRECTION('',(0.,1.,0.));
#406=DIRECTION('',(0.,0.,1.));
#407=DIRECTION('',(0.,-1.,0.));
#408=DIRECTION('',(0.,0.,-1.));
#409=DIRECTION('',(0.,1.,0.));
#410=DIRECTION('',(0.,0.,1.));
#411=DIRECTION('',(0.,1.,0.));
#412=DIRECTION('',(0.,0.,1.));
#413=DIRECTION('',(0.,-1.,0.));
#414=DIRECTION('',(0.,0.,-1.));
#415=DIRECTION('',(0.,1.,0.));
#416=DIRECTION('',(0.,0.,1.));
#417=DIRECTION('',(0.,-1.,0.));
#418=DIRECTION('',(0.,0.,-1.));
#419=DIRECTION('',(1.,0.,0.));
#420=DIRECTION('',(0.,0.,-1.));
#421=DIRECTION('',(1.,0.,0.));
#422=DIRECTION('',(0.,0.,-1.));
#423=DIRECTION('',(1.,0.,0.));
#424=DIRECTION('',(0.,0.,-1.));
#425=DIRECTION('',(1.,0.,0.));
#426=DIRECTION('',(0.,0.,-1.));
#427=DIRECTION('',(-1.,0.,0.));
#428=DIRECTION('',(0.,0.,1.));
#429=DIRECTION('',(1.,0.,0.));
#430=DIRECTION('',(0.,0.,-1.));
#431=DIRECTION('',(-1.,0.,0.));
#432=DIRECTION('',(0.,0.,1.));
#433=DIRECTION('',(1.,0.,0.));
#434=DIRECTION('',(0.,0.,-1.));
#435=DIRECTION('',(-1.,0.,0.));
#436=DIRECTION('',(0.,0.,1.));
#437=DIRECTION('',(1.,0.,0.));
#438=DIRECTION('',(0.,0.,-1.));
#439=DIRECTION('',(-1.,0.,0.));
#440=DIRECTION('',(0.,0.,1.));
#441=DIRECTION('',(0.,-1.,0.));
#442=DIRECTION('',(0.,0.,-1.));
#443=DIRECTION('',(0.,-1.,0.));
#444=DIRECTION('',(0.,0.,-1.));
#445=DIRECTION('',(0.,-1.,0.));
#446=DIRECTION('',(0.,0.,-1.));
#447=DIRECTION('',(0.866025403784439,0.,-0.5));
#448=DIRECTION('',(0.866025403784439,0.,0.5));
#449=DIRECTION('',(0.,0.,1.));
#450=DIRECTION('',(-0.866025403784439,0.,0.5));
#451=DIRECTION('',(-0.866025403784439,0.,-0.5));
#452=DIRECTION('',(0.,0.,1.));
#453=DIRECTION('',(0.,1.,0.));
#454=DIRECTION('',(0.,0.,1.));
#455=DIRECTION('',(-1.,0.,0.));
#456=DIRECTION('',(0.,0.,1.));
#457=DIRECTION('',(0.,1.,0.));
#458=DIRECTION('',(0.,0.,1.));
#459=DIRECTION('',(0.,1.,0.));
#460=DIRECTION('',(-0.5,0.,0.866025403784439));
#461=DIRECTION('',(0.866025403784439,0.,0.5));
#462=DIRECTION('',(0.,1.,0.));
#463=DIRECTION('',(0.866025403784439,0.,0.5));
#464=DIRECTION('',(0.5,0.,0.866025403784439));
#465=DIRECTION('',(0.866025403784439,0.,-0.5));
#466=DIRECTION('',(0.,1.,0.));
#467=DIRECTION('',(0.866025403784439,0.,-0.5));
#468=DIRECTION('',(1.,0.,0.));
#469=DIRECTION('',(0.,0.,-1.));
#470=DIRECTION('',(0.,1.,0.));
#471=DIRECTION('',(0.,0.,-1.));
#472=DIRECTION('',(0.5,0.,-0.866025403784439));
#473=DIRECTION('',(-0.866025403784439,0.,-0.5));
#474=DIRECTION('',(0.,1.,0.));
#475=DIRECTION('',(-0.866025403784439,0.,-0.5));
#476=DIRECTION('',(-0.5,0.,-0.866025403784439));
#477=DIRECTION('',(-0.866025403784439,0.,0.5));
#478=DIRECTION('',(-0.866025403784439,0.,0.5));
#479=DIRECTION('',(0.,1.,0.));
#480=DIRECTION('',(0.,0.,1.));
#481=CARTESIAN_POINT('',(0.,0.,0.));
#482=CARTESIAN_POINT('',(10.,0.,0.));
#483=CARTESIAN_POINT('',(0.,0.,0.));
#484=CARTESIAN_POINT('',(0.,0.,-3.));
#485=CARTESIAN_POINT('',(4.42430245952593,2.8984472560686,0.773953166405034));
#486=CARTESIAN_POINT('',(4.28641616336417,2.83068966953777,1.02770468430416));
#487=CARTESIAN_POINT('',(3.88146739109442,2.64118116699037,1.45258187618457));
#488=CARTESIAN_POINT('',(3.00466127472386,2.46600623717894,1.70510175144487));
#489=CARTESIAN_POINT('',(2.11674261877282,2.64092236964259,1.4529965131159));
#490=CARTESIAN_POINT('',(1.71379394489511,2.83058642194207,1.02809134556928));
#491=CARTESIAN_POINT('',(1.57569754047407,2.8984472560686,0.773953166405032));
#492=CARTESIAN_POINT('',(4.42430245952593,2.8984472560686,0.773953166405034));
#493=CARTESIAN_POINT('',(1.57569754047407,2.8984472560686,0.773953166405034));
#494=CARTESIAN_POINT('',(4.42430245952593,2.8984472560686,-0.773953166405034));
#495=CARTESIAN_POINT('',(4.56770707085195,2.92127349893038,-0.688469103724097));
#496=CARTESIAN_POINT('',(4.83920869088763,2.96894580856232,-0.490338234103943));
#497=CARTESIAN_POINT('',(5.08058532753607,3.01555998848923,-0.000528089193731809));
#498=CARTESIAN_POINT('',(4.83844982775207,2.9688142047563,0.491365196610795));
#499=CARTESIAN_POINT('',(4.56838532613803,2.92138145933516,0.688064793034457));
#500=CARTESIAN_POINT('',(4.42430245952611,2.89844725606866,0.773953166405482));
#501=CARTESIAN_POINT('',(4.42430245952593,2.8984472560686,-0.773953166405035));
#502=CARTESIAN_POINT('',(1.57569754047407,2.8984472560686,-0.773953166405035));
#503=CARTESIAN_POINT('',(1.71400274531476,2.83048381702123,-1.02847560002312));
#504=CARTESIAN_POINT('',(2.11622020827632,2.64128274914036,-1.45224355282683));
#505=CARTESIAN_POINT('',(3.00333709524086,2.46579171367259,-1.70545082950526));
#506=CARTESIAN_POINT('',(3.88340189080198,2.64167505673352,-1.45194448050792));
#507=CARTESIAN_POINT('',(4.28717204248712,2.83106110996736,-1.02631364342386));
#508=CARTESIAN_POINT('',(4.42430245952593,2.8984472560686,-0.773953166405037));
#509=CARTESIAN_POINT('',(1.57569754047407,2.8984472560686,-0.773953166405034));
#510=CARTESIAN_POINT('',(1.57569754047407,2.8984472560686,0.773953166405034));
#511=CARTESIAN_POINT('',(1.43270129753238,2.92120849742289,0.688712533752183));
#512=CARTESIAN_POINT('',(1.16105663065763,2.96889299653943,0.490866181159172));
#513=CARTESIAN_POINT('',(0.919685688579246,3.01551202757897,0.000451362126110568));
#514=CARTESIAN_POINT('',(1.16020175828635,2.96905867463362,-0.489866919700135));
#515=CARTESIAN_POINT('',(1.43170634836265,2.92136686716549,-0.688119440570571));
#516=CARTESIAN_POINT('',(1.57569754047407,2.8984472560686,-0.773953166405034));
#517=CARTESIAN_POINT('',(6.,0.,0.));
#518=CARTESIAN_POINT('',(6.,0.,-3.));
#519=CARTESIAN_POINT('',(10.,0.,0.));
#520=CARTESIAN_POINT('',(8.625,0.,0.));
#521=CARTESIAN_POINT('',(8.625,0.,-6.));
#522=CARTESIAN_POINT('',(2.18991659380097,5.78524999999994,-1.59087473972678));
#523=CARTESIAN_POINT('',(1.86143224080868,5.82039955730198,-1.46305262318696));
#524=CARTESIAN_POINT('',(1.26691377417009,5.92897967399997,-1.0502917117733));
#525=CARTESIAN_POINT('',(0.867388482863543,6.03534926498993,-0.00442333932429372));
#526=CARTESIAN_POINT('',(1.26355204937545,5.92961832729395,1.04912798249128));
#527=CARTESIAN_POINT('',(1.8630002003277,5.82023177736832,1.4636627585024));
#528=CARTESIAN_POINT('',(2.18991659380037,5.78525,1.59087473972654));
#529=CARTESIAN_POINT('',(2.18991659380074,5.78524999999983,-1.59087473972718));
#530=CARTESIAN_POINT('',(2.18991659380036,5.78525,1.59087473972654));
#531=CARTESIAN_POINT('',(3.81008340619964,5.78525,-1.59087473972654));
#532=CARTESIAN_POINT('',(3.57909254750409,5.73846953459673,-1.76099290221668));
#533=CARTESIAN_POINT('',(3.00081813442518,5.66455384737826,-1.97674102937583));
#534=CARTESIAN_POINT('',(2.42181566367409,5.73828560289557,-1.76166177377991));
#535=CARTESIAN_POINT('',(2.18991659380091,5.78524999999989,-1.59087473972695));
#536=CARTESIAN_POINT('',(3.81008340619964,5.78525,-1.59087473972654));
#537=CARTESIAN_POINT('',(3.81008340619963,5.78525,1.59087473972655));
#538=CARTESIAN_POINT('',(4.13763007503158,5.82029922015412,1.46341750137009));
#539=CARTESIAN_POINT('',(4.73265581684106,5.92885338927701,1.05013242822576));
#540=CARTESIAN_POINT('',(5.13296493049624,6.03540275009762,0.00769120774828385));
#541=CARTESIAN_POINT('',(4.73543234376061,5.92952258100393,-1.05026865350508));
#542=CARTESIAN_POINT('',(4.13952520735019,5.82050200930197,-1.46268005429877));
#543=CARTESIAN_POINT('',(3.81008340619964,5.78525,-1.59087473972654));
#544=CARTESIAN_POINT('',(3.81008340619963,5.78525,1.59087473972655));
#545=CARTESIAN_POINT('',(2.18991659380037,5.78525,1.59087473972654));
#546=CARTESIAN_POINT('',(2.42075252232589,5.7385009111867,1.76087880057652));
#547=CARTESIAN_POINT('',(2.99888515536278,5.66456740310553,1.97669179433706));
#548=CARTESIAN_POINT('',(3.57789655831111,5.73822732184693,1.76187371405926));
#549=CARTESIAN_POINT('',(3.81008340619963,5.78525,1.59087473972654));
#550=CARTESIAN_POINT('',(0.375,0.,0.));
#551=CARTESIAN_POINT('',(0.375,0.,-6.));
#552=CARTESIAN_POINT('',(3.,2.,0.));
#553=CARTESIAN_POINT('',(3.,2.8984472560686,0.));
#554=CARTESIAN_POINT('',(3.,2.,0.));
#555=CARTESIAN_POINT('',(3.,2.8984472560686,0.));
#556=CARTESIAN_POINT('',(3.,6.,0.));
#557=CARTESIAN_POINT('',(3.,5.78525,0.));
#558=CARTESIAN_POINT('',(3.,6.,0.));
#559=CARTESIAN_POINT('',(3.,5.78525,0.));
#560=CARTESIAN_POINT('',(6.,0.,0.));
#561=CARTESIAN_POINT('',(0.,3.,0.));
#562=CARTESIAN_POINT('',(0.,0.,0.));
#563=CARTESIAN_POINT('',(0.,0.,-5.625));
#564=CARTESIAN_POINT('',(0.,0.,0.));
#565=CARTESIAN_POINT('',(8.625,0.,0.));
#566=CARTESIAN_POINT('',(9.,0.,0.));
#567=CARTESIAN_POINT('',(9.,0.,-5.625));
#568=CARTESIAN_POINT('',(9.,5.625,0.));
#569=CARTESIAN_POINT('',(9.,0.,0.));
#570=CARTESIAN_POINT('',(9.,0.,-4.8));
#571=CARTESIAN_POINT('',(9.,0.,0.));
#572=CARTESIAN_POINT('',(10.,0.,0.));
#573=CARTESIAN_POINT('',(10.,0.,-4.53205080756888));
#574=CARTESIAN_POINT('',(10.,4.53205080756888,0.));
#575=CARTESIAN_POINT('',(3.,6.,0.));
#576=CARTESIAN_POINT('',(3.,6.,0.));
#577=CARTESIAN_POINT('',(3.,6.,-1.5705));
#578=CARTESIAN_POINT('',(3.,6.,0.));
#579=CARTESIAN_POINT('',(3.,6.,1.15470053837925));
#580=CARTESIAN_POINT('',(3.,6.,1.15470053837925));
#581=CARTESIAN_POINT('',(4.,6.,0.577350269189626));
#582=CARTESIAN_POINT('',(2.,6.,0.577350269189626));
#583=CARTESIAN_POINT('',(2.,6.,0.577350269189626));
#584=CARTESIAN_POINT('',(2.,6.,-0.577350269189626));
#585=CARTESIAN_POINT('',(2.,6.,-0.577350269189626));
#586=CARTESIAN_POINT('',(3.,6.,-1.15470053837925));
#587=CARTESIAN_POINT('',(3.,6.,-1.15470053837925));
#588=CARTESIAN_POINT('',(4.,6.,-0.577350269189626));
#589=CARTESIAN_POINT('',(4.,6.,-0.577350269189626));
#590=CARTESIAN_POINT('',(4.,6.,0.));
#591=CARTESIAN_POINT('',(3.,3.,0.));
#592=CARTESIAN_POINT('',(3.,2.46410161513775,0.));
#593=CARTESIAN_POINT('',(2.,4.,-0.577350269189626));
#594=CARTESIAN_POINT('',(2.,4.,0.577350269189626));
#595=CARTESIAN_POINT('',(2.,4.,0.577350269189626));
#596=CARTESIAN_POINT('',(2.,4.,-0.577350269189626));
#597=CARTESIAN_POINT('',(2.,4.,-0.577350269189626));
#598=CARTESIAN_POINT('',(2.,4.,-0.577350269189626));
#599=CARTESIAN_POINT('',(2.,4.,0.577350269189626));
#600=CARTESIAN_POINT('',(3.,4.,1.15470053837925));
#601=CARTESIAN_POINT('',(3.,4.,1.15470053837925));
#602=CARTESIAN_POINT('',(2.,4.,0.577350269189626));
#603=CARTESIAN_POINT('',(3.,4.,1.15470053837925));
#604=CARTESIAN_POINT('',(4.,4.,0.577350269189626));
#605=CARTESIAN_POINT('',(4.,4.,0.577350269189626));
#606=CARTESIAN_POINT('',(3.,4.,1.15470053837925));
#607=CARTESIAN_POINT('',(4.,4.,0.577350269189626));
#608=CARTESIAN_POINT('',(4.,4.,-0.577350269189626));
#609=CARTESIAN_POINT('',(4.,4.,-0.577350269189626));
#610=CARTESIAN_POINT('',(4.,4.,0.577350269189626));
#611=CARTESIAN_POINT('',(4.,4.,-0.577350269189626));
#612=CARTESIAN_POINT('',(3.,4.,-1.15470053837925));
#613=CARTESIAN_POINT('',(3.,4.,-1.15470053837925));
#614=CARTESIAN_POINT('',(4.,4.,-0.577350269189626));
#615=CARTESIAN_POINT('',(3.,4.,-1.15470053837925));
#616=CARTESIAN_POINT('',(3.,4.,-1.15470053837925));
#617=CARTESIAN_POINT('',(0.,4.,0.));
#618=MECHANICAL_DESIGN_GEOMETRIC_PRESENTATION_REPRESENTATION('',(#341),
#619);
#619=(
GEOMETRIC_REPRESENTATION_CONTEXT(3)
GLOBAL_UNCERTAINTY_ASSIGNED_CONTEXT((#620))
GLOBAL_UNIT_ASSIGNED_CONTEXT((#623,#622,#621))
REPRESENTATION_CONTEXT('11133 YSRP-12','TOP_LEVEL_ASSEMBLY_PART')
);
#620=UNCERTAINTY_MEASURE_WITH_UNIT(LENGTH_MEASURE(0.005),#623,
'DISTANCE_ACCURACY_VALUE','Maximum Tolerance applied to model');
#621=(
NAMED_UNIT(*)
SI_UNIT($,.STERADIAN.)
SOLID_ANGLE_UNIT()
);
#622=(
NAMED_UNIT(*)
PLANE_ANGLE_UNIT()
SI_UNIT($,.RADIAN.)
);
#623=(
LENGTH_UNIT()
NAMED_UNIT(*)
SI_UNIT(.MILLI.,.METRE.)
);
#624=PRODUCT_DEFINITION_SHAPE('','',#625);
#625=PRODUCT_DEFINITION('','',#627,#626);
#626=PRODUCT_DEFINITION_CONTEXT('',#633,'design');
#627=PRODUCT_DEFINITION_FORMATION_WITH_SPECIFIED_SOURCE('','',#629,
 .NOT_KNOWN.);
#628=PRODUCT_RELATED_PRODUCT_CATEGORY('','',(#629));
#629=PRODUCT('11133 YSRP-12','11133 YSRP-12','11133 YSRP-12',(#631));
#630=PRODUCT_CATEGORY('','');
#631=PRODUCT_CONTEXT('',#633,'mechanical');
#632=APPLICATION_PROTOCOL_DEFINITION('international standard',
'automotive_design',2010,#633);
#633=APPLICATION_CONTEXT(
'core data for automotive mechanical design processes');
ENDSEC;
END-ISO-10303-21;
