ISO-10303-21;
HEADER;
/* Generated by software containing ST-Developer
 * from STEP Tools, Inc. (www.steptools.com) 
 */
/* OPTION: using custom renumber hook */

FILE_DESCRIPTION(
/* description */ ('STEP AP214'),
/* implementation_level */ '2;1');

FILE_NAME(
/* name */ '11134_YSRP-16',
/* time_stamp */ '2024-09-18T13:46:55+02:00',
/* author */ ('License CC BY-ND 4.0'),
/* organization */ ('CADENAS'),
/* preprocessor_version */ 'ST-DEVELOPER v19.3',
/* originating_system */ 'PARTsolutions',
/* authorisation */ '  ');

FILE_SCHEMA (('AUTOMOTIVE_DESIGN {1 0 10303 214 3 1 1}'));
ENDSEC;

DATA;
#10=PROPERTY_DEFINITION_REPRESENTATION(#14,#12);
#11=PROPERTY_DEFINITION_REPRESENTATION(#15,#13);
#12=REPRESENTATION('',(#16),#619);
#13=REPRESENTATION('',(#17),#619);
#14=PROPERTY_DEFINITION('pmi validation property','',#624);
#15=PROPERTY_DEFINITION('pmi validation property','',#624);
#16=VALUE_REPRESENTATION_ITEM('number of annotations',COUNT_MEASURE(0.));
#17=VALUE_REPRESENTATION_ITEM('number of views',COUNT_MEASURE(0.));
#18=SHAPE_REPRESENTATION_RELATIONSHIP('','',#351,#19);
#19=ADVANCED_BREP_SHAPE_REPRESENTATION('',(#349),#619);
#20=VERTEX_LOOP('',#224);
#21=LINE('',#579,#39);
#22=LINE('',#582,#40);
#23=LINE('',#584,#41);
#24=LINE('',#586,#42);
#25=LINE('',#588,#43);
#26=LINE('',#590,#44);
#27=LINE('',#594,#45);
#28=LINE('',#596,#46);
#29=LINE('',#598,#47);
#30=LINE('',#600,#48);
#31=LINE('',#602,#49);
#32=LINE('',#604,#50);
#33=LINE('',#606,#51);
#34=LINE('',#608,#52);
#35=LINE('',#610,#53);
#36=LINE('',#612,#54);
#37=LINE('',#614,#55);
#38=LINE('',#616,#56);
#39=VECTOR('',#447,1000.);
#40=VECTOR('',#448,1000.);
#41=VECTOR('',#449,1000.);
#42=VECTOR('',#450,1000.);
#43=VECTOR('',#451,1000.);
#44=VECTOR('',#452,1000.);
#45=VECTOR('',#457,1000.);
#46=VECTOR('',#458,1000.);
#47=VECTOR('',#459,1000.);
#48=VECTOR('',#462,1000.);
#49=VECTOR('',#463,1000.);
#50=VECTOR('',#466,1000.);
#51=VECTOR('',#467,1000.);
#52=VECTOR('',#470,1000.);
#53=VECTOR('',#471,1000.);
#54=VECTOR('',#474,1000.);
#55=VECTOR('',#475,1000.);
#56=VECTOR('',#478,1000.);
#57=PLANE('',#367);
#58=PLANE('',#368);
#59=PLANE('',#373);
#60=PLANE('',#377);
#61=PLANE('',#380);
#62=PLANE('',#382);
#63=PLANE('',#383);
#64=PLANE('',#384);
#65=PLANE('',#385);
#66=PLANE('',#386);
#67=PLANE('',#387);
#68=PLANE('',#388);
#69=CONICAL_SURFACE('',#363,2.5,0.785398163397448);
#70=CONICAL_SURFACE('',#365,2.5,0.785398163397448);
#71=CONICAL_SURFACE('',#370,7.5,0.785398163397448);
#72=CONICAL_SURFACE('',#371,8.,0.785398163397448);
#73=CONICAL_SURFACE('',#375,6.4,0.26179938779915);
#74=CONICAL_SURFACE('',#378,2.0095,0.785398163397449);
#75=CONICAL_SURFACE('',#381,2.5,1.30899693899575);
#76=B_SPLINE_CURVE_WITH_KNOTS('',3,(#485,#486,#487,#488,#489,#490,#491),
 .UNSPECIFIED.,.F.,.F.,(4,1,1,1,4),(0.00428842939013965,0.00543405119521373,
0.00657967300028782,0.0077252948053619,0.00887091661043599),
 .UNSPECIFIED.);
#77=B_SPLINE_CURVE_WITH_KNOTS('',3,(#494,#495,#496,#497,#498,#499,#500),
 .UNSPECIFIED.,.F.,.F.,(4,1,1,1,4),(0.00357777625874218,0.00418390794232044,
0.0047900396258987,0.00539617130947696,0.00600230299305522),
 .UNSPECIFIED.);
#78=B_SPLINE_CURVE_WITH_KNOTS('',3,(#502,#503,#504,#505,#506,#507,#508),
 .UNSPECIFIED.,.F.,.F.,(4,1,1,1,4),(0.0108643519910126,0.0120095963039989,
0.0131548406169852,0.0143000849299715,0.0154453292429578),.UNSPECIFIED.);
#79=B_SPLINE_CURVE_WITH_KNOTS('',3,(#510,#511,#512,#513,#514,#515,#516),
 .UNSPECIFIED.,.F.,.F.,(4,1,1,1,4),(0.00986734835772669,0.010474121417966,
0.0110808944782053,0.0116876675384446,0.0122944405986839),.UNSPECIFIED.);
#80=B_SPLINE_CURVE_WITH_KNOTS('',3,(#522,#523,#524,#525,#526,#527,#528),
 .UNSPECIFIED.,.F.,.F.,(4,1,1,1,4),(0.0140972204920412,0.0153763354076167,
0.0166554503231922,0.0179345652387678,0.0192136801543433),.UNSPECIFIED.);
#81=B_SPLINE_CURVE_WITH_KNOTS('',3,(#531,#532,#533,#534,#535),
 .UNSPECIFIED.,.F.,.F.,(4,1,4),(0.0108529956312088,0.0120457833403575,0.0132385710495061),
 .UNSPECIFIED.);
#82=B_SPLINE_CURVE_WITH_KNOTS('',3,(#537,#538,#539,#540,#541,#542,#543),
 .UNSPECIFIED.,.F.,.F.,(4,1,1,1,4),(0.00671618836753783,0.00799465731169847,
0.00927312625585911,0.0105515952000198,0.0118300641441804),
 .UNSPECIFIED.);
#83=B_SPLINE_CURVE_WITH_KNOTS('',3,(#545,#546,#547,#548,#549),
 .UNSPECIFIED.,.F.,.F.,(4,1,4),(0.00398985101737359,0.00518404381558201,
0.00637823661379043),.UNSPECIFIED.);
#84=ORIENTED_EDGE('',*,*,#162,.F.);
#85=ORIENTED_EDGE('',*,*,#163,.F.);
#86=ORIENTED_EDGE('',*,*,#164,.F.);
#87=ORIENTED_EDGE('',*,*,#165,.F.);
#88=ORIENTED_EDGE('',*,*,#166,.F.);
#89=ORIENTED_EDGE('',*,*,#167,.T.);
#90=ORIENTED_EDGE('',*,*,#168,.F.);
#91=ORIENTED_EDGE('',*,*,#169,.F.);
#92=ORIENTED_EDGE('',*,*,#170,.F.);
#93=ORIENTED_EDGE('',*,*,#171,.F.);
#94=ORIENTED_EDGE('',*,*,#172,.F.);
#95=ORIENTED_EDGE('',*,*,#173,.T.);
#96=ORIENTED_EDGE('',*,*,#165,.T.);
#97=ORIENTED_EDGE('',*,*,#174,.T.);
#98=ORIENTED_EDGE('',*,*,#163,.T.);
#99=ORIENTED_EDGE('',*,*,#175,.T.);
#100=ORIENTED_EDGE('',*,*,#176,.T.);
#101=ORIENTED_EDGE('',*,*,#171,.T.);
#102=ORIENTED_EDGE('',*,*,#169,.T.);
#103=ORIENTED_EDGE('',*,*,#177,.T.);
#104=ORIENTED_EDGE('',*,*,#167,.F.);
#105=ORIENTED_EDGE('',*,*,#178,.F.);
#106=ORIENTED_EDGE('',*,*,#162,.T.);
#107=ORIENTED_EDGE('',*,*,#173,.F.);
#108=ORIENTED_EDGE('',*,*,#178,.T.);
#109=ORIENTED_EDGE('',*,*,#179,.F.);
#110=ORIENTED_EDGE('',*,*,#168,.T.);
#111=ORIENTED_EDGE('',*,*,#180,.F.);
#112=ORIENTED_EDGE('',*,*,#179,.T.);
#113=ORIENTED_EDGE('',*,*,#181,.F.);
#114=ORIENTED_EDGE('',*,*,#180,.T.);
#115=ORIENTED_EDGE('',*,*,#181,.T.);
#116=ORIENTED_EDGE('',*,*,#176,.F.);
#117=ORIENTED_EDGE('',*,*,#170,.T.);
#118=ORIENTED_EDGE('',*,*,#177,.F.);
#119=ORIENTED_EDGE('',*,*,#172,.T.);
#120=ORIENTED_EDGE('',*,*,#182,.T.);
#121=ORIENTED_EDGE('',*,*,#182,.F.);
#122=ORIENTED_EDGE('',*,*,#183,.F.);
#123=ORIENTED_EDGE('',*,*,#184,.F.);
#124=ORIENTED_EDGE('',*,*,#185,.F.);
#125=ORIENTED_EDGE('',*,*,#186,.F.);
#126=ORIENTED_EDGE('',*,*,#187,.F.);
#127=ORIENTED_EDGE('',*,*,#188,.T.);
#128=ORIENTED_EDGE('',*,*,#166,.T.);
#129=ORIENTED_EDGE('',*,*,#174,.F.);
#130=ORIENTED_EDGE('',*,*,#164,.T.);
#131=ORIENTED_EDGE('',*,*,#175,.F.);
#132=ORIENTED_EDGE('',*,*,#185,.T.);
#133=ORIENTED_EDGE('',*,*,#189,.F.);
#134=ORIENTED_EDGE('',*,*,#190,.F.);
#135=ORIENTED_EDGE('',*,*,#191,.T.);
#136=ORIENTED_EDGE('',*,*,#184,.T.);
#137=ORIENTED_EDGE('',*,*,#192,.F.);
#138=ORIENTED_EDGE('',*,*,#193,.F.);
#139=ORIENTED_EDGE('',*,*,#189,.T.);
#140=ORIENTED_EDGE('',*,*,#183,.T.);
#141=ORIENTED_EDGE('',*,*,#194,.F.);
#142=ORIENTED_EDGE('',*,*,#195,.F.);
#143=ORIENTED_EDGE('',*,*,#192,.T.);
#144=ORIENTED_EDGE('',*,*,#194,.T.);
#145=ORIENTED_EDGE('',*,*,#188,.F.);
#146=ORIENTED_EDGE('',*,*,#196,.F.);
#147=ORIENTED_EDGE('',*,*,#197,.F.);
#148=ORIENTED_EDGE('',*,*,#187,.T.);
#149=ORIENTED_EDGE('',*,*,#198,.F.);
#150=ORIENTED_EDGE('',*,*,#199,.F.);
#151=ORIENTED_EDGE('',*,*,#196,.T.);
#152=ORIENTED_EDGE('',*,*,#186,.T.);
#153=ORIENTED_EDGE('',*,*,#191,.F.);
#154=ORIENTED_EDGE('',*,*,#200,.F.);
#155=ORIENTED_EDGE('',*,*,#198,.T.);
#156=ORIENTED_EDGE('',*,*,#190,.T.);
#157=ORIENTED_EDGE('',*,*,#193,.T.);
#158=ORIENTED_EDGE('',*,*,#195,.T.);
#159=ORIENTED_EDGE('',*,*,#197,.T.);
#160=ORIENTED_EDGE('',*,*,#199,.T.);
#161=ORIENTED_EDGE('',*,*,#200,.T.);
#162=EDGE_CURVE('',#201,#201,#231,.T.);
#163=EDGE_CURVE('',#202,#203,#76,.T.);
#164=EDGE_CURVE('',#204,#202,#77,.T.);
#165=EDGE_CURVE('',#205,#204,#78,.T.);
#166=EDGE_CURVE('',#203,#205,#79,.T.);
#167=EDGE_CURVE('',#206,#206,#232,.T.);
#168=EDGE_CURVE('',#207,#207,#233,.T.);
#169=EDGE_CURVE('',#208,#209,#80,.T.);
#170=EDGE_CURVE('',#210,#208,#81,.T.);
#171=EDGE_CURVE('',#211,#210,#82,.T.);
#172=EDGE_CURVE('',#209,#211,#83,.T.);
#173=EDGE_CURVE('',#212,#212,#234,.T.);
#174=EDGE_CURVE('',#204,#205,#235,.T.);
#175=EDGE_CURVE('',#203,#202,#236,.T.);
#176=EDGE_CURVE('',#210,#211,#237,.T.);
#177=EDGE_CURVE('',#209,#208,#238,.T.);
#178=EDGE_CURVE('',#213,#213,#239,.T.);
#179=EDGE_CURVE('',#214,#214,#240,.T.);
#180=EDGE_CURVE('',#215,#215,#241,.T.);
#181=EDGE_CURVE('',#216,#216,#242,.T.);
#182=EDGE_CURVE('',#217,#217,#243,.T.);
#183=EDGE_CURVE('',#218,#219,#21,.T.);
#184=EDGE_CURVE('',#220,#218,#22,.T.);
#185=EDGE_CURVE('',#221,#220,#23,.T.);
#186=EDGE_CURVE('',#222,#221,#24,.T.);
#187=EDGE_CURVE('',#223,#222,#25,.T.);
#188=EDGE_CURVE('',#223,#219,#26,.T.);
#189=EDGE_CURVE('',#225,#220,#27,.T.);
#190=EDGE_CURVE('',#226,#225,#28,.T.);
#191=EDGE_CURVE('',#226,#221,#29,.T.);
#192=EDGE_CURVE('',#227,#218,#30,.T.);
#193=EDGE_CURVE('',#225,#227,#31,.T.);
#194=EDGE_CURVE('',#228,#219,#32,.T.);
#195=EDGE_CURVE('',#227,#228,#33,.T.);
#196=EDGE_CURVE('',#229,#223,#34,.T.);
#197=EDGE_CURVE('',#228,#229,#35,.T.);
#198=EDGE_CURVE('',#230,#222,#36,.T.);
#199=EDGE_CURVE('',#229,#230,#37,.T.);
#200=EDGE_CURVE('',#230,#226,#38,.T.);
#201=VERTEX_POINT('',#484);
#202=VERTEX_POINT('',#492);
#203=VERTEX_POINT('',#493);
#204=VERTEX_POINT('',#501);
#205=VERTEX_POINT('',#509);
#206=VERTEX_POINT('',#518);
#207=VERTEX_POINT('',#521);
#208=VERTEX_POINT('',#529);
#209=VERTEX_POINT('',#530);
#210=VERTEX_POINT('',#536);
#211=VERTEX_POINT('',#544);
#212=VERTEX_POINT('',#551);
#213=VERTEX_POINT('',#563);
#214=VERTEX_POINT('',#567);
#215=VERTEX_POINT('',#570);
#216=VERTEX_POINT('',#573);
#217=VERTEX_POINT('',#577);
#218=VERTEX_POINT('',#580);
#219=VERTEX_POINT('',#581);
#220=VERTEX_POINT('',#583);
#221=VERTEX_POINT('',#585);
#222=VERTEX_POINT('',#587);
#223=VERTEX_POINT('',#589);
#224=VERTEX_POINT('',#592);
#225=VERTEX_POINT('',#595);
#226=VERTEX_POINT('',#597);
#227=VERTEX_POINT('',#601);
#228=VERTEX_POINT('',#605);
#229=VERTEX_POINT('',#609);
#230=VERTEX_POINT('',#613);
#231=CIRCLE('',#354,4.);
#232=CIRCLE('',#355,4.);
#233=CIRCLE('',#357,8.);
#234=CIRCLE('',#358,8.);
#235=CIRCLE('',#360,2.067);
#236=CIRCLE('',#362,2.067);
#237=CIRCLE('',#364,2.25475);
#238=CIRCLE('',#366,2.25475);
#239=CIRCLE('',#369,7.5);
#240=CIRCLE('',#372,7.5);
#241=CIRCLE('',#374,6.4);
#242=CIRCLE('',#376,5.99807621135332);
#243=CIRCLE('',#379,2.0095);
#244=EDGE_LOOP('',(#84));
#245=EDGE_LOOP('',(#85,#86,#87,#88));
#246=EDGE_LOOP('',(#89));
#247=EDGE_LOOP('',(#90));
#248=EDGE_LOOP('',(#91,#92,#93,#94));
#249=EDGE_LOOP('',(#95));
#250=EDGE_LOOP('',(#96,#97));
#251=EDGE_LOOP('',(#98,#99));
#252=EDGE_LOOP('',(#100,#101));
#253=EDGE_LOOP('',(#102,#103));
#254=EDGE_LOOP('',(#104));
#255=EDGE_LOOP('',(#105));
#256=EDGE_LOOP('',(#106));
#257=EDGE_LOOP('',(#107));
#258=EDGE_LOOP('',(#108));
#259=EDGE_LOOP('',(#109));
#260=EDGE_LOOP('',(#110));
#261=EDGE_LOOP('',(#111));
#262=EDGE_LOOP('',(#112));
#263=EDGE_LOOP('',(#113));
#264=EDGE_LOOP('',(#114));
#265=EDGE_LOOP('',(#115));
#266=EDGE_LOOP('',(#116,#117,#118,#119));
#267=EDGE_LOOP('',(#120));
#268=EDGE_LOOP('',(#121));
#269=EDGE_LOOP('',(#122,#123,#124,#125,#126,#127));
#270=EDGE_LOOP('',(#128,#129,#130,#131));
#271=EDGE_LOOP('',(#132,#133,#134,#135));
#272=EDGE_LOOP('',(#136,#137,#138,#139));
#273=EDGE_LOOP('',(#140,#141,#142,#143));
#274=EDGE_LOOP('',(#144,#145,#146,#147));
#275=EDGE_LOOP('',(#148,#149,#150,#151));
#276=EDGE_LOOP('',(#152,#153,#154,#155));
#277=EDGE_LOOP('',(#156,#157,#158,#159,#160,#161));
#278=FACE_BOUND('',#244,.T.);
#279=FACE_BOUND('',#245,.T.);
#280=FACE_BOUND('',#246,.T.);
#281=FACE_BOUND('',#247,.T.);
#282=FACE_BOUND('',#248,.T.);
#283=FACE_BOUND('',#249,.T.);
#284=FACE_BOUND('',#250,.T.);
#285=FACE_BOUND('',#251,.T.);
#286=FACE_BOUND('',#252,.T.);
#287=FACE_BOUND('',#253,.T.);
#288=FACE_BOUND('',#254,.T.);
#289=FACE_BOUND('',#255,.T.);
#290=FACE_BOUND('',#256,.T.);
#291=FACE_BOUND('',#257,.T.);
#292=FACE_BOUND('',#258,.T.);
#293=FACE_BOUND('',#259,.T.);
#294=FACE_BOUND('',#260,.T.);
#295=FACE_BOUND('',#261,.T.);
#296=FACE_BOUND('',#262,.T.);
#297=FACE_BOUND('',#263,.T.);
#298=FACE_BOUND('',#264,.T.);
#299=FACE_BOUND('',#265,.T.);
#300=FACE_BOUND('',#266,.T.);
#301=FACE_BOUND('',#267,.T.);
#302=FACE_BOUND('',#268,.T.);
#303=FACE_BOUND('',#269,.T.);
#304=FACE_BOUND('',#20,.T.);
#305=FACE_BOUND('',#270,.T.);
#306=FACE_BOUND('',#271,.T.);
#307=FACE_BOUND('',#272,.T.);
#308=FACE_BOUND('',#273,.T.);
#309=FACE_BOUND('',#274,.T.);
#310=FACE_BOUND('',#275,.T.);
#311=FACE_BOUND('',#276,.T.);
#312=FACE_BOUND('',#277,.T.);
#313=CYLINDRICAL_SURFACE('',#353,4.);
#314=CYLINDRICAL_SURFACE('',#356,8.);
#315=CYLINDRICAL_SURFACE('',#359,2.067);
#316=CYLINDRICAL_SURFACE('',#361,2.067);
#317=ADVANCED_FACE('',(#278,#279,#280),#313,.F.);
#318=ADVANCED_FACE('',(#281,#282,#283),#314,.T.);
#319=ADVANCED_FACE('',(#284),#315,.F.);
#320=ADVANCED_FACE('',(#285),#316,.F.);
#321=ADVANCED_FACE('',(#286),#69,.F.);
#322=ADVANCED_FACE('',(#287),#70,.F.);
#323=ADVANCED_FACE('',(#288),#57,.F.);
#324=ADVANCED_FACE('',(#289,#290),#58,.F.);
#325=ADVANCED_FACE('',(#291,#292),#71,.T.);
#326=ADVANCED_FACE('',(#293,#294),#72,.T.);
#327=ADVANCED_FACE('',(#295,#296),#59,.F.);
#328=ADVANCED_FACE('',(#297,#298),#73,.T.);
#329=ADVANCED_FACE('',(#299),#60,.F.);
#330=ADVANCED_FACE('',(#300,#301),#74,.T.);
#331=ADVANCED_FACE('',(#302,#303),#61,.F.);
#332=ADVANCED_FACE('',(#304,#305),#75,.T.);
#333=ADVANCED_FACE('',(#306),#62,.F.);
#334=ADVANCED_FACE('',(#307),#63,.F.);
#335=ADVANCED_FACE('',(#308),#64,.F.);
#336=ADVANCED_FACE('',(#309),#65,.F.);
#337=ADVANCED_FACE('',(#310),#66,.F.);
#338=ADVANCED_FACE('',(#311),#67,.F.);
#339=ADVANCED_FACE('',(#312),#68,.T.);
#340=CLOSED_SHELL('',(#317,#318,#319,#320,#321,#322,#323,#324,#325,#326,
#327,#328,#329,#330,#331,#332,#333,#334,#335,#336,#337,#338,#339));
#341=STYLED_ITEM('',(#342),#349);
#342=PRESENTATION_STYLE_ASSIGNMENT((#343));
#343=SURFACE_STYLE_USAGE(.BOTH.,#344);
#344=SURFACE_SIDE_STYLE('',(#345));
#345=SURFACE_STYLE_FILL_AREA(#346);
#346=FILL_AREA_STYLE('',(#347));
#347=FILL_AREA_STYLE_COLOUR('',#348);
#348=COLOUR_RGB('',0.689999997615814,0.689999997615814,0.689999997615814);
#349=MANIFOLD_SOLID_BREP('11134 YSRP-16',#340);
#350=SHAPE_DEFINITION_REPRESENTATION(#624,#351);
#351=SHAPE_REPRESENTATION('11134 YSRP-16',(#352),#619);
#352=AXIS2_PLACEMENT_3D('',#481,#389,#390);
#353=AXIS2_PLACEMENT_3D('',#482,#391,#392);
#354=AXIS2_PLACEMENT_3D('',#483,#393,#394);
#355=AXIS2_PLACEMENT_3D('',#517,#395,#396);
#356=AXIS2_PLACEMENT_3D('',#519,#397,#398);
#357=AXIS2_PLACEMENT_3D('',#520,#399,#400);
#358=AXIS2_PLACEMENT_3D('',#550,#401,#402);
#359=AXIS2_PLACEMENT_3D('',#552,#403,#404);
#360=AXIS2_PLACEMENT_3D('',#553,#405,#406);
#361=AXIS2_PLACEMENT_3D('',#554,#407,#408);
#362=AXIS2_PLACEMENT_3D('',#555,#409,#410);
#363=AXIS2_PLACEMENT_3D('',#556,#411,#412);
#364=AXIS2_PLACEMENT_3D('',#557,#413,#414);
#365=AXIS2_PLACEMENT_3D('',#558,#415,#416);
#366=AXIS2_PLACEMENT_3D('',#559,#417,#418);
#367=AXIS2_PLACEMENT_3D('',#560,#419,#420);
#368=AXIS2_PLACEMENT_3D('',#561,#421,#422);
#369=AXIS2_PLACEMENT_3D('',#562,#423,#424);
#370=AXIS2_PLACEMENT_3D('',#564,#425,#426);
#371=AXIS2_PLACEMENT_3D('',#565,#427,#428);
#372=AXIS2_PLACEMENT_3D('',#566,#429,#430);
#373=AXIS2_PLACEMENT_3D('',#568,#431,#432);
#374=AXIS2_PLACEMENT_3D('',#569,#433,#434);
#375=AXIS2_PLACEMENT_3D('',#571,#435,#436);
#376=AXIS2_PLACEMENT_3D('',#572,#437,#438);
#377=AXIS2_PLACEMENT_3D('',#574,#439,#440);
#378=AXIS2_PLACEMENT_3D('',#575,#441,#442);
#379=AXIS2_PLACEMENT_3D('',#576,#443,#444);
#380=AXIS2_PLACEMENT_3D('',#578,#445,#446);
#381=AXIS2_PLACEMENT_3D('',#591,#453,#454);
#382=AXIS2_PLACEMENT_3D('',#593,#455,#456);
#383=AXIS2_PLACEMENT_3D('',#599,#460,#461);
#384=AXIS2_PLACEMENT_3D('',#603,#464,#465);
#385=AXIS2_PLACEMENT_3D('',#607,#468,#469);
#386=AXIS2_PLACEMENT_3D('',#611,#472,#473);
#387=AXIS2_PLACEMENT_3D('',#615,#476,#477);
#388=AXIS2_PLACEMENT_3D('',#617,#479,#480);
#389=DIRECTION('',(0.,0.,1.));
#390=DIRECTION('',(1.,0.,0.));
#391=DIRECTION('',(1.,0.,0.));
#392=DIRECTION('',(0.,0.,-1.));
#393=DIRECTION('',(1.,0.,0.));
#394=DIRECTION('',(0.,0.,-1.));
#395=DIRECTION('',(1.,0.,0.));
#396=DIRECTION('',(0.,0.,-1.));
#397=DIRECTION('',(1.,0.,0.));
#398=DIRECTION('',(0.,0.,-1.));
#399=DIRECTION('',(1.,0.,0.));
#400=DIRECTION('',(0.,0.,-1.));
#401=DIRECTION('',(1.,0.,0.));
#402=DIRECTION('',(0.,0.,-1.));
#403=DIRECTION('',(0.,-1.,0.));
#404=DIRECTION('',(0.,0.,-1.));
#405=DIRECTION('',(0.,1.,0.));
#406=DIRECTION('',(0.,0.,1.));
#407=DIRECTION('',(0.,-1.,0.));
#408=DIRECTION('',(0.,0.,-1.));
#409=DIRECTION('',(0.,1.,0.));
#410=DIRECTION('',(0.,0.,1.));
#411=DIRECTION('',(0.,1.,0.));
#412=DIRECTION('',(0.,0.,1.));
#413=DIRECTION('',(0.,-1.,0.));
#414=DIRECTION('',(0.,0.,-1.));
#415=DIRECTION('',(0.,1.,0.));
#416=DIRECTION('',(0.,0.,1.));
#417=DIRECTION('',(0.,-1.,0.));
#418=DIRECTION('',(0.,0.,-1.));
#419=DIRECTION('',(1.,0.,0.));
#420=DIRECTION('',(0.,0.,-1.));
#421=DIRECTION('',(1.,0.,0.));
#422=DIRECTION('',(0.,0.,-1.));
#423=DIRECTION('',(1.,0.,0.));
#424=DIRECTION('',(0.,0.,-1.));
#425=DIRECTION('',(1.,0.,0.));
#426=DIRECTION('',(0.,0.,-1.));
#427=DIRECTION('',(-1.,0.,0.));
#428=DIRECTION('',(0.,0.,1.));
#429=DIRECTION('',(1.,0.,0.));
#430=DIRECTION('',(0.,0.,-1.));
#431=DIRECTION('',(-1.,0.,0.));
#432=DIRECTION('',(0.,0.,1.));
#433=DIRECTION('',(1.,0.,0.));
#434=DIRECTION('',(0.,0.,-1.));
#435=DIRECTION('',(-1.,0.,0.));
#436=DIRECTION('',(0.,0.,1.));
#437=DIRECTION('',(1.,0.,0.));
#438=DIRECTION('',(0.,0.,-1.));
#439=DIRECTION('',(-1.,0.,0.));
#440=DIRECTION('',(0.,0.,1.));
#441=DIRECTION('',(0.,-1.,0.));
#442=DIRECTION('',(0.,0.,-1.));
#443=DIRECTION('',(0.,-1.,0.));
#444=DIRECTION('',(0.,0.,-1.));
#445=DIRECTION('',(0.,-1.,0.));
#446=DIRECTION('',(0.,0.,-1.));
#447=DIRECTION('',(0.866025403784439,0.,-0.5));
#448=DIRECTION('',(0.866025403784439,0.,0.5));
#449=DIRECTION('',(0.,0.,1.));
#450=DIRECTION('',(-0.866025403784439,0.,0.5));
#451=DIRECTION('',(-0.866025403784439,0.,-0.5));
#452=DIRECTION('',(0.,0.,1.));
#453=DIRECTION('',(0.,1.,0.));
#454=DIRECTION('',(0.,0.,1.));
#455=DIRECTION('',(-1.,0.,0.));
#456=DIRECTION('',(0.,0.,1.));
#457=DIRECTION('',(0.,1.,0.));
#458=DIRECTION('',(0.,0.,1.));
#459=DIRECTION('',(0.,1.,0.));
#460=DIRECTION('',(-0.5,0.,0.866025403784439));
#461=DIRECTION('',(0.866025403784439,0.,0.5));
#462=DIRECTION('',(0.,1.,0.));
#463=DIRECTION('',(0.866025403784439,0.,0.5));
#464=DIRECTION('',(0.5,0.,0.866025403784439));
#465=DIRECTION('',(0.866025403784439,0.,-0.5));
#466=DIRECTION('',(0.,1.,0.));
#467=DIRECTION('',(0.866025403784439,0.,-0.5));
#468=DIRECTION('',(1.,0.,0.));
#469=DIRECTION('',(0.,0.,-1.));
#470=DIRECTION('',(0.,1.,0.));
#471=DIRECTION('',(0.,0.,-1.));
#472=DIRECTION('',(0.5,0.,-0.866025403784439));
#473=DIRECTION('',(-0.866025403784439,0.,-0.5));
#474=DIRECTION('',(0.,1.,0.));
#475=DIRECTION('',(-0.866025403784439,0.,-0.5));
#476=DIRECTION('',(-0.5,0.,-0.866025403784439));
#477=DIRECTION('',(-0.866025403784439,0.,0.5));
#478=DIRECTION('',(-0.866025403784439,0.,0.5));
#479=DIRECTION('',(0.,1.,0.));
#480=DIRECTION('',(0.,0.,1.));
#481=CARTESIAN_POINT('',(0.,0.,0.));
#482=CARTESIAN_POINT('',(13.5,0.,0.));
#483=CARTESIAN_POINT('',(0.,0.,0.));
#484=CARTESIAN_POINT('',(0.,0.,-4.));
#485=CARTESIAN_POINT('',(5.83242301392929,3.88397799967735,0.956407286684027));
#486=CARTESIAN_POINT('',(5.65915745951093,3.80223299765525,1.2883744243856));
#487=CARTESIAN_POINT('',(5.13988598329558,3.56857042233778,1.84642662585691));
#488=CARTESIAN_POINT('',(4.00531566069055,3.35260839084431,2.1771658705519));
#489=CARTESIAN_POINT('',(2.85812772886372,3.56827728402621,1.84689491136449));
#490=CARTESIAN_POINT('',(2.34115794413233,3.80208419328648,1.28897872017316));
#491=CARTESIAN_POINT('',(2.16757698607077,3.88397799967732,0.956407286684148));
#492=CARTESIAN_POINT('',(5.8324230139295,3.88397799967734,0.956407286684142));
#493=CARTESIAN_POINT('',(2.16757698607077,3.88397799967732,0.956407286684148));
#494=CARTESIAN_POINT('',(5.83242301392923,3.88397799967732,-0.956407286684149));
#495=CARTESIAN_POINT('',(6.00193555021188,3.91075979574897,-0.84764618858047));
#496=CARTESIAN_POINT('',(6.32092635963669,3.96603932289769,-0.595363735627432));
#497=CARTESIAN_POINT('',(6.58976214295503,4.01702089312321,-7.13772107637663E-5));
#498=CARTESIAN_POINT('',(6.32002497534551,3.9658770871307,0.596565203570138));
#499=CARTESIAN_POINT('',(6.00187509160266,3.91075024371124,0.847684979485671));
#500=CARTESIAN_POINT('',(5.83242301392941,3.88397799967735,0.956407286684029));
#501=CARTESIAN_POINT('',(5.83242301392923,3.88397799967732,-0.956407286684149));
#502=CARTESIAN_POINT('',(2.16757698607077,3.88397799967732,-0.956407286684148));
#503=CARTESIAN_POINT('',(2.34182274081243,3.80177054868388,-1.29025243353059));
#504=CARTESIAN_POINT('',(2.85664904180316,3.56897635691542,-1.84520908987673));
#505=CARTESIAN_POINT('',(4.00390200014068,3.35231449950771,-2.17772732221228));
#506=CARTESIAN_POINT('',(5.14181674127169,3.56904269266729,-1.84587363581011));
#507=CARTESIAN_POINT('',(5.66013305834111,3.80269327568694,-1.28650523144475));
#508=CARTESIAN_POINT('',(5.83242301392922,3.88397799967732,-0.956407286684154));
#509=CARTESIAN_POINT('',(2.16757698607077,3.88397799967732,-0.956407286684148));
#510=CARTESIAN_POINT('',(2.16757698607077,3.88397799967732,0.956407286684149));
#511=CARTESIAN_POINT('',(1.99825513167289,3.91072966934378,0.847768532164201));
#512=CARTESIAN_POINT('',(1.6791637538545,3.96602189940367,0.595642848813734));
#513=CARTESIAN_POINT('',(1.41011630704007,4.01704098586484,-0.000479428200818334));
#514=CARTESIAN_POINT('',(1.68037196461556,3.96581397960107,-0.596644334924091));
#515=CARTESIAN_POINT('',(1.99729502393852,3.91088135965598,-0.84715251653636));
#516=CARTESIAN_POINT('',(2.16757698607073,3.88397799967734,-0.956407286684243));
#517=CARTESIAN_POINT('',(8.,0.,0.));
#518=CARTESIAN_POINT('',(8.,0.,-4.));
#519=CARTESIAN_POINT('',(13.5,0.,0.));
#520=CARTESIAN_POINT('',(11.5,0.,0.));
#521=CARTESIAN_POINT('',(11.5,0.,-8.));
#522=CARTESIAN_POINT('',(2.89544347134245,7.75475,-1.96566844546581));
#523=CARTESIAN_POINT('',(2.5061582829584,7.79770793959132,-1.79619526558434));
#524=CARTESIAN_POINT('',(1.80502507829281,7.92277269165569,-1.27110850418916));
#525=CARTESIAN_POINT('',(1.34829163679301,8.03845300172048,-0.00528302639073433));
#526=CARTESIAN_POINT('',(1.80183015610728,7.92341011537714,1.26992773994969));
#527=CARTESIAN_POINT('',(2.5064491368288,7.79767584362834,1.79632188722772));
#528=CARTESIAN_POINT('',(2.89544347134246,7.75475,1.96566844546582));
#529=CARTESIAN_POINT('',(2.89544347134245,7.75475,-1.96566844546581));
#530=CARTESIAN_POINT('',(2.89544347134245,7.75475,1.96566844546581));
#531=CARTESIAN_POINT('',(5.10455652865754,7.75475,-1.96566844546582));
#532=CARTESIAN_POINT('',(4.79552755522926,7.69268818724645,-2.21050823193173));
#533=CARTESIAN_POINT('',(4.00071157719408,7.59049963760004,-2.52478088551921));
#534=CARTESIAN_POINT('',(3.20624023912666,7.69233316382878,-2.21190883326635));
#535=CARTESIAN_POINT('',(2.89544347134245,7.75475,-1.96566844546581));
#536=CARTESIAN_POINT('',(5.10455652865754,7.75475,-1.96566844546582));
#537=CARTESIAN_POINT('',(5.10455652865754,7.75475,1.96566844546582));
#538=CARTESIAN_POINT('',(5.49512078871175,7.79784908619843,1.79563842872102));
#539=CARTESIAN_POINT('',(6.19320643814669,7.92247135490057,1.2719243703771));
#540=CARTESIAN_POINT('',(6.65215353390294,8.03851921016411,0.0084183590459647));
#541=CARTESIAN_POINT('',(6.19812524503969,7.9234389041775,-1.270406538868));
#542=CARTESIAN_POINT('',(5.49432773326917,7.79776157188036,-1.79598368107504));
#543=CARTESIAN_POINT('',(5.10455652865754,7.75475,-1.96566844546582));
#544=CARTESIAN_POINT('',(5.10455652865754,7.75475,1.96566844546582));
#545=CARTESIAN_POINT('',(2.89544347134245,7.75475,1.96566844546581));
#546=CARTESIAN_POINT('',(3.20362311746028,7.69285875634204,2.20983532053761));
#547=CARTESIAN_POINT('',(3.99902644693059,7.59049686792832,2.52479197216291));
#548=CARTESIAN_POINT('',(4.79294023526356,7.69216857976284,2.21255813314614));
#549=CARTESIAN_POINT('',(5.10455652865754,7.75475,1.96566844546582));
#550=CARTESIAN_POINT('',(0.5,0.,0.));
#551=CARTESIAN_POINT('',(0.5,0.,-8.));
#552=CARTESIAN_POINT('',(4.,3.,0.));
#553=CARTESIAN_POINT('',(4.,3.88397799967732,0.));
#554=CARTESIAN_POINT('',(4.,3.,0.));
#555=CARTESIAN_POINT('',(4.,3.88397799967732,0.));
#556=CARTESIAN_POINT('',(4.,8.,0.));
#557=CARTESIAN_POINT('',(4.,7.75475,0.));
#558=CARTESIAN_POINT('',(4.,8.,0.));
#559=CARTESIAN_POINT('',(4.,7.75475,0.));
#560=CARTESIAN_POINT('',(8.,0.,0.));
#561=CARTESIAN_POINT('',(0.,4.,0.));
#562=CARTESIAN_POINT('',(0.,0.,0.));
#563=CARTESIAN_POINT('',(0.,0.,-7.5));
#564=CARTESIAN_POINT('',(0.,0.,0.));
#565=CARTESIAN_POINT('',(11.5,0.,0.));
#566=CARTESIAN_POINT('',(12.,0.,0.));
#567=CARTESIAN_POINT('',(12.,0.,-7.5));
#568=CARTESIAN_POINT('',(12.,7.5,0.));
#569=CARTESIAN_POINT('',(12.,0.,0.));
#570=CARTESIAN_POINT('',(12.,0.,-6.4));
#571=CARTESIAN_POINT('',(12.,0.,0.));
#572=CARTESIAN_POINT('',(13.5,0.,0.));
#573=CARTESIAN_POINT('',(13.5,0.,-5.99807621135332));
#574=CARTESIAN_POINT('',(13.5,5.99807621135332,0.));
#575=CARTESIAN_POINT('',(4.,8.,0.));
#576=CARTESIAN_POINT('',(4.,8.,0.));
#577=CARTESIAN_POINT('',(4.,8.,-2.0095));
#578=CARTESIAN_POINT('',(4.,8.,0.));
#579=CARTESIAN_POINT('',(4.,8.,1.44337567297406));
#580=CARTESIAN_POINT('',(4.,8.,1.44337567297406));
#581=CARTESIAN_POINT('',(5.25,8.,0.721687836487032));
#582=CARTESIAN_POINT('',(2.75,8.,0.721687836487032));
#583=CARTESIAN_POINT('',(2.75,8.,0.721687836487032));
#584=CARTESIAN_POINT('',(2.75,8.,-0.721687836487032));
#585=CARTESIAN_POINT('',(2.75,8.,-0.721687836487032));
#586=CARTESIAN_POINT('',(4.,8.,-1.44337567297406));
#587=CARTESIAN_POINT('',(4.,8.,-1.44337567297406));
#588=CARTESIAN_POINT('',(5.25,8.,-0.721687836487032));
#589=CARTESIAN_POINT('',(5.25,8.,-0.721687836487032));
#590=CARTESIAN_POINT('',(5.25,8.,0.));
#591=CARTESIAN_POINT('',(4.,4.,0.));
#592=CARTESIAN_POINT('',(4.,3.33012701892219,0.));
#593=CARTESIAN_POINT('',(2.75,5.5,-0.721687836487032));
#594=CARTESIAN_POINT('',(2.75,5.5,0.721687836487032));
#595=CARTESIAN_POINT('',(2.75,5.5,0.721687836487032));
#596=CARTESIAN_POINT('',(2.75,5.5,-0.721687836487032));
#597=CARTESIAN_POINT('',(2.75,5.5,-0.721687836487032));
#598=CARTESIAN_POINT('',(2.75,5.5,-0.721687836487032));
#599=CARTESIAN_POINT('',(2.75,5.5,0.721687836487032));
#600=CARTESIAN_POINT('',(4.,5.5,1.44337567297406));
#601=CARTESIAN_POINT('',(4.,5.5,1.44337567297406));
#602=CARTESIAN_POINT('',(2.75,5.5,0.721687836487032));
#603=CARTESIAN_POINT('',(4.,5.5,1.44337567297406));
#604=CARTESIAN_POINT('',(5.25,5.5,0.721687836487032));
#605=CARTESIAN_POINT('',(5.25,5.5,0.721687836487032));
#606=CARTESIAN_POINT('',(4.,5.5,1.44337567297406));
#607=CARTESIAN_POINT('',(5.25,5.5,0.721687836487032));
#608=CARTESIAN_POINT('',(5.25,5.5,-0.721687836487032));
#609=CARTESIAN_POINT('',(5.25,5.5,-0.721687836487032));
#610=CARTESIAN_POINT('',(5.25,5.5,0.721687836487032));
#611=CARTESIAN_POINT('',(5.25,5.5,-0.721687836487032));
#612=CARTESIAN_POINT('',(4.,5.5,-1.44337567297406));
#613=CARTESIAN_POINT('',(4.,5.5,-1.44337567297406));
#614=CARTESIAN_POINT('',(5.25,5.5,-0.721687836487032));
#615=CARTESIAN_POINT('',(4.,5.5,-1.44337567297406));
#616=CARTESIAN_POINT('',(4.,5.5,-1.44337567297406));
#617=CARTESIAN_POINT('',(0.,5.5,0.));
#618=MECHANICAL_DESIGN_GEOMETRIC_PRESENTATION_REPRESENTATION('',(#341),
#619);
#619=(
GEOMETRIC_REPRESENTATION_CONTEXT(3)
GLOBAL_UNCERTAINTY_ASSIGNED_CONTEXT((#620))
GLOBAL_UNIT_ASSIGNED_CONTEXT((#623,#622,#621))
REPRESENTATION_CONTEXT('11134 YSRP-16','TOP_LEVEL_ASSEMBLY_PART')
);
#620=UNCERTAINTY_MEASURE_WITH_UNIT(LENGTH_MEASURE(0.005),#623,
'DISTANCE_ACCURACY_VALUE','Maximum Tolerance applied to model');
#621=(
NAMED_UNIT(*)
SI_UNIT($,.STERADIAN.)
SOLID_ANGLE_UNIT()
);
#622=(
NAMED_UNIT(*)
PLANE_ANGLE_UNIT()
SI_UNIT($,.RADIAN.)
);
#623=(
LENGTH_UNIT()
NAMED_UNIT(*)
SI_UNIT(.MILLI.,.METRE.)
);
#624=PRODUCT_DEFINITION_SHAPE('','',#625);
#625=PRODUCT_DEFINITION('','',#627,#626);
#626=PRODUCT_DEFINITION_CONTEXT('',#633,'design');
#627=PRODUCT_DEFINITION_FORMATION_WITH_SPECIFIED_SOURCE('','',#629,
 .NOT_KNOWN.);
#628=PRODUCT_RELATED_PRODUCT_CATEGORY('','',(#629));
#629=PRODUCT('11134 YSRP-16','11134 YSRP-16','11134 YSRP-16',(#631));
#630=PRODUCT_CATEGORY('','');
#631=PRODUCT_CONTEXT('',#633,'mechanical');
#632=APPLICATION_PROTOCOL_DEFINITION('international standard',
'automotive_design',2010,#633);
#633=APPLICATION_CONTEXT(
'core data for automotive mechanical design processes');
ENDSEC;
END-ISO-10303-21;
