ISO-10303-21;
HEADER;
/* Generated by software containing ST-Developer
 * from STEP Tools, Inc. (www.steptools.com) 
 */
/* OPTION: using custom renumber hook */

FILE_DESCRIPTION(
/* description */ ('STEP AP214'),
/* implementation_level */ '2;1');

FILE_NAME(
/* name */ '11135_YSRP-20',
/* time_stamp */ '2024-09-18T13:47:14+02:00',
/* author */ ('License CC BY-ND 4.0'),
/* organization */ ('CADENAS'),
/* preprocessor_version */ 'ST-DEVELOPER v19.3',
/* originating_system */ 'PARTsolutions',
/* authorisation */ '  ');

FILE_SCHEMA (('AUTOMOTIVE_DESIGN {1 0 10303 214 3 1 1}'));
ENDSEC;

DATA;
#10=PROPERTY_DEFINITION_REPRESENTATION(#14,#12);
#11=PROPERTY_DEFINITION_REPRESENTATION(#15,#13);
#12=REPRESENTATION('',(#16),#619);
#13=REPRESENTATION('',(#17),#619);
#14=PROPERTY_DEFINITION('pmi validation property','',#624);
#15=PROPERTY_DEFINITION('pmi validation property','',#624);
#16=VALUE_REPRESENTATION_ITEM('number of annotations',COUNT_MEASURE(0.));
#17=VALUE_REPRESENTATION_ITEM('number of views',COUNT_MEASURE(0.));
#18=SHAPE_REPRESENTATION_RELATIONSHIP('','',#351,#19);
#19=ADVANCED_BREP_SHAPE_REPRESENTATION('',(#349),#619);
#20=VERTEX_LOOP('',#224);
#21=LINE('',#579,#39);
#22=LINE('',#582,#40);
#23=LINE('',#584,#41);
#24=LINE('',#586,#42);
#25=LINE('',#588,#43);
#26=LINE('',#590,#44);
#27=LINE('',#594,#45);
#28=LINE('',#596,#46);
#29=LINE('',#598,#47);
#30=LINE('',#600,#48);
#31=LINE('',#602,#49);
#32=LINE('',#604,#50);
#33=LINE('',#606,#51);
#34=LINE('',#608,#52);
#35=LINE('',#610,#53);
#36=LINE('',#612,#54);
#37=LINE('',#614,#55);
#38=LINE('',#616,#56);
#39=VECTOR('',#447,1000.);
#40=VECTOR('',#448,1000.);
#41=VECTOR('',#449,1000.);
#42=VECTOR('',#450,1000.);
#43=VECTOR('',#451,1000.);
#44=VECTOR('',#452,1000.);
#45=VECTOR('',#457,1000.);
#46=VECTOR('',#458,1000.);
#47=VECTOR('',#459,1000.);
#48=VECTOR('',#462,1000.);
#49=VECTOR('',#463,1000.);
#50=VECTOR('',#466,1000.);
#51=VECTOR('',#467,1000.);
#52=VECTOR('',#470,1000.);
#53=VECTOR('',#471,1000.);
#54=VECTOR('',#474,1000.);
#55=VECTOR('',#475,1000.);
#56=VECTOR('',#478,1000.);
#57=PLANE('',#367);
#58=PLANE('',#368);
#59=PLANE('',#373);
#60=PLANE('',#377);
#61=PLANE('',#380);
#62=PLANE('',#382);
#63=PLANE('',#383);
#64=PLANE('',#384);
#65=PLANE('',#385);
#66=PLANE('',#386);
#67=PLANE('',#387);
#68=PLANE('',#388);
#69=CONICAL_SURFACE('',#363,3.,0.78539816339745);
#70=CONICAL_SURFACE('',#365,3.,0.78539816339745);
#71=CONICAL_SURFACE('',#370,9.375,0.785398163397448);
#72=CONICAL_SURFACE('',#371,10.,0.78539816339745);
#73=CONICAL_SURFACE('',#375,8.,0.261799387799149);
#74=CONICAL_SURFACE('',#378,2.3865,0.78539816339745);
#75=CONICAL_SURFACE('',#381,3.,1.30899693899575);
#76=B_SPLINE_CURVE_WITH_KNOTS('',3,(#485,#486,#487,#488,#489,#490,#491),
 .UNSPECIFIED.,.F.,.F.,(4,1,1,1,4),(0.00515960081486114,0.00648556663147461,
0.00781153244808808,0.00913749826470155,0.010463464081315),
 .UNSPECIFIED.);
#77=B_SPLINE_CURVE_WITH_KNOTS('',3,(#494,#495,#496,#497,#498,#499,#500),
 .UNSPECIFIED.,.F.,.F.,(4,1,1,1,4),(0.00422845322681919,0.00499218497719791,
0.00575591672757664,0.00651964847795536,0.00728338022833409),
 .UNSPECIFIED.);
#78=B_SPLINE_CURVE_WITH_KNOTS('',3,(#502,#503,#504,#505,#506,#507,#508),
 .UNSPECIFIED.,.F.,.F.,(4,1,1,1,4),(0.0129671507101212,0.0142926189237713,
0.0156180871374213,0.0169435553510714,0.0182690235647215),.UNSPECIFIED.);
#79=B_SPLINE_CURVE_WITH_KNOTS('',3,(#510,#511,#512,#513,#514,#515,#516),
 .UNSPECIFIED.,.F.,.F.,(4,1,1,1,4),(0.0118033186193948,0.0125681323854258,
0.0133329461514569,0.0140977599174879,0.014862573683519),.UNSPECIFIED.);
#80=B_SPLINE_CURVE_WITH_KNOTS('',3,(#522,#523,#524,#525,#526,#527,#528),
 .UNSPECIFIED.,.F.,.F.,(4,1,1,1,4),(0.0167072490476917,0.0183668432285859,
0.0200264374094802,0.0216860315903745,0.0233456257712688),.UNSPECIFIED.);
#81=B_SPLINE_CURVE_WITH_KNOTS('',3,(#531,#532,#533,#534,#535),
 .UNSPECIFIED.,.F.,.F.,(4,1,4),(0.0130743109456516,0.014229545702266,0.0153847804588805),
 .UNSPECIFIED.);
#82=B_SPLINE_CURVE_WITH_KNOTS('',3,(#537,#538,#539,#540,#541,#542,#543),
 .UNSPECIFIED.,.F.,.F.,(4,1,1,1,4),(0.00783174265844727,0.00949066609165543,
0.0111495895248636,0.0128085129580717,0.0144674363912799),.UNSPECIFIED.);
#83=B_SPLINE_CURVE_WITH_KNOTS('',3,(#545,#546,#547,#548,#549),
 .UNSPECIFIED.,.F.,.F.,(4,1,4),(0.00497459845946313,0.00613165825206633,
0.00728871804466952),.UNSPECIFIED.);
#84=ORIENTED_EDGE('',*,*,#162,.F.);
#85=ORIENTED_EDGE('',*,*,#163,.F.);
#86=ORIENTED_EDGE('',*,*,#164,.F.);
#87=ORIENTED_EDGE('',*,*,#165,.F.);
#88=ORIENTED_EDGE('',*,*,#166,.F.);
#89=ORIENTED_EDGE('',*,*,#167,.T.);
#90=ORIENTED_EDGE('',*,*,#168,.F.);
#91=ORIENTED_EDGE('',*,*,#169,.F.);
#92=ORIENTED_EDGE('',*,*,#170,.F.);
#93=ORIENTED_EDGE('',*,*,#171,.F.);
#94=ORIENTED_EDGE('',*,*,#172,.F.);
#95=ORIENTED_EDGE('',*,*,#173,.T.);
#96=ORIENTED_EDGE('',*,*,#165,.T.);
#97=ORIENTED_EDGE('',*,*,#174,.T.);
#98=ORIENTED_EDGE('',*,*,#163,.T.);
#99=ORIENTED_EDGE('',*,*,#175,.T.);
#100=ORIENTED_EDGE('',*,*,#176,.T.);
#101=ORIENTED_EDGE('',*,*,#171,.T.);
#102=ORIENTED_EDGE('',*,*,#169,.T.);
#103=ORIENTED_EDGE('',*,*,#177,.T.);
#104=ORIENTED_EDGE('',*,*,#167,.F.);
#105=ORIENTED_EDGE('',*,*,#178,.F.);
#106=ORIENTED_EDGE('',*,*,#162,.T.);
#107=ORIENTED_EDGE('',*,*,#173,.F.);
#108=ORIENTED_EDGE('',*,*,#178,.T.);
#109=ORIENTED_EDGE('',*,*,#179,.F.);
#110=ORIENTED_EDGE('',*,*,#168,.T.);
#111=ORIENTED_EDGE('',*,*,#180,.F.);
#112=ORIENTED_EDGE('',*,*,#179,.T.);
#113=ORIENTED_EDGE('',*,*,#181,.F.);
#114=ORIENTED_EDGE('',*,*,#180,.T.);
#115=ORIENTED_EDGE('',*,*,#181,.T.);
#116=ORIENTED_EDGE('',*,*,#176,.F.);
#117=ORIENTED_EDGE('',*,*,#170,.T.);
#118=ORIENTED_EDGE('',*,*,#177,.F.);
#119=ORIENTED_EDGE('',*,*,#172,.T.);
#120=ORIENTED_EDGE('',*,*,#182,.T.);
#121=ORIENTED_EDGE('',*,*,#182,.F.);
#122=ORIENTED_EDGE('',*,*,#183,.F.);
#123=ORIENTED_EDGE('',*,*,#184,.F.);
#124=ORIENTED_EDGE('',*,*,#185,.F.);
#125=ORIENTED_EDGE('',*,*,#186,.F.);
#126=ORIENTED_EDGE('',*,*,#187,.F.);
#127=ORIENTED_EDGE('',*,*,#188,.T.);
#128=ORIENTED_EDGE('',*,*,#166,.T.);
#129=ORIENTED_EDGE('',*,*,#174,.F.);
#130=ORIENTED_EDGE('',*,*,#164,.T.);
#131=ORIENTED_EDGE('',*,*,#175,.F.);
#132=ORIENTED_EDGE('',*,*,#185,.T.);
#133=ORIENTED_EDGE('',*,*,#189,.F.);
#134=ORIENTED_EDGE('',*,*,#190,.F.);
#135=ORIENTED_EDGE('',*,*,#191,.T.);
#136=ORIENTED_EDGE('',*,*,#184,.T.);
#137=ORIENTED_EDGE('',*,*,#192,.F.);
#138=ORIENTED_EDGE('',*,*,#193,.F.);
#139=ORIENTED_EDGE('',*,*,#189,.T.);
#140=ORIENTED_EDGE('',*,*,#183,.T.);
#141=ORIENTED_EDGE('',*,*,#194,.F.);
#142=ORIENTED_EDGE('',*,*,#195,.F.);
#143=ORIENTED_EDGE('',*,*,#192,.T.);
#144=ORIENTED_EDGE('',*,*,#194,.T.);
#145=ORIENTED_EDGE('',*,*,#188,.F.);
#146=ORIENTED_EDGE('',*,*,#196,.F.);
#147=ORIENTED_EDGE('',*,*,#197,.F.);
#148=ORIENTED_EDGE('',*,*,#187,.T.);
#149=ORIENTED_EDGE('',*,*,#198,.F.);
#150=ORIENTED_EDGE('',*,*,#199,.F.);
#151=ORIENTED_EDGE('',*,*,#196,.T.);
#152=ORIENTED_EDGE('',*,*,#186,.T.);
#153=ORIENTED_EDGE('',*,*,#191,.F.);
#154=ORIENTED_EDGE('',*,*,#200,.F.);
#155=ORIENTED_EDGE('',*,*,#198,.T.);
#156=ORIENTED_EDGE('',*,*,#190,.T.);
#157=ORIENTED_EDGE('',*,*,#193,.T.);
#158=ORIENTED_EDGE('',*,*,#195,.T.);
#159=ORIENTED_EDGE('',*,*,#197,.T.);
#160=ORIENTED_EDGE('',*,*,#199,.T.);
#161=ORIENTED_EDGE('',*,*,#200,.T.);
#162=EDGE_CURVE('',#201,#201,#231,.T.);
#163=EDGE_CURVE('',#202,#203,#76,.T.);
#164=EDGE_CURVE('',#204,#202,#77,.T.);
#165=EDGE_CURVE('',#205,#204,#78,.T.);
#166=EDGE_CURVE('',#203,#205,#79,.T.);
#167=EDGE_CURVE('',#206,#206,#232,.T.);
#168=EDGE_CURVE('',#207,#207,#233,.T.);
#169=EDGE_CURVE('',#208,#209,#80,.T.);
#170=EDGE_CURVE('',#210,#208,#81,.T.);
#171=EDGE_CURVE('',#211,#210,#82,.T.);
#172=EDGE_CURVE('',#209,#211,#83,.T.);
#173=EDGE_CURVE('',#212,#212,#234,.T.);
#174=EDGE_CURVE('',#204,#205,#235,.T.);
#175=EDGE_CURVE('',#203,#202,#236,.T.);
#176=EDGE_CURVE('',#210,#211,#237,.T.);
#177=EDGE_CURVE('',#209,#208,#238,.T.);
#178=EDGE_CURVE('',#213,#213,#239,.T.);
#179=EDGE_CURVE('',#214,#214,#240,.T.);
#180=EDGE_CURVE('',#215,#215,#241,.T.);
#181=EDGE_CURVE('',#216,#216,#242,.T.);
#182=EDGE_CURVE('',#217,#217,#243,.T.);
#183=EDGE_CURVE('',#218,#219,#21,.T.);
#184=EDGE_CURVE('',#220,#218,#22,.T.);
#185=EDGE_CURVE('',#221,#220,#23,.T.);
#186=EDGE_CURVE('',#222,#221,#24,.T.);
#187=EDGE_CURVE('',#223,#222,#25,.T.);
#188=EDGE_CURVE('',#223,#219,#26,.T.);
#189=EDGE_CURVE('',#225,#220,#27,.T.);
#190=EDGE_CURVE('',#226,#225,#28,.T.);
#191=EDGE_CURVE('',#226,#221,#29,.T.);
#192=EDGE_CURVE('',#227,#218,#30,.T.);
#193=EDGE_CURVE('',#225,#227,#31,.T.);
#194=EDGE_CURVE('',#228,#219,#32,.T.);
#195=EDGE_CURVE('',#227,#228,#33,.T.);
#196=EDGE_CURVE('',#229,#223,#34,.T.);
#197=EDGE_CURVE('',#228,#229,#35,.T.);
#198=EDGE_CURVE('',#230,#222,#36,.T.);
#199=EDGE_CURVE('',#229,#230,#37,.T.);
#200=EDGE_CURVE('',#230,#226,#38,.T.);
#201=VERTEX_POINT('',#484);
#202=VERTEX_POINT('',#492);
#203=VERTEX_POINT('',#493);
#204=VERTEX_POINT('',#501);
#205=VERTEX_POINT('',#509);
#206=VERTEX_POINT('',#518);
#207=VERTEX_POINT('',#521);
#208=VERTEX_POINT('',#529);
#209=VERTEX_POINT('',#530);
#210=VERTEX_POINT('',#536);
#211=VERTEX_POINT('',#544);
#212=VERTEX_POINT('',#551);
#213=VERTEX_POINT('',#563);
#214=VERTEX_POINT('',#567);
#215=VERTEX_POINT('',#570);
#216=VERTEX_POINT('',#573);
#217=VERTEX_POINT('',#577);
#218=VERTEX_POINT('',#580);
#219=VERTEX_POINT('',#581);
#220=VERTEX_POINT('',#583);
#221=VERTEX_POINT('',#585);
#222=VERTEX_POINT('',#587);
#223=VERTEX_POINT('',#589);
#224=VERTEX_POINT('',#592);
#225=VERTEX_POINT('',#595);
#226=VERTEX_POINT('',#597);
#227=VERTEX_POINT('',#601);
#228=VERTEX_POINT('',#605);
#229=VERTEX_POINT('',#609);
#230=VERTEX_POINT('',#613);
#231=CIRCLE('',#354,5.);
#232=CIRCLE('',#355,5.);
#233=CIRCLE('',#357,10.);
#234=CIRCLE('',#358,10.);
#235=CIRCLE('',#360,2.4585);
#236=CIRCLE('',#362,2.4585);
#237=CIRCLE('',#364,2.69325);
#238=CIRCLE('',#366,2.69325);
#239=CIRCLE('',#369,9.375);
#240=CIRCLE('',#372,9.375);
#241=CIRCLE('',#374,8.);
#242=CIRCLE('',#376,7.5712812921102);
#243=CIRCLE('',#379,2.3865);
#244=EDGE_LOOP('',(#84));
#245=EDGE_LOOP('',(#85,#86,#87,#88));
#246=EDGE_LOOP('',(#89));
#247=EDGE_LOOP('',(#90));
#248=EDGE_LOOP('',(#91,#92,#93,#94));
#249=EDGE_LOOP('',(#95));
#250=EDGE_LOOP('',(#96,#97));
#251=EDGE_LOOP('',(#98,#99));
#252=EDGE_LOOP('',(#100,#101));
#253=EDGE_LOOP('',(#102,#103));
#254=EDGE_LOOP('',(#104));
#255=EDGE_LOOP('',(#105));
#256=EDGE_LOOP('',(#106));
#257=EDGE_LOOP('',(#107));
#258=EDGE_LOOP('',(#108));
#259=EDGE_LOOP('',(#109));
#260=EDGE_LOOP('',(#110));
#261=EDGE_LOOP('',(#111));
#262=EDGE_LOOP('',(#112));
#263=EDGE_LOOP('',(#113));
#264=EDGE_LOOP('',(#114));
#265=EDGE_LOOP('',(#115));
#266=EDGE_LOOP('',(#116,#117,#118,#119));
#267=EDGE_LOOP('',(#120));
#268=EDGE_LOOP('',(#121));
#269=EDGE_LOOP('',(#122,#123,#124,#125,#126,#127));
#270=EDGE_LOOP('',(#128,#129,#130,#131));
#271=EDGE_LOOP('',(#132,#133,#134,#135));
#272=EDGE_LOOP('',(#136,#137,#138,#139));
#273=EDGE_LOOP('',(#140,#141,#142,#143));
#274=EDGE_LOOP('',(#144,#145,#146,#147));
#275=EDGE_LOOP('',(#148,#149,#150,#151));
#276=EDGE_LOOP('',(#152,#153,#154,#155));
#277=EDGE_LOOP('',(#156,#157,#158,#159,#160,#161));
#278=FACE_BOUND('',#244,.T.);
#279=FACE_BOUND('',#245,.T.);
#280=FACE_BOUND('',#246,.T.);
#281=FACE_BOUND('',#247,.T.);
#282=FACE_BOUND('',#248,.T.);
#283=FACE_BOUND('',#249,.T.);
#284=FACE_BOUND('',#250,.T.);
#285=FACE_BOUND('',#251,.T.);
#286=FACE_BOUND('',#252,.T.);
#287=FACE_BOUND('',#253,.T.);
#288=FACE_BOUND('',#254,.T.);
#289=FACE_BOUND('',#255,.T.);
#290=FACE_BOUND('',#256,.T.);
#291=FACE_BOUND('',#257,.T.);
#292=FACE_BOUND('',#258,.T.);
#293=FACE_BOUND('',#259,.T.);
#294=FACE_BOUND('',#260,.T.);
#295=FACE_BOUND('',#261,.T.);
#296=FACE_BOUND('',#262,.T.);
#297=FACE_BOUND('',#263,.T.);
#298=FACE_BOUND('',#264,.T.);
#299=FACE_BOUND('',#265,.T.);
#300=FACE_BOUND('',#266,.T.);
#301=FACE_BOUND('',#267,.T.);
#302=FACE_BOUND('',#268,.T.);
#303=FACE_BOUND('',#269,.T.);
#304=FACE_BOUND('',#20,.T.);
#305=FACE_BOUND('',#270,.T.);
#306=FACE_BOUND('',#271,.T.);
#307=FACE_BOUND('',#272,.T.);
#308=FACE_BOUND('',#273,.T.);
#309=FACE_BOUND('',#274,.T.);
#310=FACE_BOUND('',#275,.T.);
#311=FACE_BOUND('',#276,.T.);
#312=FACE_BOUND('',#277,.T.);
#313=CYLINDRICAL_SURFACE('',#353,5.);
#314=CYLINDRICAL_SURFACE('',#356,10.);
#315=CYLINDRICAL_SURFACE('',#359,2.4585);
#316=CYLINDRICAL_SURFACE('',#361,2.4585);
#317=ADVANCED_FACE('',(#278,#279,#280),#313,.F.);
#318=ADVANCED_FACE('',(#281,#282,#283),#314,.T.);
#319=ADVANCED_FACE('',(#284),#315,.F.);
#320=ADVANCED_FACE('',(#285),#316,.F.);
#321=ADVANCED_FACE('',(#286),#69,.F.);
#322=ADVANCED_FACE('',(#287),#70,.F.);
#323=ADVANCED_FACE('',(#288),#57,.F.);
#324=ADVANCED_FACE('',(#289,#290),#58,.F.);
#325=ADVANCED_FACE('',(#291,#292),#71,.T.);
#326=ADVANCED_FACE('',(#293,#294),#72,.T.);
#327=ADVANCED_FACE('',(#295,#296),#59,.F.);
#328=ADVANCED_FACE('',(#297,#298),#73,.T.);
#329=ADVANCED_FACE('',(#299),#60,.F.);
#330=ADVANCED_FACE('',(#300,#301),#74,.T.);
#331=ADVANCED_FACE('',(#302,#303),#61,.F.);
#332=ADVANCED_FACE('',(#304,#305),#75,.T.);
#333=ADVANCED_FACE('',(#306),#62,.F.);
#334=ADVANCED_FACE('',(#307),#63,.F.);
#335=ADVANCED_FACE('',(#308),#64,.F.);
#336=ADVANCED_FACE('',(#309),#65,.F.);
#337=ADVANCED_FACE('',(#310),#66,.F.);
#338=ADVANCED_FACE('',(#311),#67,.F.);
#339=ADVANCED_FACE('',(#312),#68,.T.);
#340=CLOSED_SHELL('',(#317,#318,#319,#320,#321,#322,#323,#324,#325,#326,
#327,#328,#329,#330,#331,#332,#333,#334,#335,#336,#337,#338,#339));
#341=STYLED_ITEM('',(#342),#349);
#342=PRESENTATION_STYLE_ASSIGNMENT((#343));
#343=SURFACE_STYLE_USAGE(.BOTH.,#344);
#344=SURFACE_SIDE_STYLE('',(#345));
#345=SURFACE_STYLE_FILL_AREA(#346);
#346=FILL_AREA_STYLE('',(#347));
#347=FILL_AREA_STYLE_COLOUR('',#348);
#348=COLOUR_RGB('',0.689999997615814,0.689999997615814,0.689999997615814);
#349=MANIFOLD_SOLID_BREP('11135 YSRP-20',#340);
#350=SHAPE_DEFINITION_REPRESENTATION(#624,#351);
#351=SHAPE_REPRESENTATION('11135 YSRP-20',(#352),#619);
#352=AXIS2_PLACEMENT_3D('',#481,#389,#390);
#353=AXIS2_PLACEMENT_3D('',#482,#391,#392);
#354=AXIS2_PLACEMENT_3D('',#483,#393,#394);
#355=AXIS2_PLACEMENT_3D('',#517,#395,#396);
#356=AXIS2_PLACEMENT_3D('',#519,#397,#398);
#357=AXIS2_PLACEMENT_3D('',#520,#399,#400);
#358=AXIS2_PLACEMENT_3D('',#550,#401,#402);
#359=AXIS2_PLACEMENT_3D('',#552,#403,#404);
#360=AXIS2_PLACEMENT_3D('',#553,#405,#406);
#361=AXIS2_PLACEMENT_3D('',#554,#407,#408);
#362=AXIS2_PLACEMENT_3D('',#555,#409,#410);
#363=AXIS2_PLACEMENT_3D('',#556,#411,#412);
#364=AXIS2_PLACEMENT_3D('',#557,#413,#414);
#365=AXIS2_PLACEMENT_3D('',#558,#415,#416);
#366=AXIS2_PLACEMENT_3D('',#559,#417,#418);
#367=AXIS2_PLACEMENT_3D('',#560,#419,#420);
#368=AXIS2_PLACEMENT_3D('',#561,#421,#422);
#369=AXIS2_PLACEMENT_3D('',#562,#423,#424);
#370=AXIS2_PLACEMENT_3D('',#564,#425,#426);
#371=AXIS2_PLACEMENT_3D('',#565,#427,#428);
#372=AXIS2_PLACEMENT_3D('',#566,#429,#430);
#373=AXIS2_PLACEMENT_3D('',#568,#431,#432);
#374=AXIS2_PLACEMENT_3D('',#569,#433,#434);
#375=AXIS2_PLACEMENT_3D('',#571,#435,#436);
#376=AXIS2_PLACEMENT_3D('',#572,#437,#438);
#377=AXIS2_PLACEMENT_3D('',#574,#439,#440);
#378=AXIS2_PLACEMENT_3D('',#575,#441,#442);
#379=AXIS2_PLACEMENT_3D('',#576,#443,#444);
#380=AXIS2_PLACEMENT_3D('',#578,#445,#446);
#381=AXIS2_PLACEMENT_3D('',#591,#453,#454);
#382=AXIS2_PLACEMENT_3D('',#593,#455,#456);
#383=AXIS2_PLACEMENT_3D('',#599,#460,#461);
#384=AXIS2_PLACEMENT_3D('',#603,#464,#465);
#385=AXIS2_PLACEMENT_3D('',#607,#468,#469);
#386=AXIS2_PLACEMENT_3D('',#611,#472,#473);
#387=AXIS2_PLACEMENT_3D('',#615,#476,#477);
#388=AXIS2_PLACEMENT_3D('',#617,#479,#480);
#389=DIRECTION('',(0.,0.,1.));
#390=DIRECTION('',(1.,0.,0.));
#391=DIRECTION('',(1.,0.,0.));
#392=DIRECTION('',(0.,0.,-1.));
#393=DIRECTION('',(1.,0.,0.));
#394=DIRECTION('',(0.,0.,-1.));
#395=DIRECTION('',(1.,0.,0.));
#396=DIRECTION('',(0.,0.,-1.));
#397=DIRECTION('',(1.,0.,0.));
#398=DIRECTION('',(0.,0.,-1.));
#399=DIRECTION('',(1.,0.,0.));
#400=DIRECTION('',(0.,0.,-1.));
#401=DIRECTION('',(1.,0.,0.));
#402=DIRECTION('',(0.,0.,-1.));
#403=DIRECTION('',(0.,-1.,0.));
#404=DIRECTION('',(0.,0.,-1.));
#405=DIRECTION('',(0.,1.,0.));
#406=DIRECTION('',(0.,0.,1.));
#407=DIRECTION('',(0.,-1.,0.));
#408=DIRECTION('',(0.,0.,-1.));
#409=DIRECTION('',(0.,1.,0.));
#410=DIRECTION('',(0.,0.,1.));
#411=DIRECTION('',(0.,1.,0.));
#412=DIRECTION('',(0.,0.,1.));
#413=DIRECTION('',(0.,-1.,0.));
#414=DIRECTION('',(0.,0.,-1.));
#415=DIRECTION('',(0.,1.,0.));
#416=DIRECTION('',(0.,0.,1.));
#417=DIRECTION('',(0.,-1.,0.));
#418=DIRECTION('',(0.,0.,-1.));
#419=DIRECTION('',(1.,0.,0.));
#420=DIRECTION('',(0.,0.,-1.));
#421=DIRECTION('',(1.,0.,0.));
#422=DIRECTION('',(0.,0.,-1.));
#423=DIRECTION('',(1.,0.,0.));
#424=DIRECTION('',(0.,0.,-1.));
#425=DIRECTION('',(1.,0.,0.));
#426=DIRECTION('',(0.,0.,-1.));
#427=DIRECTION('',(-1.,0.,0.));
#428=DIRECTION('',(0.,0.,1.));
#429=DIRECTION('',(1.,0.,0.));
#430=DIRECTION('',(0.,0.,-1.));
#431=DIRECTION('',(-1.,0.,0.));
#432=DIRECTION('',(0.,0.,1.));
#433=DIRECTION('',(1.,0.,0.));
#434=DIRECTION('',(0.,0.,-1.));
#435=DIRECTION('',(-1.,0.,0.));
#436=DIRECTION('',(0.,0.,1.));
#437=DIRECTION('',(1.,0.,0.));
#438=DIRECTION('',(0.,0.,-1.));
#439=DIRECTION('',(-1.,0.,0.));
#440=DIRECTION('',(0.,0.,1.));
#441=DIRECTION('',(0.,-1.,0.));
#442=DIRECTION('',(0.,0.,-1.));
#443=DIRECTION('',(0.,-1.,0.));
#444=DIRECTION('',(0.,0.,-1.));
#445=DIRECTION('',(0.,-1.,0.));
#446=DIRECTION('',(0.,0.,-1.));
#447=DIRECTION('',(0.866025403784439,0.,-0.5));
#448=DIRECTION('',(0.866025403784439,0.,0.5));
#449=DIRECTION('',(0.,0.,1.));
#450=DIRECTION('',(-0.866025403784439,0.,0.5));
#451=DIRECTION('',(-0.866025403784439,0.,-0.5));
#452=DIRECTION('',(0.,0.,1.));
#453=DIRECTION('',(0.,1.,0.));
#454=DIRECTION('',(0.,0.,1.));
#455=DIRECTION('',(-1.,0.,0.));
#456=DIRECTION('',(0.,0.,1.));
#457=DIRECTION('',(0.,1.,0.));
#458=DIRECTION('',(0.,0.,1.));
#459=DIRECTION('',(0.,1.,0.));
#460=DIRECTION('',(-0.5,0.,0.866025403784439));
#461=DIRECTION('',(0.866025403784439,0.,0.5));
#462=DIRECTION('',(0.,1.,0.));
#463=DIRECTION('',(0.866025403784439,0.,0.5));
#464=DIRECTION('',(0.5,0.,0.866025403784439));
#465=DIRECTION('',(0.866025403784439,0.,-0.5));
#466=DIRECTION('',(0.,1.,0.));
#467=DIRECTION('',(0.866025403784439,0.,-0.5));
#468=DIRECTION('',(1.,0.,0.));
#469=DIRECTION('',(0.,0.,-1.));
#470=DIRECTION('',(0.,1.,0.));
#471=DIRECTION('',(0.,0.,-1.));
#472=DIRECTION('',(0.5,0.,-0.866025403784439));
#473=DIRECTION('',(-0.866025403784439,0.,-0.5));
#474=DIRECTION('',(0.,1.,0.));
#475=DIRECTION('',(-0.866025403784439,0.,-0.5));
#476=DIRECTION('',(-0.5,0.,-0.866025403784439));
#477=DIRECTION('',(-0.866025403784439,0.,0.5));
#478=DIRECTION('',(-0.866025403784439,0.,0.5));
#479=DIRECTION('',(0.,1.,0.));
#480=DIRECTION('',(0.,0.,1.));
#481=CARTESIAN_POINT('',(0.,0.,0.));
#482=CARTESIAN_POINT('',(16.6,0.,0.));
#483=CARTESIAN_POINT('',(0.,0.,0.));
#484=CARTESIAN_POINT('',(0.,0.,-5.));
#485=CARTESIAN_POINT('',(7.19809910929333,4.85490551229855,1.1957811115138));
#486=CARTESIAN_POINT('',(6.98729351392507,4.76163257207396,1.57447191644829));
#487=CARTESIAN_POINT('',(6.37114891646067,4.50499241136509,2.21040398731637));
#488=CARTESIAN_POINT('',(5.0555699603735,4.27816761417106,2.58287840368249));
#489=CARTESIAN_POINT('',(3.72511533432065,4.50528380500725,2.20907074167634));
#490=CARTESIAN_POINT('',(3.1146564962608,4.76076977152455,1.57797491135517));
#491=CARTESIAN_POINT('',(2.90190089070667,4.85490551229855,1.1957811115138));
#492=CARTESIAN_POINT('',(7.19809910929333,4.85490551229855,1.1957811115138));
#493=CARTESIAN_POINT('',(2.90190089070667,4.85490551229855,1.1957811115138));
#494=CARTESIAN_POINT('',(7.19809910929333,4.85490551229855,-1.1957811115138));
#495=CARTESIAN_POINT('',(7.41373233004012,4.88792023056138,-1.06174041113989));
#496=CARTESIAN_POINT('',(7.81992244580198,4.95686788007963,-0.749009914703359));
#497=CARTESIAN_POINT('',(8.16537266977433,5.02162487469499,8.25754946238716E-6));
#498=CARTESIAN_POINT('',(7.81858662104966,4.95663257408275,0.750657199953342));
#499=CARTESIAN_POINT('',(7.41375966398681,4.88792441554988,1.0617234199669));
#500=CARTESIAN_POINT('',(7.19809910929333,4.85490551229855,1.1957811115138));
#501=CARTESIAN_POINT('',(7.19809910929333,4.85490551229855,-1.1957811115138));
#502=CARTESIAN_POINT('',(2.90190089070667,4.85490551229855,-1.1957811115138));
#503=CARTESIAN_POINT('',(3.11380148765639,4.76114807821186,-1.57643897538505));
#504=CARTESIAN_POINT('',(3.72425554385989,4.50568249023496,-2.20857424227834));
#505=CARTESIAN_POINT('',(5.0534161517129,4.2779917228195,-2.58308830630576));
#506=CARTESIAN_POINT('',(6.37285061903087,4.50529292997793,-2.21006860023991));
#507=CARTESIAN_POINT('',(6.98801260885413,4.76195074246321,-1.57318013556821));
#508=CARTESIAN_POINT('',(7.19809910929333,4.85490551229855,-1.1957811115138));
#509=CARTESIAN_POINT('',(2.90190089070667,4.85490551229855,-1.1957811115138));
#510=CARTESIAN_POINT('',(2.90190089070667,4.85490551229855,1.1957811115138));
#511=CARTESIAN_POINT('',(2.68641358140292,4.88789789065862,1.06183111178402));
#512=CARTESIAN_POINT('',(2.2799963725382,4.95688078544582,0.748895936965275));
#513=CARTESIAN_POINT('',(1.93465073722312,5.02162059881131,0.000202575260890204));
#514=CARTESIAN_POINT('',(2.28140076003218,4.95663680421962,-0.750657741240791));
#515=CARTESIAN_POINT('',(2.68604325899744,4.88795458920368,-1.06160091406949));
#516=CARTESIAN_POINT('',(2.90190089070667,4.85490551229855,-1.1957811115138));
#517=CARTESIAN_POINT('',(10.1,0.,0.));
#518=CARTESIAN_POINT('',(10.1,0.,-5.));
#519=CARTESIAN_POINT('',(16.6,0.,0.));
#520=CARTESIAN_POINT('',(14.375,0.,0.));
#521=CARTESIAN_POINT('',(14.375,0.,-10.));
#522=CARTESIAN_POINT('',(3.9487774407505,9.69325000000001,-2.45782514380092));
#523=CARTESIAN_POINT('',(3.42283624167136,9.74000883528558,-2.27341614250358));
#524=CARTESIAN_POINT('',(2.47676915804731,9.89478547135448,-1.64597227140266));
#525=CARTESIAN_POINT('',(1.83786673710788,10.0524392408024,-0.00490066208434847));
#526=CARTESIAN_POINT('',(2.47177906636801,9.89545406401117,1.64507684730785));
#527=CARTESIAN_POINT('',(3.42936119122684,9.73942873423617,2.27570396371466));
#528=CARTESIAN_POINT('',(3.9487774407505,9.69325,2.45782514380091));
#529=CARTESIAN_POINT('',(3.9487774407505,9.69325,-2.45782514380092));
#530=CARTESIAN_POINT('',(3.9487774407505,9.69325,2.45782514380092));
#531=CARTESIAN_POINT('',(6.1512225592495,9.69325,-2.45782514380091));
#532=CARTESIAN_POINT('',(5.82386475479792,9.64175088582736,-2.66092900971789));
#533=CARTESIAN_POINT('',(5.0506684146823,9.56933508361592,-2.90090827228071));
#534=CARTESIAN_POINT('',(4.27646641912673,9.64169878637067,-2.661134481234));
#535=CARTESIAN_POINT('',(3.9487774407505,9.69325,-2.45782514380091));
#536=CARTESIAN_POINT('',(6.1512225592495,9.69325,-2.45782514380091));
#537=CARTESIAN_POINT('',(6.15122255924947,9.69325,2.45782514380093));
#538=CARTESIAN_POINT('',(6.66987361118687,9.73936070429677,2.27597226238177));
#539=CARTESIAN_POINT('',(7.6242506130063,9.89465333819846,1.64563770829927));
#540=CARTESIAN_POINT('',(8.26222662230912,10.0524822199116,0.0112259057807634));
#541=CARTESIAN_POINT('',(7.62677328487123,9.89540171767082,-1.64663531963996));
#542=CARTESIAN_POINT('',(6.67591611462541,9.73989791344412,-2.27385359963723));
#543=CARTESIAN_POINT('',(6.15122255924959,9.69325000000023,-2.45782514380113));
#544=CARTESIAN_POINT('',(6.15122255924947,9.69325,2.45782514380093));
#545=CARTESIAN_POINT('',(3.94877744075051,9.69325000000001,2.45782514380091));
#546=CARTESIAN_POINT('',(4.27870095830109,9.64134725423521,2.6625208649972));
#547=CARTESIAN_POINT('',(5.04535635455633,9.56949007413606,2.90029718998007));
#548=CARTESIAN_POINT('',(5.82413340148563,9.64179314865493,2.6607623322167));
#549=CARTESIAN_POINT('',(6.15122255924947,9.69325,2.45782514380093));
#550=CARTESIAN_POINT('',(0.625000000000001,0.,0.));
#551=CARTESIAN_POINT('',(0.625000000000001,0.,-10.));
#552=CARTESIAN_POINT('',(5.05,4.,0.));
#553=CARTESIAN_POINT('',(5.05,4.85490551229855,0.));
#554=CARTESIAN_POINT('',(5.05,4.,0.));
#555=CARTESIAN_POINT('',(5.05,4.85490551229855,0.));
#556=CARTESIAN_POINT('',(5.05,10.,0.));
#557=CARTESIAN_POINT('',(5.05,9.69325,0.));
#558=CARTESIAN_POINT('',(5.05,10.,0.));
#559=CARTESIAN_POINT('',(5.05,9.69325,0.));
#560=CARTESIAN_POINT('',(10.1,0.,0.));
#561=CARTESIAN_POINT('',(0.,5.,0.));
#562=CARTESIAN_POINT('',(0.,0.,0.));
#563=CARTESIAN_POINT('',(0.,0.,-9.375));
#564=CARTESIAN_POINT('',(0.,0.,0.));
#565=CARTESIAN_POINT('',(14.375,0.,0.));
#566=CARTESIAN_POINT('',(15.,0.,0.));
#567=CARTESIAN_POINT('',(15.,0.,-9.375));
#568=CARTESIAN_POINT('',(15.,9.375,0.));
#569=CARTESIAN_POINT('',(15.,0.,0.));
#570=CARTESIAN_POINT('',(15.,0.,-8.));
#571=CARTESIAN_POINT('',(15.,0.,0.));
#572=CARTESIAN_POINT('',(16.6,0.,0.));
#573=CARTESIAN_POINT('',(16.6,0.,-7.5712812921102));
#574=CARTESIAN_POINT('',(16.6,7.5712812921102,0.));
#575=CARTESIAN_POINT('',(5.05,10.,0.));
#576=CARTESIAN_POINT('',(5.05,10.,0.));
#577=CARTESIAN_POINT('',(5.05,10.,-2.3865));
#578=CARTESIAN_POINT('',(5.05,10.,0.));
#579=CARTESIAN_POINT('',(5.05,10.,1.73205080756888));
#580=CARTESIAN_POINT('',(5.05,10.,1.73205080756888));
#581=CARTESIAN_POINT('',(6.55,10.,0.866025403784439));
#582=CARTESIAN_POINT('',(3.55,10.,0.866025403784439));
#583=CARTESIAN_POINT('',(3.55,10.,0.866025403784439));
#584=CARTESIAN_POINT('',(3.55,10.,-0.866025403784439));
#585=CARTESIAN_POINT('',(3.55,10.,-0.866025403784439));
#586=CARTESIAN_POINT('',(5.05,10.,-1.73205080756888));
#587=CARTESIAN_POINT('',(5.05,10.,-1.73205080756888));
#588=CARTESIAN_POINT('',(6.55,10.,-0.866025403784439));
#589=CARTESIAN_POINT('',(6.55,10.,-0.866025403784438));
#590=CARTESIAN_POINT('',(6.55,10.,0.));
#591=CARTESIAN_POINT('',(5.05,5.,0.));
#592=CARTESIAN_POINT('',(5.05,4.19615242270663,0.));
#593=CARTESIAN_POINT('',(3.55,7.,-0.866025403784439));
#594=CARTESIAN_POINT('',(3.55,7.,0.866025403784439));
#595=CARTESIAN_POINT('',(3.55,7.,0.866025403784439));
#596=CARTESIAN_POINT('',(3.55,7.,-0.866025403784439));
#597=CARTESIAN_POINT('',(3.55,7.,-0.866025403784439));
#598=CARTESIAN_POINT('',(3.55,7.,-0.866025403784439));
#599=CARTESIAN_POINT('',(3.55,7.,0.866025403784439));
#600=CARTESIAN_POINT('',(5.05,7.,1.73205080756888));
#601=CARTESIAN_POINT('',(5.05,7.,1.73205080756888));
#602=CARTESIAN_POINT('',(3.55,7.,0.866025403784439));
#603=CARTESIAN_POINT('',(5.05,7.,1.73205080756888));
#604=CARTESIAN_POINT('',(6.55,7.,0.866025403784439));
#605=CARTESIAN_POINT('',(6.55,7.,0.866025403784439));
#606=CARTESIAN_POINT('',(5.05,7.,1.73205080756888));
#607=CARTESIAN_POINT('',(6.55,7.,0.866025403784439));
#608=CARTESIAN_POINT('',(6.55,7.,-0.866025403784438));
#609=CARTESIAN_POINT('',(6.55,7.,-0.866025403784438));
#610=CARTESIAN_POINT('',(6.55,7.,0.866025403784439));
#611=CARTESIAN_POINT('',(6.55,7.,-0.866025403784439));
#612=CARTESIAN_POINT('',(5.05,7.,-1.73205080756888));
#613=CARTESIAN_POINT('',(5.05,7.,-1.73205080756888));
#614=CARTESIAN_POINT('',(6.55,7.,-0.866025403784439));
#615=CARTESIAN_POINT('',(5.05,7.,-1.73205080756888));
#616=CARTESIAN_POINT('',(5.05,7.,-1.73205080756888));
#617=CARTESIAN_POINT('',(0.,7.,0.));
#618=MECHANICAL_DESIGN_GEOMETRIC_PRESENTATION_REPRESENTATION('',(#341),
#619);
#619=(
GEOMETRIC_REPRESENTATION_CONTEXT(3)
GLOBAL_UNCERTAINTY_ASSIGNED_CONTEXT((#620))
GLOBAL_UNIT_ASSIGNED_CONTEXT((#623,#622,#621))
REPRESENTATION_CONTEXT('11135 YSRP-20','TOP_LEVEL_ASSEMBLY_PART')
);
#620=UNCERTAINTY_MEASURE_WITH_UNIT(LENGTH_MEASURE(0.005),#623,
'DISTANCE_ACCURACY_VALUE','Maximum Tolerance applied to model');
#621=(
NAMED_UNIT(*)
SI_UNIT($,.STERADIAN.)
SOLID_ANGLE_UNIT()
);
#622=(
NAMED_UNIT(*)
PLANE_ANGLE_UNIT()
SI_UNIT($,.RADIAN.)
);
#623=(
LENGTH_UNIT()
NAMED_UNIT(*)
SI_UNIT(.MILLI.,.METRE.)
);
#624=PRODUCT_DEFINITION_SHAPE('','',#625);
#625=PRODUCT_DEFINITION('','',#627,#626);
#626=PRODUCT_DEFINITION_CONTEXT('',#633,'design');
#627=PRODUCT_DEFINITION_FORMATION_WITH_SPECIFIED_SOURCE('','',#629,
 .NOT_KNOWN.);
#628=PRODUCT_RELATED_PRODUCT_CATEGORY('','',(#629));
#629=PRODUCT('11135 YSRP-20','11135 YSRP-20','11135 YSRP-20',(#631));
#630=PRODUCT_CATEGORY('','');
#631=PRODUCT_CONTEXT('',#633,'mechanical');
#632=APPLICATION_PROTOCOL_DEFINITION('international standard',
'automotive_design',2010,#633);
#633=APPLICATION_CONTEXT(
'core data for automotive mechanical design processes');
ENDSEC;
END-ISO-10303-21;
