ISO-10303-21;
HEADER;
/* Generated by software containing ST-Developer
 * from STEP Tools, Inc. (www.steptools.com) 
 */
/* OPTION: using custom renumber hook */

FILE_DESCRIPTION(
/* description */ ('STEP AP214'),
/* implementation_level */ '2;1');

FILE_NAME(
/* name */ '11136_YSRP-25',
/* time_stamp */ '2024-09-18T13:47:34+02:00',
/* author */ ('License CC BY-ND 4.0'),
/* organization */ ('CADENAS'),
/* preprocessor_version */ 'ST-DEVELOPER v19.3',
/* originating_system */ 'PARTsolutions',
/* authorisation */ '  ');

FILE_SCHEMA (('AUTOMOTIVE_DESIGN {1 0 10303 214 3 1 1}'));
ENDSEC;

DATA;
#10=PROPERTY_DEFINITION_REPRESENTATION(#14,#12);
#11=PROPERTY_DEFINITION_REPRESENTATION(#15,#13);
#12=REPRESENTATION('',(#16),#580);
#13=REPRESENTATION('',(#17),#580);
#14=PROPERTY_DEFINITION('pmi validation property','',#585);
#15=PROPERTY_DEFINITION('pmi validation property','',#585);
#16=VALUE_REPRESENTATION_ITEM('number of annotations',COUNT_MEASURE(0.));
#17=VALUE_REPRESENTATION_ITEM('number of views',COUNT_MEASURE(0.));
#18=SHAPE_REPRESENTATION_RELATIONSHIP('','',#331,#19);
#19=ADVANCED_BREP_SHAPE_REPRESENTATION('',(#329),#580);
#20=VERTEX_LOOP('',#207);
#21=LINE('',#540,#39);
#22=LINE('',#543,#40);
#23=LINE('',#545,#41);
#24=LINE('',#547,#42);
#25=LINE('',#549,#43);
#26=LINE('',#551,#44);
#27=LINE('',#555,#45);
#28=LINE('',#557,#46);
#29=LINE('',#559,#47);
#30=LINE('',#561,#48);
#31=LINE('',#563,#49);
#32=LINE('',#565,#50);
#33=LINE('',#567,#51);
#34=LINE('',#569,#52);
#35=LINE('',#571,#53);
#36=LINE('',#573,#54);
#37=LINE('',#575,#55);
#38=LINE('',#577,#56);
#39=VECTOR('',#421,1000.);
#40=VECTOR('',#422,1000.);
#41=VECTOR('',#423,1000.);
#42=VECTOR('',#424,1000.);
#43=VECTOR('',#425,1000.);
#44=VECTOR('',#426,1000.);
#45=VECTOR('',#431,1000.);
#46=VECTOR('',#432,1000.);
#47=VECTOR('',#433,1000.);
#48=VECTOR('',#436,1000.);
#49=VECTOR('',#437,1000.);
#50=VECTOR('',#440,1000.);
#51=VECTOR('',#441,1000.);
#52=VECTOR('',#444,1000.);
#53=VECTOR('',#445,1000.);
#54=VECTOR('',#448,1000.);
#55=VECTOR('',#449,1000.);
#56=VECTOR('',#452,1000.);
#57=PLANE('',#345);
#58=PLANE('',#346);
#59=PLANE('',#351);
#60=PLANE('',#355);
#61=PLANE('',#358);
#62=PLANE('',#360);
#63=PLANE('',#361);
#64=PLANE('',#362);
#65=PLANE('',#363);
#66=PLANE('',#364);
#67=PLANE('',#365);
#68=PLANE('',#366);
#69=CONICAL_SURFACE('',#338,4.,0.785398163397447);
#70=CONICAL_SURFACE('',#340,4.,0.785398163397447);
#71=CONICAL_SURFACE('',#348,11.71875,0.785398163397448);
#72=CONICAL_SURFACE('',#349,12.5,0.785398163397448);
#73=CONICAL_SURFACE('',#353,10.,0.26179938779915);
#74=CONICAL_SURFACE('',#356,3.233,0.785398163397448);
#75=CONICAL_SURFACE('',#359,4.,1.30899693899575);
#76=B_SPLINE_CURVE_WITH_KNOTS('',3,(#459,#460,#461,#462,#463,#464,#465),
 .UNSPECIFIED.,.F.,.F.,(4,1,1,1,4),(0.0226859772258761,0.0246519825140928,
0.0266179878023094,0.028583993090526,0.0305499983787427),.UNSPECIFIED.);
#77=B_SPLINE_CURVE_WITH_KNOTS('',3,(#468,#469,#470,#471,#472),
 .UNSPECIFIED.,.F.,.F.,(4,1,4),(0.0173507132810174,0.0194442775782974,0.0215378418755774),
 .UNSPECIFIED.);
#78=B_SPLINE_CURVE_WITH_KNOTS('',3,(#474,#475,#476,#477,#478,#479,#480),
 .UNSPECIFIED.,.F.,.F.,(4,1,1,1,4),(0.0108884042310628,0.0128536124836179,
0.0148188207361731,0.0167840289887282,0.0187492372412834),.UNSPECIFIED.);
#79=B_SPLINE_CURVE_WITH_KNOTS('',3,(#482,#483,#484,#485,#486),
 .UNSPECIFIED.,.F.,.F.,(4,1,4),(0.00626378040192786,0.00836030948598035,
0.0104568385700328),.UNSPECIFIED.);
#80=B_SPLINE_CURVE_WITH_KNOTS('',3,(#490,#491,#492,#493,#494,#495,#496,
#497,#498,#499,#500,#501,#502,#503,#504,#505,#506,#507,#508),
 .UNSPECIFIED.,.T.,.F.,(1,1,1,1,1,1,1,1,1,1,1,1,1,1,1,1,1,1,1,1,1,1,1),
(-0.00397646080376225,-0.00265097386917483,-0.00132548693458742,0.,0.00132548693458742,
0.00265097386917483,0.00397646080376225,0.00530194773834967,0.00662743467293708,
0.0079529216075245,0.00927840854211192,0.0106038954766993,0.0119293824112868,
0.0132548693458742,0.0145803562804616,0.015905843215049,0.0172313301496364,
0.0185568170842238,0.0198823040188113,0.0212077909533987,0.0225332778879861,
0.0238587648225735,0.0251842517571609),.UNSPECIFIED.);
#81=ORIENTED_EDGE('',*,*,#151,.F.);
#82=ORIENTED_EDGE('',*,*,#152,.F.);
#83=ORIENTED_EDGE('',*,*,#153,.F.);
#84=ORIENTED_EDGE('',*,*,#154,.F.);
#85=ORIENTED_EDGE('',*,*,#155,.F.);
#86=ORIENTED_EDGE('',*,*,#156,.T.);
#87=ORIENTED_EDGE('',*,*,#157,.T.);
#88=ORIENTED_EDGE('',*,*,#158,.T.);
#89=ORIENTED_EDGE('',*,*,#159,.T.);
#90=ORIENTED_EDGE('',*,*,#154,.T.);
#91=ORIENTED_EDGE('',*,*,#152,.T.);
#92=ORIENTED_EDGE('',*,*,#160,.T.);
#93=ORIENTED_EDGE('',*,*,#161,.F.);
#94=ORIENTED_EDGE('',*,*,#157,.F.);
#95=ORIENTED_EDGE('',*,*,#162,.T.);
#96=ORIENTED_EDGE('',*,*,#162,.F.);
#97=ORIENTED_EDGE('',*,*,#163,.F.);
#98=ORIENTED_EDGE('',*,*,#161,.T.);
#99=ORIENTED_EDGE('',*,*,#156,.F.);
#100=ORIENTED_EDGE('',*,*,#163,.T.);
#101=ORIENTED_EDGE('',*,*,#164,.F.);
#102=ORIENTED_EDGE('',*,*,#151,.T.);
#103=ORIENTED_EDGE('',*,*,#165,.F.);
#104=ORIENTED_EDGE('',*,*,#164,.T.);
#105=ORIENTED_EDGE('',*,*,#166,.F.);
#106=ORIENTED_EDGE('',*,*,#165,.T.);
#107=ORIENTED_EDGE('',*,*,#166,.T.);
#108=ORIENTED_EDGE('',*,*,#159,.F.);
#109=ORIENTED_EDGE('',*,*,#153,.T.);
#110=ORIENTED_EDGE('',*,*,#160,.F.);
#111=ORIENTED_EDGE('',*,*,#155,.T.);
#112=ORIENTED_EDGE('',*,*,#167,.T.);
#113=ORIENTED_EDGE('',*,*,#167,.F.);
#114=ORIENTED_EDGE('',*,*,#168,.F.);
#115=ORIENTED_EDGE('',*,*,#169,.F.);
#116=ORIENTED_EDGE('',*,*,#170,.F.);
#117=ORIENTED_EDGE('',*,*,#171,.F.);
#118=ORIENTED_EDGE('',*,*,#172,.F.);
#119=ORIENTED_EDGE('',*,*,#173,.T.);
#120=ORIENTED_EDGE('',*,*,#158,.F.);
#121=ORIENTED_EDGE('',*,*,#170,.T.);
#122=ORIENTED_EDGE('',*,*,#174,.F.);
#123=ORIENTED_EDGE('',*,*,#175,.F.);
#124=ORIENTED_EDGE('',*,*,#176,.T.);
#125=ORIENTED_EDGE('',*,*,#169,.T.);
#126=ORIENTED_EDGE('',*,*,#177,.F.);
#127=ORIENTED_EDGE('',*,*,#178,.F.);
#128=ORIENTED_EDGE('',*,*,#174,.T.);
#129=ORIENTED_EDGE('',*,*,#168,.T.);
#130=ORIENTED_EDGE('',*,*,#179,.F.);
#131=ORIENTED_EDGE('',*,*,#180,.F.);
#132=ORIENTED_EDGE('',*,*,#177,.T.);
#133=ORIENTED_EDGE('',*,*,#179,.T.);
#134=ORIENTED_EDGE('',*,*,#173,.F.);
#135=ORIENTED_EDGE('',*,*,#181,.F.);
#136=ORIENTED_EDGE('',*,*,#182,.F.);
#137=ORIENTED_EDGE('',*,*,#172,.T.);
#138=ORIENTED_EDGE('',*,*,#183,.F.);
#139=ORIENTED_EDGE('',*,*,#184,.F.);
#140=ORIENTED_EDGE('',*,*,#181,.T.);
#141=ORIENTED_EDGE('',*,*,#171,.T.);
#142=ORIENTED_EDGE('',*,*,#176,.F.);
#143=ORIENTED_EDGE('',*,*,#185,.F.);
#144=ORIENTED_EDGE('',*,*,#183,.T.);
#145=ORIENTED_EDGE('',*,*,#175,.T.);
#146=ORIENTED_EDGE('',*,*,#178,.T.);
#147=ORIENTED_EDGE('',*,*,#180,.T.);
#148=ORIENTED_EDGE('',*,*,#182,.T.);
#149=ORIENTED_EDGE('',*,*,#184,.T.);
#150=ORIENTED_EDGE('',*,*,#185,.T.);
#151=EDGE_CURVE('',#186,#186,#214,.T.);
#152=EDGE_CURVE('',#187,#188,#76,.T.);
#153=EDGE_CURVE('',#189,#187,#77,.T.);
#154=EDGE_CURVE('',#190,#189,#78,.T.);
#155=EDGE_CURVE('',#188,#190,#79,.T.);
#156=EDGE_CURVE('',#191,#191,#215,.T.);
#157=EDGE_CURVE('',#192,#192,#80,.T.);
#158=EDGE_CURVE('',#193,#193,#216,.T.);
#159=EDGE_CURVE('',#189,#190,#217,.T.);
#160=EDGE_CURVE('',#188,#187,#218,.T.);
#161=EDGE_CURVE('',#194,#194,#219,.T.);
#162=EDGE_CURVE('',#195,#195,#220,.T.);
#163=EDGE_CURVE('',#196,#196,#221,.T.);
#164=EDGE_CURVE('',#197,#197,#222,.T.);
#165=EDGE_CURVE('',#198,#198,#223,.T.);
#166=EDGE_CURVE('',#199,#199,#224,.T.);
#167=EDGE_CURVE('',#200,#200,#225,.T.);
#168=EDGE_CURVE('',#201,#202,#21,.T.);
#169=EDGE_CURVE('',#203,#201,#22,.T.);
#170=EDGE_CURVE('',#204,#203,#23,.T.);
#171=EDGE_CURVE('',#205,#204,#24,.T.);
#172=EDGE_CURVE('',#206,#205,#25,.T.);
#173=EDGE_CURVE('',#206,#202,#26,.T.);
#174=EDGE_CURVE('',#208,#203,#27,.T.);
#175=EDGE_CURVE('',#209,#208,#28,.T.);
#176=EDGE_CURVE('',#209,#204,#29,.T.);
#177=EDGE_CURVE('',#210,#201,#30,.T.);
#178=EDGE_CURVE('',#208,#210,#31,.T.);
#179=EDGE_CURVE('',#211,#202,#32,.T.);
#180=EDGE_CURVE('',#210,#211,#33,.T.);
#181=EDGE_CURVE('',#212,#206,#34,.T.);
#182=EDGE_CURVE('',#211,#212,#35,.T.);
#183=EDGE_CURVE('',#213,#205,#36,.T.);
#184=EDGE_CURVE('',#212,#213,#37,.T.);
#185=EDGE_CURVE('',#213,#209,#38,.T.);
#186=VERTEX_POINT('',#458);
#187=VERTEX_POINT('',#466);
#188=VERTEX_POINT('',#467);
#189=VERTEX_POINT('',#473);
#190=VERTEX_POINT('',#481);
#191=VERTEX_POINT('',#488);
#192=VERTEX_POINT('',#509);
#193=VERTEX_POINT('',#511);
#194=VERTEX_POINT('',#518);
#195=VERTEX_POINT('',#520);
#196=VERTEX_POINT('',#524);
#197=VERTEX_POINT('',#528);
#198=VERTEX_POINT('',#531);
#199=VERTEX_POINT('',#534);
#200=VERTEX_POINT('',#538);
#201=VERTEX_POINT('',#541);
#202=VERTEX_POINT('',#542);
#203=VERTEX_POINT('',#544);
#204=VERTEX_POINT('',#546);
#205=VERTEX_POINT('',#548);
#206=VERTEX_POINT('',#550);
#207=VERTEX_POINT('',#553);
#208=VERTEX_POINT('',#556);
#209=VERTEX_POINT('',#558);
#210=VERTEX_POINT('',#562);
#211=VERTEX_POINT('',#566);
#212=VERTEX_POINT('',#570);
#213=VERTEX_POINT('',#574);
#214=CIRCLE('',#334,12.5);
#215=CIRCLE('',#335,12.5);
#216=CIRCLE('',#337,3.3235);
#217=CIRCLE('',#339,3.6165);
#218=CIRCLE('',#341,3.6165);
#219=CIRCLE('',#343,6.);
#220=CIRCLE('',#344,6.);
#221=CIRCLE('',#347,11.71875);
#222=CIRCLE('',#350,11.71875);
#223=CIRCLE('',#352,10.);
#224=CIRCLE('',#354,9.33012701892219);
#225=CIRCLE('',#357,3.233);
#226=EDGE_LOOP('',(#81));
#227=EDGE_LOOP('',(#82,#83,#84,#85));
#228=EDGE_LOOP('',(#86));
#229=EDGE_LOOP('',(#87));
#230=EDGE_LOOP('',(#88));
#231=EDGE_LOOP('',(#89,#90));
#232=EDGE_LOOP('',(#91,#92));
#233=EDGE_LOOP('',(#93));
#234=EDGE_LOOP('',(#94));
#235=EDGE_LOOP('',(#95));
#236=EDGE_LOOP('',(#96));
#237=EDGE_LOOP('',(#97));
#238=EDGE_LOOP('',(#98));
#239=EDGE_LOOP('',(#99));
#240=EDGE_LOOP('',(#100));
#241=EDGE_LOOP('',(#101));
#242=EDGE_LOOP('',(#102));
#243=EDGE_LOOP('',(#103));
#244=EDGE_LOOP('',(#104));
#245=EDGE_LOOP('',(#105));
#246=EDGE_LOOP('',(#106));
#247=EDGE_LOOP('',(#107));
#248=EDGE_LOOP('',(#108,#109,#110,#111));
#249=EDGE_LOOP('',(#112));
#250=EDGE_LOOP('',(#113));
#251=EDGE_LOOP('',(#114,#115,#116,#117,#118,#119));
#252=EDGE_LOOP('',(#120));
#253=EDGE_LOOP('',(#121,#122,#123,#124));
#254=EDGE_LOOP('',(#125,#126,#127,#128));
#255=EDGE_LOOP('',(#129,#130,#131,#132));
#256=EDGE_LOOP('',(#133,#134,#135,#136));
#257=EDGE_LOOP('',(#137,#138,#139,#140));
#258=EDGE_LOOP('',(#141,#142,#143,#144));
#259=EDGE_LOOP('',(#145,#146,#147,#148,#149,#150));
#260=FACE_BOUND('',#226,.T.);
#261=FACE_BOUND('',#227,.T.);
#262=FACE_BOUND('',#228,.T.);
#263=FACE_BOUND('',#229,.T.);
#264=FACE_BOUND('',#230,.T.);
#265=FACE_BOUND('',#231,.T.);
#266=FACE_BOUND('',#232,.T.);
#267=FACE_BOUND('',#233,.T.);
#268=FACE_BOUND('',#234,.T.);
#269=FACE_BOUND('',#235,.T.);
#270=FACE_BOUND('',#236,.T.);
#271=FACE_BOUND('',#237,.T.);
#272=FACE_BOUND('',#238,.T.);
#273=FACE_BOUND('',#239,.T.);
#274=FACE_BOUND('',#240,.T.);
#275=FACE_BOUND('',#241,.T.);
#276=FACE_BOUND('',#242,.T.);
#277=FACE_BOUND('',#243,.T.);
#278=FACE_BOUND('',#244,.T.);
#279=FACE_BOUND('',#245,.T.);
#280=FACE_BOUND('',#246,.T.);
#281=FACE_BOUND('',#247,.T.);
#282=FACE_BOUND('',#248,.T.);
#283=FACE_BOUND('',#249,.T.);
#284=FACE_BOUND('',#250,.T.);
#285=FACE_BOUND('',#251,.T.);
#286=FACE_BOUND('',#20,.T.);
#287=FACE_BOUND('',#252,.T.);
#288=FACE_BOUND('',#253,.T.);
#289=FACE_BOUND('',#254,.T.);
#290=FACE_BOUND('',#255,.T.);
#291=FACE_BOUND('',#256,.T.);
#292=FACE_BOUND('',#257,.T.);
#293=FACE_BOUND('',#258,.T.);
#294=FACE_BOUND('',#259,.T.);
#295=CYLINDRICAL_SURFACE('',#333,12.5);
#296=CYLINDRICAL_SURFACE('',#336,3.3235);
#297=CYLINDRICAL_SURFACE('',#342,6.);
#298=ADVANCED_FACE('',(#260,#261,#262),#295,.T.);
#299=ADVANCED_FACE('',(#263,#264),#296,.F.);
#300=ADVANCED_FACE('',(#265),#69,.F.);
#301=ADVANCED_FACE('',(#266),#70,.F.);
#302=ADVANCED_FACE('',(#267,#268,#269),#297,.F.);
#303=ADVANCED_FACE('',(#270),#57,.F.);
#304=ADVANCED_FACE('',(#271,#272),#58,.F.);
#305=ADVANCED_FACE('',(#273,#274),#71,.T.);
#306=ADVANCED_FACE('',(#275,#276),#72,.T.);
#307=ADVANCED_FACE('',(#277,#278),#59,.F.);
#308=ADVANCED_FACE('',(#279,#280),#73,.T.);
#309=ADVANCED_FACE('',(#281),#60,.F.);
#310=ADVANCED_FACE('',(#282,#283),#74,.T.);
#311=ADVANCED_FACE('',(#284,#285),#61,.F.);
#312=ADVANCED_FACE('',(#286,#287),#75,.T.);
#313=ADVANCED_FACE('',(#288),#62,.F.);
#314=ADVANCED_FACE('',(#289),#63,.F.);
#315=ADVANCED_FACE('',(#290),#64,.F.);
#316=ADVANCED_FACE('',(#291),#65,.F.);
#317=ADVANCED_FACE('',(#292),#66,.F.);
#318=ADVANCED_FACE('',(#293),#67,.F.);
#319=ADVANCED_FACE('',(#294),#68,.T.);
#320=CLOSED_SHELL('',(#298,#299,#300,#301,#302,#303,#304,#305,#306,#307,
#308,#309,#310,#311,#312,#313,#314,#315,#316,#317,#318,#319));
#321=STYLED_ITEM('',(#322),#329);
#322=PRESENTATION_STYLE_ASSIGNMENT((#323));
#323=SURFACE_STYLE_USAGE(.BOTH.,#324);
#324=SURFACE_SIDE_STYLE('',(#325));
#325=SURFACE_STYLE_FILL_AREA(#326);
#326=FILL_AREA_STYLE('',(#327));
#327=FILL_AREA_STYLE_COLOUR('',#328);
#328=COLOUR_RGB('',0.689999997615814,0.689999997615814,0.689999997615814);
#329=MANIFOLD_SOLID_BREP('11136 YSRP-25',#320);
#330=SHAPE_DEFINITION_REPRESENTATION(#585,#331);
#331=SHAPE_REPRESENTATION('11136 YSRP-25',(#332),#580);
#332=AXIS2_PLACEMENT_3D('',#455,#367,#368);
#333=AXIS2_PLACEMENT_3D('',#456,#369,#370);
#334=AXIS2_PLACEMENT_3D('',#457,#371,#372);
#335=AXIS2_PLACEMENT_3D('',#487,#373,#374);
#336=AXIS2_PLACEMENT_3D('',#489,#375,#376);
#337=AXIS2_PLACEMENT_3D('',#510,#377,#378);
#338=AXIS2_PLACEMENT_3D('',#512,#379,#380);
#339=AXIS2_PLACEMENT_3D('',#513,#381,#382);
#340=AXIS2_PLACEMENT_3D('',#514,#383,#384);
#341=AXIS2_PLACEMENT_3D('',#515,#385,#386);
#342=AXIS2_PLACEMENT_3D('',#516,#387,#388);
#343=AXIS2_PLACEMENT_3D('',#517,#389,#390);
#344=AXIS2_PLACEMENT_3D('',#519,#391,#392);
#345=AXIS2_PLACEMENT_3D('',#521,#393,#394);
#346=AXIS2_PLACEMENT_3D('',#522,#395,#396);
#347=AXIS2_PLACEMENT_3D('',#523,#397,#398);
#348=AXIS2_PLACEMENT_3D('',#525,#399,#400);
#349=AXIS2_PLACEMENT_3D('',#526,#401,#402);
#350=AXIS2_PLACEMENT_3D('',#527,#403,#404);
#351=AXIS2_PLACEMENT_3D('',#529,#405,#406);
#352=AXIS2_PLACEMENT_3D('',#530,#407,#408);
#353=AXIS2_PLACEMENT_3D('',#532,#409,#410);
#354=AXIS2_PLACEMENT_3D('',#533,#411,#412);
#355=AXIS2_PLACEMENT_3D('',#535,#413,#414);
#356=AXIS2_PLACEMENT_3D('',#536,#415,#416);
#357=AXIS2_PLACEMENT_3D('',#537,#417,#418);
#358=AXIS2_PLACEMENT_3D('',#539,#419,#420);
#359=AXIS2_PLACEMENT_3D('',#552,#427,#428);
#360=AXIS2_PLACEMENT_3D('',#554,#429,#430);
#361=AXIS2_PLACEMENT_3D('',#560,#434,#435);
#362=AXIS2_PLACEMENT_3D('',#564,#438,#439);
#363=AXIS2_PLACEMENT_3D('',#568,#442,#443);
#364=AXIS2_PLACEMENT_3D('',#572,#446,#447);
#365=AXIS2_PLACEMENT_3D('',#576,#450,#451);
#366=AXIS2_PLACEMENT_3D('',#578,#453,#454);
#367=DIRECTION('',(0.,0.,1.));
#368=DIRECTION('',(1.,0.,0.));
#369=DIRECTION('',(1.,0.,0.));
#370=DIRECTION('',(0.,0.,-1.));
#371=DIRECTION('',(1.,0.,0.));
#372=DIRECTION('',(0.,0.,-1.));
#373=DIRECTION('',(1.,0.,0.));
#374=DIRECTION('',(0.,0.,-1.));
#375=DIRECTION('',(0.,-1.,0.));
#376=DIRECTION('',(0.,0.,-1.));
#377=DIRECTION('',(0.,1.,0.));
#378=DIRECTION('',(0.,0.,1.));
#379=DIRECTION('',(0.,1.,0.));
#380=DIRECTION('',(0.,0.,1.));
#381=DIRECTION('',(0.,-1.,0.));
#382=DIRECTION('',(0.,0.,-1.));
#383=DIRECTION('',(0.,1.,0.));
#384=DIRECTION('',(0.,0.,1.));
#385=DIRECTION('',(0.,-1.,0.));
#386=DIRECTION('',(0.,0.,-1.));
#387=DIRECTION('',(1.,0.,0.));
#388=DIRECTION('',(0.,0.,-1.));
#389=DIRECTION('',(1.,0.,0.));
#390=DIRECTION('',(0.,0.,-1.));
#391=DIRECTION('',(1.,0.,0.));
#392=DIRECTION('',(0.,0.,-1.));
#393=DIRECTION('',(1.,0.,0.));
#394=DIRECTION('',(0.,0.,-1.));
#395=DIRECTION('',(1.,0.,0.));
#396=DIRECTION('',(0.,0.,-1.));
#397=DIRECTION('',(1.,0.,0.));
#398=DIRECTION('',(0.,0.,-1.));
#399=DIRECTION('',(1.,0.,0.));
#400=DIRECTION('',(0.,0.,-1.));
#401=DIRECTION('',(-1.,0.,0.));
#402=DIRECTION('',(0.,0.,1.));
#403=DIRECTION('',(1.,0.,0.));
#404=DIRECTION('',(0.,0.,-1.));
#405=DIRECTION('',(-1.,0.,0.));
#406=DIRECTION('',(0.,0.,1.));
#407=DIRECTION('',(1.,0.,0.));
#408=DIRECTION('',(0.,0.,-1.));
#409=DIRECTION('',(-1.,0.,0.));
#410=DIRECTION('',(0.,0.,1.));
#411=DIRECTION('',(1.,0.,0.));
#412=DIRECTION('',(0.,0.,-1.));
#413=DIRECTION('',(-1.,0.,0.));
#414=DIRECTION('',(0.,0.,1.));
#415=DIRECTION('',(0.,-1.,0.));
#416=DIRECTION('',(0.,0.,-1.));
#417=DIRECTION('',(0.,-1.,0.));
#418=DIRECTION('',(0.,0.,-1.));
#419=DIRECTION('',(0.,-1.,0.));
#420=DIRECTION('',(0.,0.,-1.));
#421=DIRECTION('',(0.866025403784439,0.,-0.5));
#422=DIRECTION('',(0.866025403784439,0.,0.5));
#423=DIRECTION('',(0.,0.,1.));
#424=DIRECTION('',(-0.866025403784439,0.,0.5));
#425=DIRECTION('',(-0.866025403784439,0.,-0.5));
#426=DIRECTION('',(0.,0.,1.));
#427=DIRECTION('',(0.,1.,0.));
#428=DIRECTION('',(0.,0.,1.));
#429=DIRECTION('',(-1.,0.,0.));
#430=DIRECTION('',(0.,0.,1.));
#431=DIRECTION('',(0.,1.,0.));
#432=DIRECTION('',(0.,0.,1.));
#433=DIRECTION('',(0.,1.,0.));
#434=DIRECTION('',(-0.5,0.,0.866025403784439));
#435=DIRECTION('',(0.866025403784439,0.,0.5));
#436=DIRECTION('',(0.,1.,0.));
#437=DIRECTION('',(0.866025403784439,0.,0.5));
#438=DIRECTION('',(0.5,0.,0.866025403784439));
#439=DIRECTION('',(0.866025403784439,0.,-0.5));
#440=DIRECTION('',(0.,1.,0.));
#441=DIRECTION('',(0.866025403784439,0.,-0.5));
#442=DIRECTION('',(1.,0.,0.));
#443=DIRECTION('',(0.,0.,-1.));
#444=DIRECTION('',(0.,1.,0.));
#445=DIRECTION('',(0.,0.,-1.));
#446=DIRECTION('',(0.5,0.,-0.866025403784439));
#447=DIRECTION('',(-0.866025403784439,0.,-0.5));
#448=DIRECTION('',(0.,1.,0.));
#449=DIRECTION('',(-0.866025403784439,0.,-0.5));
#450=DIRECTION('',(-0.5,0.,-0.866025403784439));
#451=DIRECTION('',(-0.866025403784439,0.,0.5));
#452=DIRECTION('',(-0.866025403784439,0.,0.5));
#453=DIRECTION('',(0.,1.,0.));
#454=DIRECTION('',(0.,0.,1.));
#455=CARTESIAN_POINT('',(0.,0.,0.));
#456=CARTESIAN_POINT('',(20.5,0.,0.));
#457=CARTESIAN_POINT('',(17.21875,0.,0.));
#458=CARTESIAN_POINT('',(17.21875,0.,-12.5));
#459=CARTESIAN_POINT('',(4.09247686776805,12.1165,-3.07252790874225));
#460=CARTESIAN_POINT('',(3.50579120904138,12.1876317908453,-2.79202001121416));
#461=CARTESIAN_POINT('',(2.45096023897853,12.3840631706234,-1.95430495636939));
#462=CARTESIAN_POINT('',(1.77528955999531,12.5577821729045,-0.00891329123209297));
#463=CARTESIAN_POINT('',(2.4479169487549,12.3847995492274,1.9540655089586));
#464=CARTESIAN_POINT('',(3.50317429652177,12.1879490743365,2.79076880519272));
#465=CARTESIAN_POINT('',(4.09247686776804,12.1165,3.07252790874225));
#466=CARTESIAN_POINT('',(4.09247686776805,12.1165,-3.07252790874225));
#467=CARTESIAN_POINT('',(4.09247686776805,12.1165,3.07252790874225));
#468=CARTESIAN_POINT('',(7.90752313223194,12.1165,-3.07252790874226));
#469=CARTESIAN_POINT('',(7.38941806644019,12.0002297178913,-3.53103924371244));
#470=CARTESIAN_POINT('',(6.00178262521858,11.7939052076342,-4.1391492708212));
#471=CARTESIAN_POINT('',(4.61565440750577,11.9990913812578,-3.53552826911251));
#472=CARTESIAN_POINT('',(4.09247686776836,12.1165000000005,-3.07252790874195));
#473=CARTESIAN_POINT('',(7.90752313223194,12.1165,-3.07252790874226));
#474=CARTESIAN_POINT('',(7.90752313223195,12.1165,3.07252790874225));
#475=CARTESIAN_POINT('',(8.5012451392377,12.1884849019563,2.78865577138201));
#476=CARTESIAN_POINT('',(9.54203412089325,12.3828814506423,1.95952297985531));
#477=CARTESIAN_POINT('',(10.2260387572844,12.5579932327699,0.0134618584837183));
#478=CARTESIAN_POINT('',(9.55371042192014,12.3851212721293,-1.95293928169783));
#479=CARTESIAN_POINT('',(8.4958078374937,12.1878256647572,-2.79125547031405));
#480=CARTESIAN_POINT('',(7.90752313223194,12.1165,-3.07252790874225));
#481=CARTESIAN_POINT('',(7.90752313223195,12.1165,3.07252790874225));
#482=CARTESIAN_POINT('',(4.09247686776805,12.1165,3.07252790874225));
#483=CARTESIAN_POINT('',(4.60696545491518,12.0010413080879,3.52783874141915));
#484=CARTESIAN_POINT('',(5.99762003317404,11.7936756370338,4.14005556543774));
#485=CARTESIAN_POINT('',(7.38278547652665,11.998741268634,3.53690893666926));
#486=CARTESIAN_POINT('',(7.90752313223195,12.1165,3.07252790874225));
#487=CARTESIAN_POINT('',(0.781250000000001,0.,0.));
#488=CARTESIAN_POINT('',(0.781250000000001,0.,-12.5));
#489=CARTESIAN_POINT('',(6.,5.,0.));
#490=CARTESIAN_POINT('',(4.66513397296806,5.12514877236643,-3.13765244402858));
#491=CARTESIAN_POINT('',(6.00159150963003,4.93087870496719,-3.4159324031662));
#492=CARTESIAN_POINT('',(7.32849998851181,5.12393254156679,-3.1396179433066));
#493=CARTESIAN_POINT('',(8.40226608492949,5.52370363349793,-2.41249757075919));
#494=CARTESIAN_POINT('',(9.13663584301309,5.89378271997679,-1.33697559777305));
#495=CARTESIAN_POINT('',(9.415331702816,6.05224227717106,-0.0114595622919862));
#496=CARTESIAN_POINT('',(9.14295575042076,5.89720297440528,1.32576845110396));
#497=CARTESIAN_POINT('',(8.40779660627143,5.52612871957138,2.40703806034986));
#498=CARTESIAN_POINT('',(7.33764876493,5.12680705480523,3.13511183118023));
#499=CARTESIAN_POINT('',(6.01654503472303,4.93123832257222,3.41535318362232));
#500=CARTESIAN_POINT('',(4.67936393997431,5.1209512447714,3.1443018954063));
#501=CARTESIAN_POINT('',(3.60182577605362,5.52192606114157,2.41678269521329));
#502=CARTESIAN_POINT('',(2.86436054203859,5.89315933829594,1.34024055050265));
#503=CARTESIAN_POINT('',(2.58470052728039,6.05227730394853,0.0132491038190839));
#504=CARTESIAN_POINT('',(2.85595574537528,5.89766586423066,-1.3245210534403));
#505=CARTESIAN_POINT('',(3.59483121027783,5.52512823065518,-2.40976841507746));
#506=CARTESIAN_POINT('',(4.66513397296806,5.12514877236643,-3.13765244402858));
#507=CARTESIAN_POINT('',(6.00159150963003,4.93087870496719,-3.4159324031662));
#508=CARTESIAN_POINT('',(7.32849998851181,5.12393254156679,-3.1396179433066));
#509=CARTESIAN_POINT('',(6.,4.99543268896699,-3.3235));
#510=CARTESIAN_POINT('',(6.,6.31873237132035,0.));
#511=CARTESIAN_POINT('',(6.,6.31873237132035,3.3235));
#512=CARTESIAN_POINT('',(6.,12.5,0.));
#513=CARTESIAN_POINT('',(6.,12.1165,0.));
#514=CARTESIAN_POINT('',(6.,12.5,0.));
#515=CARTESIAN_POINT('',(6.,12.1165,0.));
#516=CARTESIAN_POINT('',(20.5,0.,0.));
#517=CARTESIAN_POINT('',(0.,0.,0.));
#518=CARTESIAN_POINT('',(0.,0.,-6.));
#519=CARTESIAN_POINT('',(12.,0.,0.));
#520=CARTESIAN_POINT('',(12.,0.,-6.));
#521=CARTESIAN_POINT('',(12.,0.,0.));
#522=CARTESIAN_POINT('',(0.,6.,0.));
#523=CARTESIAN_POINT('',(0.,0.,0.));
#524=CARTESIAN_POINT('',(0.,0.,-11.71875));
#525=CARTESIAN_POINT('',(0.,0.,0.));
#526=CARTESIAN_POINT('',(17.21875,0.,0.));
#527=CARTESIAN_POINT('',(18.,0.,0.));
#528=CARTESIAN_POINT('',(18.,0.,-11.71875));
#529=CARTESIAN_POINT('',(18.,11.71875,0.));
#530=CARTESIAN_POINT('',(18.,0.,0.));
#531=CARTESIAN_POINT('',(18.,0.,-10.));
#532=CARTESIAN_POINT('',(18.,0.,0.));
#533=CARTESIAN_POINT('',(20.5,0.,0.));
#534=CARTESIAN_POINT('',(20.5,0.,-9.33012701892219));
#535=CARTESIAN_POINT('',(20.5,9.33012701892219,0.));
#536=CARTESIAN_POINT('',(6.,12.5,0.));
#537=CARTESIAN_POINT('',(6.,12.5,0.));
#538=CARTESIAN_POINT('',(6.,12.5,-3.233));
#539=CARTESIAN_POINT('',(6.,12.5,0.));
#540=CARTESIAN_POINT('',(6.,12.5,2.3094010767585));
#541=CARTESIAN_POINT('',(6.,12.5,2.3094010767585));
#542=CARTESIAN_POINT('',(8.,12.5,1.15470053837925));
#543=CARTESIAN_POINT('',(4.,12.5,1.15470053837925));
#544=CARTESIAN_POINT('',(4.,12.5,1.15470053837925));
#545=CARTESIAN_POINT('',(4.,12.5,-1.15470053837925));
#546=CARTESIAN_POINT('',(4.,12.5,-1.15470053837925));
#547=CARTESIAN_POINT('',(6.,12.5,-2.3094010767585));
#548=CARTESIAN_POINT('',(6.,12.5,-2.3094010767585));
#549=CARTESIAN_POINT('',(8.,12.5,-1.15470053837925));
#550=CARTESIAN_POINT('',(8.,12.5,-1.15470053837925));
#551=CARTESIAN_POINT('',(8.,12.5,0.));
#552=CARTESIAN_POINT('',(6.,6.5,0.));
#553=CARTESIAN_POINT('',(6.,5.42820323027551,0.));
#554=CARTESIAN_POINT('',(4.,8.5,-1.15470053837925));
#555=CARTESIAN_POINT('',(4.,8.5,1.15470053837925));
#556=CARTESIAN_POINT('',(4.,8.5,1.15470053837925));
#557=CARTESIAN_POINT('',(4.,8.5,-1.15470053837925));
#558=CARTESIAN_POINT('',(4.,8.5,-1.15470053837925));
#559=CARTESIAN_POINT('',(4.,8.5,-1.15470053837925));
#560=CARTESIAN_POINT('',(4.,8.5,1.15470053837925));
#561=CARTESIAN_POINT('',(6.,8.5,2.3094010767585));
#562=CARTESIAN_POINT('',(6.,8.5,2.3094010767585));
#563=CARTESIAN_POINT('',(4.,8.5,1.15470053837925));
#564=CARTESIAN_POINT('',(6.,8.5,2.3094010767585));
#565=CARTESIAN_POINT('',(8.,8.5,1.15470053837925));
#566=CARTESIAN_POINT('',(8.,8.5,1.15470053837925));
#567=CARTESIAN_POINT('',(6.,8.5,2.3094010767585));
#568=CARTESIAN_POINT('',(8.,8.5,1.15470053837925));
#569=CARTESIAN_POINT('',(8.,8.5,-1.15470053837925));
#570=CARTESIAN_POINT('',(8.,8.5,-1.15470053837925));
#571=CARTESIAN_POINT('',(8.,8.5,1.15470053837925));
#572=CARTESIAN_POINT('',(8.,8.5,-1.15470053837925));
#573=CARTESIAN_POINT('',(6.,8.5,-2.3094010767585));
#574=CARTESIAN_POINT('',(6.,8.5,-2.3094010767585));
#575=CARTESIAN_POINT('',(8.,8.5,-1.15470053837925));
#576=CARTESIAN_POINT('',(6.,8.5,-2.3094010767585));
#577=CARTESIAN_POINT('',(6.,8.5,-2.3094010767585));
#578=CARTESIAN_POINT('',(0.,8.5,0.));
#579=MECHANICAL_DESIGN_GEOMETRIC_PRESENTATION_REPRESENTATION('',(#321),
#580);
#580=(
GEOMETRIC_REPRESENTATION_CONTEXT(3)
GLOBAL_UNCERTAINTY_ASSIGNED_CONTEXT((#581))
GLOBAL_UNIT_ASSIGNED_CONTEXT((#584,#583,#582))
REPRESENTATION_CONTEXT('11136 YSRP-25','TOP_LEVEL_ASSEMBLY_PART')
);
#581=UNCERTAINTY_MEASURE_WITH_UNIT(LENGTH_MEASURE(0.005),#584,
'DISTANCE_ACCURACY_VALUE','Maximum Tolerance applied to model');
#582=(
NAMED_UNIT(*)
SI_UNIT($,.STERADIAN.)
SOLID_ANGLE_UNIT()
);
#583=(
NAMED_UNIT(*)
PLANE_ANGLE_UNIT()
SI_UNIT($,.RADIAN.)
);
#584=(
LENGTH_UNIT()
NAMED_UNIT(*)
SI_UNIT(.MILLI.,.METRE.)
);
#585=PRODUCT_DEFINITION_SHAPE('','',#586);
#586=PRODUCT_DEFINITION('','',#588,#587);
#587=PRODUCT_DEFINITION_CONTEXT('',#594,'design');
#588=PRODUCT_DEFINITION_FORMATION_WITH_SPECIFIED_SOURCE('','',#590,
 .NOT_KNOWN.);
#589=PRODUCT_RELATED_PRODUCT_CATEGORY('','',(#590));
#590=PRODUCT('11136 YSRP-25','11136 YSRP-25','11136 YSRP-25',(#592));
#591=PRODUCT_CATEGORY('','');
#592=PRODUCT_CONTEXT('',#594,'mechanical');
#593=APPLICATION_PROTOCOL_DEFINITION('international standard',
'automotive_design',2010,#594);
#594=APPLICATION_CONTEXT(
'core data for automotive mechanical design processes');
ENDSEC;
END-ISO-10303-21;
