ISO-10303-21;
HEADER;
/* Generated by software containing ST-Developer
 * from STEP Tools, Inc. (www.steptools.com) 
 */
/* OPTION: using custom renumber hook */

FILE_DESCRIPTION(
/* description */ ('STEP AP214'),
/* implementation_level */ '2;1');

FILE_NAME(
/* name */ '11137_YSRP-32',
/* time_stamp */ '2024-09-18T13:47:55+02:00',
/* author */ ('License CC BY-ND 4.0'),
/* organization */ ('CADENAS'),
/* preprocessor_version */ 'ST-DEVELOPER v19.3',
/* originating_system */ 'PARTsolutions',
/* authorisation */ '  ');

FILE_SCHEMA (('AUTOMOTIVE_DESIGN {1 0 10303 214 3 1 1}'));
ENDSEC;

DATA;
#10=PROPERTY_DEFINITION_REPRESENTATION(#14,#12);
#11=PROPERTY_DEFINITION_REPRESENTATION(#15,#13);
#12=REPRESENTATION('',(#16),#582);
#13=REPRESENTATION('',(#17),#582);
#14=PROPERTY_DEFINITION('pmi validation property','',#587);
#15=PROPERTY_DEFINITION('pmi validation property','',#587);
#16=VALUE_REPRESENTATION_ITEM('number of annotations',COUNT_MEASURE(0.));
#17=VALUE_REPRESENTATION_ITEM('number of views',COUNT_MEASURE(0.));
#18=SHAPE_REPRESENTATION_RELATIONSHIP('','',#331,#19);
#19=ADVANCED_BREP_SHAPE_REPRESENTATION('',(#329),#582);
#20=VERTEX_LOOP('',#207);
#21=LINE('',#542,#39);
#22=LINE('',#545,#40);
#23=LINE('',#547,#41);
#24=LINE('',#549,#42);
#25=LINE('',#551,#43);
#26=LINE('',#553,#44);
#27=LINE('',#557,#45);
#28=LINE('',#559,#46);
#29=LINE('',#561,#47);
#30=LINE('',#563,#48);
#31=LINE('',#565,#49);
#32=LINE('',#567,#50);
#33=LINE('',#569,#51);
#34=LINE('',#571,#52);
#35=LINE('',#573,#53);
#36=LINE('',#575,#54);
#37=LINE('',#577,#55);
#38=LINE('',#579,#56);
#39=VECTOR('',#421,1000.);
#40=VECTOR('',#422,1000.);
#41=VECTOR('',#423,1000.);
#42=VECTOR('',#424,1000.);
#43=VECTOR('',#425,1000.);
#44=VECTOR('',#426,1000.);
#45=VECTOR('',#431,1000.);
#46=VECTOR('',#432,1000.);
#47=VECTOR('',#433,1000.);
#48=VECTOR('',#436,1000.);
#49=VECTOR('',#437,1000.);
#50=VECTOR('',#440,1000.);
#51=VECTOR('',#441,1000.);
#52=VECTOR('',#444,1000.);
#53=VECTOR('',#445,1000.);
#54=VECTOR('',#448,1000.);
#55=VECTOR('',#449,1000.);
#56=VECTOR('',#452,1000.);
#57=PLANE('',#345);
#58=PLANE('',#346);
#59=PLANE('',#351);
#60=PLANE('',#355);
#61=PLANE('',#358);
#62=PLANE('',#360);
#63=PLANE('',#361);
#64=PLANE('',#362);
#65=PLANE('',#363);
#66=PLANE('',#364);
#67=PLANE('',#365);
#68=PLANE('',#366);
#69=CONICAL_SURFACE('',#338,4.,0.785398163397448);
#70=CONICAL_SURFACE('',#340,4.,0.785398163397448);
#71=CONICAL_SURFACE('',#348,15.,0.785398163397448);
#72=CONICAL_SURFACE('',#349,16.,0.785398163397448);
#73=CONICAL_SURFACE('',#353,12.8,0.26179938779915);
#74=CONICAL_SURFACE('',#356,3.233,0.785398163397447);
#75=CONICAL_SURFACE('',#359,4.,1.30899693899575);
#76=B_SPLINE_CURVE_WITH_KNOTS('',3,(#459,#460,#461,#462,#463,#464,#465,
#466,#467),.UNSPECIFIED.,.F.,.F.,(4,1,1,1,1,1,4),(0.0219257888223161,0.0244168035709168,
0.0256623109452171,0.0269078183195174,0.0281533256938177,0.029398833068118,
0.0318898478167186),.UNSPECIFIED.);
#77=B_SPLINE_CURVE_WITH_KNOTS('',3,(#470,#471,#472,#473),.UNSPECIFIED.,
 .F.,.F.,(4,4),(0.0179532805909332,0.0199335150577559),.UNSPECIFIED.);
#78=B_SPLINE_CURVE_WITH_KNOTS('',3,(#475,#476,#477,#478,#479,#480,#481,
#482,#483),.UNSPECIFIED.,.F.,.F.,(4,1,1,1,1,1,4),(0.00999334841290011,0.0124844961000344,
0.0137300699436015,0.0149756437871687,0.0162212176307358,0.017466791474303,
0.0199579391614372),.UNSPECIFIED.);
#79=B_SPLINE_CURVE_WITH_KNOTS('',3,(#485,#486,#487,#488),.UNSPECIFIED.,
 .F.,.F.,(4,4),(0.0071653528834198,0.00914840590560599),.UNSPECIFIED.);
#80=B_SPLINE_CURVE_WITH_KNOTS('',3,(#492,#493,#494,#495,#496,#497,#498,
#499,#500,#501,#502,#503,#504,#505,#506,#507,#508,#509,#510),
 .UNSPECIFIED.,.T.,.F.,(1,1,1,1,1,1,1,1,1,1,1,1,1,1,1,1,1,1,1,1,1,1,1),
(-0.00394615189478217,-0.00263076792985478,-0.00131538396492739,0.,0.00131538396492739,
0.00263076792985478,0.00394615189478217,0.00526153585970956,0.00657691982463695,
0.00789230378956434,0.00920768775449173,0.0105230717194191,0.0118384556843465,
0.0131538396492739,0.0144692236142013,0.0157846075791287,0.0170999915440561,
0.0184153755089835,0.0197307594739108,0.0210461434388382,0.0223615274037656,
0.023676911368693,0.0249922953336204),.UNSPECIFIED.);
#81=ORIENTED_EDGE('',*,*,#151,.F.);
#82=ORIENTED_EDGE('',*,*,#152,.F.);
#83=ORIENTED_EDGE('',*,*,#153,.F.);
#84=ORIENTED_EDGE('',*,*,#154,.F.);
#85=ORIENTED_EDGE('',*,*,#155,.F.);
#86=ORIENTED_EDGE('',*,*,#156,.T.);
#87=ORIENTED_EDGE('',*,*,#157,.T.);
#88=ORIENTED_EDGE('',*,*,#158,.T.);
#89=ORIENTED_EDGE('',*,*,#159,.T.);
#90=ORIENTED_EDGE('',*,*,#154,.T.);
#91=ORIENTED_EDGE('',*,*,#152,.T.);
#92=ORIENTED_EDGE('',*,*,#160,.T.);
#93=ORIENTED_EDGE('',*,*,#161,.F.);
#94=ORIENTED_EDGE('',*,*,#157,.F.);
#95=ORIENTED_EDGE('',*,*,#162,.T.);
#96=ORIENTED_EDGE('',*,*,#162,.F.);
#97=ORIENTED_EDGE('',*,*,#163,.F.);
#98=ORIENTED_EDGE('',*,*,#161,.T.);
#99=ORIENTED_EDGE('',*,*,#156,.F.);
#100=ORIENTED_EDGE('',*,*,#163,.T.);
#101=ORIENTED_EDGE('',*,*,#164,.F.);
#102=ORIENTED_EDGE('',*,*,#151,.T.);
#103=ORIENTED_EDGE('',*,*,#165,.F.);
#104=ORIENTED_EDGE('',*,*,#164,.T.);
#105=ORIENTED_EDGE('',*,*,#166,.F.);
#106=ORIENTED_EDGE('',*,*,#165,.T.);
#107=ORIENTED_EDGE('',*,*,#166,.T.);
#108=ORIENTED_EDGE('',*,*,#159,.F.);
#109=ORIENTED_EDGE('',*,*,#153,.T.);
#110=ORIENTED_EDGE('',*,*,#160,.F.);
#111=ORIENTED_EDGE('',*,*,#155,.T.);
#112=ORIENTED_EDGE('',*,*,#167,.T.);
#113=ORIENTED_EDGE('',*,*,#167,.F.);
#114=ORIENTED_EDGE('',*,*,#168,.F.);
#115=ORIENTED_EDGE('',*,*,#169,.F.);
#116=ORIENTED_EDGE('',*,*,#170,.F.);
#117=ORIENTED_EDGE('',*,*,#171,.F.);
#118=ORIENTED_EDGE('',*,*,#172,.F.);
#119=ORIENTED_EDGE('',*,*,#173,.T.);
#120=ORIENTED_EDGE('',*,*,#158,.F.);
#121=ORIENTED_EDGE('',*,*,#170,.T.);
#122=ORIENTED_EDGE('',*,*,#174,.F.);
#123=ORIENTED_EDGE('',*,*,#175,.F.);
#124=ORIENTED_EDGE('',*,*,#176,.T.);
#125=ORIENTED_EDGE('',*,*,#169,.T.);
#126=ORIENTED_EDGE('',*,*,#177,.F.);
#127=ORIENTED_EDGE('',*,*,#178,.F.);
#128=ORIENTED_EDGE('',*,*,#174,.T.);
#129=ORIENTED_EDGE('',*,*,#168,.T.);
#130=ORIENTED_EDGE('',*,*,#179,.F.);
#131=ORIENTED_EDGE('',*,*,#180,.F.);
#132=ORIENTED_EDGE('',*,*,#177,.T.);
#133=ORIENTED_EDGE('',*,*,#179,.T.);
#134=ORIENTED_EDGE('',*,*,#173,.F.);
#135=ORIENTED_EDGE('',*,*,#181,.F.);
#136=ORIENTED_EDGE('',*,*,#182,.F.);
#137=ORIENTED_EDGE('',*,*,#172,.T.);
#138=ORIENTED_EDGE('',*,*,#183,.F.);
#139=ORIENTED_EDGE('',*,*,#184,.F.);
#140=ORIENTED_EDGE('',*,*,#181,.T.);
#141=ORIENTED_EDGE('',*,*,#171,.T.);
#142=ORIENTED_EDGE('',*,*,#176,.F.);
#143=ORIENTED_EDGE('',*,*,#185,.F.);
#144=ORIENTED_EDGE('',*,*,#183,.T.);
#145=ORIENTED_EDGE('',*,*,#175,.T.);
#146=ORIENTED_EDGE('',*,*,#178,.T.);
#147=ORIENTED_EDGE('',*,*,#180,.T.);
#148=ORIENTED_EDGE('',*,*,#182,.T.);
#149=ORIENTED_EDGE('',*,*,#184,.T.);
#150=ORIENTED_EDGE('',*,*,#185,.T.);
#151=EDGE_CURVE('',#186,#186,#214,.T.);
#152=EDGE_CURVE('',#187,#188,#76,.T.);
#153=EDGE_CURVE('',#189,#187,#77,.T.);
#154=EDGE_CURVE('',#190,#189,#78,.T.);
#155=EDGE_CURVE('',#188,#190,#79,.T.);
#156=EDGE_CURVE('',#191,#191,#215,.T.);
#157=EDGE_CURVE('',#192,#192,#80,.T.);
#158=EDGE_CURVE('',#193,#193,#216,.T.);
#159=EDGE_CURVE('',#189,#190,#217,.T.);
#160=EDGE_CURVE('',#188,#187,#218,.T.);
#161=EDGE_CURVE('',#194,#194,#219,.T.);
#162=EDGE_CURVE('',#195,#195,#220,.T.);
#163=EDGE_CURVE('',#196,#196,#221,.T.);
#164=EDGE_CURVE('',#197,#197,#222,.T.);
#165=EDGE_CURVE('',#198,#198,#223,.T.);
#166=EDGE_CURVE('',#199,#199,#224,.T.);
#167=EDGE_CURVE('',#200,#200,#225,.T.);
#168=EDGE_CURVE('',#201,#202,#21,.T.);
#169=EDGE_CURVE('',#203,#201,#22,.T.);
#170=EDGE_CURVE('',#204,#203,#23,.T.);
#171=EDGE_CURVE('',#205,#204,#24,.T.);
#172=EDGE_CURVE('',#206,#205,#25,.T.);
#173=EDGE_CURVE('',#206,#202,#26,.T.);
#174=EDGE_CURVE('',#208,#203,#27,.T.);
#175=EDGE_CURVE('',#209,#208,#28,.T.);
#176=EDGE_CURVE('',#209,#204,#29,.T.);
#177=EDGE_CURVE('',#210,#201,#30,.T.);
#178=EDGE_CURVE('',#208,#210,#31,.T.);
#179=EDGE_CURVE('',#211,#202,#32,.T.);
#180=EDGE_CURVE('',#210,#211,#33,.T.);
#181=EDGE_CURVE('',#212,#206,#34,.T.);
#182=EDGE_CURVE('',#211,#212,#35,.T.);
#183=EDGE_CURVE('',#213,#205,#36,.T.);
#184=EDGE_CURVE('',#212,#213,#37,.T.);
#185=EDGE_CURVE('',#213,#209,#38,.T.);
#186=VERTEX_POINT('',#458);
#187=VERTEX_POINT('',#468);
#188=VERTEX_POINT('',#469);
#189=VERTEX_POINT('',#474);
#190=VERTEX_POINT('',#484);
#191=VERTEX_POINT('',#490);
#192=VERTEX_POINT('',#511);
#193=VERTEX_POINT('',#513);
#194=VERTEX_POINT('',#520);
#195=VERTEX_POINT('',#522);
#196=VERTEX_POINT('',#526);
#197=VERTEX_POINT('',#530);
#198=VERTEX_POINT('',#533);
#199=VERTEX_POINT('',#536);
#200=VERTEX_POINT('',#540);
#201=VERTEX_POINT('',#543);
#202=VERTEX_POINT('',#544);
#203=VERTEX_POINT('',#546);
#204=VERTEX_POINT('',#548);
#205=VERTEX_POINT('',#550);
#206=VERTEX_POINT('',#552);
#207=VERTEX_POINT('',#555);
#208=VERTEX_POINT('',#558);
#209=VERTEX_POINT('',#560);
#210=VERTEX_POINT('',#564);
#211=VERTEX_POINT('',#568);
#212=VERTEX_POINT('',#572);
#213=VERTEX_POINT('',#576);
#214=CIRCLE('',#334,16.);
#215=CIRCLE('',#335,16.);
#216=CIRCLE('',#337,3.3235);
#217=CIRCLE('',#339,3.6165);
#218=CIRCLE('',#341,3.6165);
#219=CIRCLE('',#343,7.5);
#220=CIRCLE('',#344,7.5);
#221=CIRCLE('',#347,15.);
#222=CIRCLE('',#350,15.);
#223=CIRCLE('',#352,12.8);
#224=CIRCLE('',#354,11.9961524227066);
#225=CIRCLE('',#357,3.233);
#226=EDGE_LOOP('',(#81));
#227=EDGE_LOOP('',(#82,#83,#84,#85));
#228=EDGE_LOOP('',(#86));
#229=EDGE_LOOP('',(#87));
#230=EDGE_LOOP('',(#88));
#231=EDGE_LOOP('',(#89,#90));
#232=EDGE_LOOP('',(#91,#92));
#233=EDGE_LOOP('',(#93));
#234=EDGE_LOOP('',(#94));
#235=EDGE_LOOP('',(#95));
#236=EDGE_LOOP('',(#96));
#237=EDGE_LOOP('',(#97));
#238=EDGE_LOOP('',(#98));
#239=EDGE_LOOP('',(#99));
#240=EDGE_LOOP('',(#100));
#241=EDGE_LOOP('',(#101));
#242=EDGE_LOOP('',(#102));
#243=EDGE_LOOP('',(#103));
#244=EDGE_LOOP('',(#104));
#245=EDGE_LOOP('',(#105));
#246=EDGE_LOOP('',(#106));
#247=EDGE_LOOP('',(#107));
#248=EDGE_LOOP('',(#108,#109,#110,#111));
#249=EDGE_LOOP('',(#112));
#250=EDGE_LOOP('',(#113));
#251=EDGE_LOOP('',(#114,#115,#116,#117,#118,#119));
#252=EDGE_LOOP('',(#120));
#253=EDGE_LOOP('',(#121,#122,#123,#124));
#254=EDGE_LOOP('',(#125,#126,#127,#128));
#255=EDGE_LOOP('',(#129,#130,#131,#132));
#256=EDGE_LOOP('',(#133,#134,#135,#136));
#257=EDGE_LOOP('',(#137,#138,#139,#140));
#258=EDGE_LOOP('',(#141,#142,#143,#144));
#259=EDGE_LOOP('',(#145,#146,#147,#148,#149,#150));
#260=FACE_BOUND('',#226,.T.);
#261=FACE_BOUND('',#227,.T.);
#262=FACE_BOUND('',#228,.T.);
#263=FACE_BOUND('',#229,.T.);
#264=FACE_BOUND('',#230,.T.);
#265=FACE_BOUND('',#231,.T.);
#266=FACE_BOUND('',#232,.T.);
#267=FACE_BOUND('',#233,.T.);
#268=FACE_BOUND('',#234,.T.);
#269=FACE_BOUND('',#235,.T.);
#270=FACE_BOUND('',#236,.T.);
#271=FACE_BOUND('',#237,.T.);
#272=FACE_BOUND('',#238,.T.);
#273=FACE_BOUND('',#239,.T.);
#274=FACE_BOUND('',#240,.T.);
#275=FACE_BOUND('',#241,.T.);
#276=FACE_BOUND('',#242,.T.);
#277=FACE_BOUND('',#243,.T.);
#278=FACE_BOUND('',#244,.T.);
#279=FACE_BOUND('',#245,.T.);
#280=FACE_BOUND('',#246,.T.);
#281=FACE_BOUND('',#247,.T.);
#282=FACE_BOUND('',#248,.T.);
#283=FACE_BOUND('',#249,.T.);
#284=FACE_BOUND('',#250,.T.);
#285=FACE_BOUND('',#251,.T.);
#286=FACE_BOUND('',#20,.T.);
#287=FACE_BOUND('',#252,.T.);
#288=FACE_BOUND('',#253,.T.);
#289=FACE_BOUND('',#254,.T.);
#290=FACE_BOUND('',#255,.T.);
#291=FACE_BOUND('',#256,.T.);
#292=FACE_BOUND('',#257,.T.);
#293=FACE_BOUND('',#258,.T.);
#294=FACE_BOUND('',#259,.T.);
#295=CYLINDRICAL_SURFACE('',#333,16.);
#296=CYLINDRICAL_SURFACE('',#336,3.3235);
#297=CYLINDRICAL_SURFACE('',#342,7.5);
#298=ADVANCED_FACE('',(#260,#261,#262),#295,.T.);
#299=ADVANCED_FACE('',(#263,#264),#296,.F.);
#300=ADVANCED_FACE('',(#265),#69,.F.);
#301=ADVANCED_FACE('',(#266),#70,.F.);
#302=ADVANCED_FACE('',(#267,#268,#269),#297,.F.);
#303=ADVANCED_FACE('',(#270),#57,.F.);
#304=ADVANCED_FACE('',(#271,#272),#58,.F.);
#305=ADVANCED_FACE('',(#273,#274),#71,.T.);
#306=ADVANCED_FACE('',(#275,#276),#72,.T.);
#307=ADVANCED_FACE('',(#277,#278),#59,.F.);
#308=ADVANCED_FACE('',(#279,#280),#73,.T.);
#309=ADVANCED_FACE('',(#281),#60,.F.);
#310=ADVANCED_FACE('',(#282,#283),#74,.T.);
#311=ADVANCED_FACE('',(#284,#285),#61,.F.);
#312=ADVANCED_FACE('',(#286,#287),#75,.T.);
#313=ADVANCED_FACE('',(#288),#62,.F.);
#314=ADVANCED_FACE('',(#289),#63,.F.);
#315=ADVANCED_FACE('',(#290),#64,.F.);
#316=ADVANCED_FACE('',(#291),#65,.F.);
#317=ADVANCED_FACE('',(#292),#66,.F.);
#318=ADVANCED_FACE('',(#293),#67,.F.);
#319=ADVANCED_FACE('',(#294),#68,.T.);
#320=CLOSED_SHELL('',(#298,#299,#300,#301,#302,#303,#304,#305,#306,#307,
#308,#309,#310,#311,#312,#313,#314,#315,#316,#317,#318,#319));
#321=STYLED_ITEM('',(#322),#329);
#322=PRESENTATION_STYLE_ASSIGNMENT((#323));
#323=SURFACE_STYLE_USAGE(.BOTH.,#324);
#324=SURFACE_SIDE_STYLE('',(#325));
#325=SURFACE_STYLE_FILL_AREA(#326);
#326=FILL_AREA_STYLE('',(#327));
#327=FILL_AREA_STYLE_COLOUR('',#328);
#328=COLOUR_RGB('',0.689999997615814,0.689999997615814,0.689999997615814);
#329=MANIFOLD_SOLID_BREP('11137 YSRP-32',#320);
#330=SHAPE_DEFINITION_REPRESENTATION(#587,#331);
#331=SHAPE_REPRESENTATION('11137 YSRP-32',(#332),#582);
#332=AXIS2_PLACEMENT_3D('',#455,#367,#368);
#333=AXIS2_PLACEMENT_3D('',#456,#369,#370);
#334=AXIS2_PLACEMENT_3D('',#457,#371,#372);
#335=AXIS2_PLACEMENT_3D('',#489,#373,#374);
#336=AXIS2_PLACEMENT_3D('',#491,#375,#376);
#337=AXIS2_PLACEMENT_3D('',#512,#377,#378);
#338=AXIS2_PLACEMENT_3D('',#514,#379,#380);
#339=AXIS2_PLACEMENT_3D('',#515,#381,#382);
#340=AXIS2_PLACEMENT_3D('',#516,#383,#384);
#341=AXIS2_PLACEMENT_3D('',#517,#385,#386);
#342=AXIS2_PLACEMENT_3D('',#518,#387,#388);
#343=AXIS2_PLACEMENT_3D('',#519,#389,#390);
#344=AXIS2_PLACEMENT_3D('',#521,#391,#392);
#345=AXIS2_PLACEMENT_3D('',#523,#393,#394);
#346=AXIS2_PLACEMENT_3D('',#524,#395,#396);
#347=AXIS2_PLACEMENT_3D('',#525,#397,#398);
#348=AXIS2_PLACEMENT_3D('',#527,#399,#400);
#349=AXIS2_PLACEMENT_3D('',#528,#401,#402);
#350=AXIS2_PLACEMENT_3D('',#529,#403,#404);
#351=AXIS2_PLACEMENT_3D('',#531,#405,#406);
#352=AXIS2_PLACEMENT_3D('',#532,#407,#408);
#353=AXIS2_PLACEMENT_3D('',#534,#409,#410);
#354=AXIS2_PLACEMENT_3D('',#535,#411,#412);
#355=AXIS2_PLACEMENT_3D('',#537,#413,#414);
#356=AXIS2_PLACEMENT_3D('',#538,#415,#416);
#357=AXIS2_PLACEMENT_3D('',#539,#417,#418);
#358=AXIS2_PLACEMENT_3D('',#541,#419,#420);
#359=AXIS2_PLACEMENT_3D('',#554,#427,#428);
#360=AXIS2_PLACEMENT_3D('',#556,#429,#430);
#361=AXIS2_PLACEMENT_3D('',#562,#434,#435);
#362=AXIS2_PLACEMENT_3D('',#566,#438,#439);
#363=AXIS2_PLACEMENT_3D('',#570,#442,#443);
#364=AXIS2_PLACEMENT_3D('',#574,#446,#447);
#365=AXIS2_PLACEMENT_3D('',#578,#450,#451);
#366=AXIS2_PLACEMENT_3D('',#580,#453,#454);
#367=DIRECTION('',(0.,0.,1.));
#368=DIRECTION('',(1.,0.,0.));
#369=DIRECTION('',(1.,0.,0.));
#370=DIRECTION('',(0.,0.,-1.));
#371=DIRECTION('',(1.,0.,0.));
#372=DIRECTION('',(0.,0.,-1.));
#373=DIRECTION('',(1.,0.,0.));
#374=DIRECTION('',(0.,0.,-1.));
#375=DIRECTION('',(0.,-1.,0.));
#376=DIRECTION('',(0.,0.,-1.));
#377=DIRECTION('',(0.,1.,0.));
#378=DIRECTION('',(0.,0.,1.));
#379=DIRECTION('',(0.,1.,0.));
#380=DIRECTION('',(0.,0.,1.));
#381=DIRECTION('',(0.,-1.,0.));
#382=DIRECTION('',(0.,0.,-1.));
#383=DIRECTION('',(0.,1.,0.));
#384=DIRECTION('',(0.,0.,1.));
#385=DIRECTION('',(0.,-1.,0.));
#386=DIRECTION('',(0.,0.,-1.));
#387=DIRECTION('',(1.,0.,0.));
#388=DIRECTION('',(0.,0.,-1.));
#389=DIRECTION('',(1.,0.,0.));
#390=DIRECTION('',(0.,0.,-1.));
#391=DIRECTION('',(1.,0.,0.));
#392=DIRECTION('',(0.,0.,-1.));
#393=DIRECTION('',(1.,0.,0.));
#394=DIRECTION('',(0.,0.,-1.));
#395=DIRECTION('',(1.,0.,0.));
#396=DIRECTION('',(0.,0.,-1.));
#397=DIRECTION('',(1.,0.,0.));
#398=DIRECTION('',(0.,0.,-1.));
#399=DIRECTION('',(1.,0.,0.));
#400=DIRECTION('',(0.,0.,-1.));
#401=DIRECTION('',(-1.,0.,0.));
#402=DIRECTION('',(0.,0.,1.));
#403=DIRECTION('',(1.,0.,0.));
#404=DIRECTION('',(0.,0.,-1.));
#405=DIRECTION('',(-1.,0.,0.));
#406=DIRECTION('',(0.,0.,1.));
#407=DIRECTION('',(1.,0.,0.));
#408=DIRECTION('',(0.,0.,-1.));
#409=DIRECTION('',(-1.,0.,0.));
#410=DIRECTION('',(0.,0.,1.));
#411=DIRECTION('',(1.,0.,0.));
#412=DIRECTION('',(0.,0.,-1.));
#413=DIRECTION('',(-1.,0.,0.));
#414=DIRECTION('',(0.,0.,1.));
#415=DIRECTION('',(0.,-1.,0.));
#416=DIRECTION('',(0.,0.,-1.));
#417=DIRECTION('',(0.,-1.,0.));
#418=DIRECTION('',(0.,0.,-1.));
#419=DIRECTION('',(0.,-1.,0.));
#420=DIRECTION('',(0.,0.,-1.));
#421=DIRECTION('',(0.866025403784439,0.,-0.5));
#422=DIRECTION('',(0.866025403784439,0.,0.5));
#423=DIRECTION('',(0.,0.,1.));
#424=DIRECTION('',(-0.866025403784439,0.,0.5));
#425=DIRECTION('',(-0.866025403784439,0.,-0.5));
#426=DIRECTION('',(0.,0.,1.));
#427=DIRECTION('',(0.,1.,0.));
#428=DIRECTION('',(0.,0.,1.));
#429=DIRECTION('',(-1.,0.,0.));
#430=DIRECTION('',(0.,0.,1.));
#431=DIRECTION('',(0.,1.,0.));
#432=DIRECTION('',(0.,0.,1.));
#433=DIRECTION('',(0.,1.,0.));
#434=DIRECTION('',(-0.5,0.,0.866025403784439));
#435=DIRECTION('',(0.866025403784439,0.,0.5));
#436=DIRECTION('',(0.,1.,0.));
#437=DIRECTION('',(0.866025403784439,0.,0.5));
#438=DIRECTION('',(0.5,0.,0.866025403784439));
#439=DIRECTION('',(0.866025403784439,0.,-0.5));
#440=DIRECTION('',(0.,1.,0.));
#441=DIRECTION('',(0.866025403784439,0.,-0.5));
#442=DIRECTION('',(1.,0.,0.));
#443=DIRECTION('',(0.,0.,-1.));
#444=DIRECTION('',(0.,1.,0.));
#445=DIRECTION('',(0.,0.,-1.));
#446=DIRECTION('',(0.5,0.,-0.866025403784439));
#447=DIRECTION('',(-0.866025403784439,0.,-0.5));
#448=DIRECTION('',(0.,1.,0.));
#449=DIRECTION('',(-0.866025403784439,0.,-0.5));
#450=DIRECTION('',(-0.5,0.,-0.866025403784439));
#451=DIRECTION('',(-0.866025403784439,0.,0.5));
#452=DIRECTION('',(-0.866025403784439,0.,0.5));
#453=DIRECTION('',(0.,1.,0.));
#454=DIRECTION('',(0.,0.,1.));
#455=CARTESIAN_POINT('',(0.,0.,0.));
#456=CARTESIAN_POINT('',(26.,0.,0.));
#457=CARTESIAN_POINT('',(22.,0.,0.));
#458=CARTESIAN_POINT('',(22.,0.,-16.));
#459=CARTESIAN_POINT('',(6.5231967956645,15.6165,-3.48208669478517));
#460=CARTESIAN_POINT('',(5.71636868367614,15.6574770854853,-3.29831221942847));
#461=CARTESIAN_POINT('',(4.57308355489454,15.7996493160114,-2.66366704055553));
#462=CARTESIAN_POINT('',(3.66674108756239,15.9658967020372,-1.24774016861455));
#463=CARTESIAN_POINT('',(3.41707869946712,16.0169756136149,-0.00291901463215663));
#464=CARTESIAN_POINT('',(3.66494907260582,15.9661998518958,1.24561808999974));
#465=CARTESIAN_POINT('',(4.57639156800933,15.7992253291168,2.66650373426842));
#466=CARTESIAN_POINT('',(5.71122816304564,15.6577381616057,3.29714134242518));
#467=CARTESIAN_POINT('',(6.52319679566451,15.6165,3.48208669478517));
#468=CARTESIAN_POINT('',(6.52319679566451,15.6165,-3.48208669478517));
#469=CARTESIAN_POINT('',(6.52319679566451,15.6165,3.48208669478517));
#470=CARTESIAN_POINT('',(8.47680320433382,15.6165,-3.48208669478569));
#471=CARTESIAN_POINT('',(7.84909449539775,15.565404343477,-3.71124104676883));
#472=CARTESIAN_POINT('',(7.15115063253038,15.5653843899979,-3.7113305343465));
#473=CARTESIAN_POINT('',(6.52319679566451,15.6165,-3.48208669478517));
#474=CARTESIAN_POINT('',(8.47680320433382,15.6165,-3.48208669478569));
#475=CARTESIAN_POINT('',(8.47680320433549,15.6165,3.48208669478517));
#476=CARTESIAN_POINT('',(9.28560278776453,15.6575772123308,3.29786316947061));
#477=CARTESIAN_POINT('',(10.4192074192297,15.7986009893728,2.66830935204335));
#478=CARTESIAN_POINT('',(11.3290574921273,15.9650286693555,1.2582055953373));
#479=CARTESIAN_POINT('',(11.5834340589584,16.0170834823689,0.0119767500953184));
#480=CARTESIAN_POINT('',(11.3370969871301,15.9666155442328,-1.24133195629784));
#481=CARTESIAN_POINT('',(10.4268162653774,15.7996533606935,-2.66435708791023));
#482=CARTESIAN_POINT('',(9.2877500142589,15.657686265402,-3.29737408707953));
#483=CARTESIAN_POINT('',(8.4768032043338,15.6164999999999,-3.48208669478556));
#484=CARTESIAN_POINT('',(8.47680320433549,15.6165,3.48208669478517));
#485=CARTESIAN_POINT('',(6.52319679566451,15.6165,3.48208669478517));
#486=CARTESIAN_POINT('',(7.1408814770587,15.5662203019954,3.70758162719573));
#487=CARTESIAN_POINT('',(7.85453164123287,15.5658469285995,3.70925613623242));
#488=CARTESIAN_POINT('',(8.47680320433549,15.6165,3.48208669478517));
#489=CARTESIAN_POINT('',(1.,0.,0.));
#490=CARTESIAN_POINT('',(1.,0.,-16.));
#491=CARTESIAN_POINT('',(7.5,6.5,0.));
#492=CARTESIAN_POINT('',(6.1791153296676,6.81642428548775,-3.14364826185275));
#493=CARTESIAN_POINT('',(7.50000175517919,6.6769088787614,-3.41343060297408));
#494=CARTESIAN_POINT('',(8.82087764961563,6.8164473727782,-3.14362932625094));
#495=CARTESIAN_POINT('',(9.90748820567723,7.12441753328418,-2.41020393932891));
#496=CARTESIAN_POINT('',(10.6425537671888,7.41736969407102,-1.32299981894634));
#497=CARTESIAN_POINT('',(10.9132451821913,7.54100533839065,-0.00600642563950242));
#498=CARTESIAN_POINT('',(10.6454455752181,7.41860012124204,1.31883330421064));
#499=CARTESIAN_POINT('',(9.90807150106435,7.12453746956412,2.40982868191911));
#500=CARTESIAN_POINT('',(8.82260139327919,6.81702948397984,3.14235164214741));
#501=CARTESIAN_POINT('',(7.50658583191037,6.67709640027776,3.41303178249111));
#502=CARTESIAN_POINT('',(6.18469062719309,6.81510611055858,3.14649286076897));
#503=CARTESIAN_POINT('',(5.09307829774998,7.12409414490261,2.41142247905272));
#504=CARTESIAN_POINT('',(4.35713062313231,7.41752534344978,1.32276931160131));
#505=CARTESIAN_POINT('',(4.08695137228502,7.54091328410963,0.00451833880524867));
#506=CARTESIAN_POINT('',(4.35407801076115,7.41881526172658,-1.31710968083913));
#507=CARTESIAN_POINT('',(5.09129024525302,7.12474327285385,-2.40960722970989));
#508=CARTESIAN_POINT('',(6.1791153296676,6.81642428548775,-3.14364826185275));
#509=CARTESIAN_POINT('',(7.50000175517919,6.6769088787614,-3.41343060297408));
#510=CARTESIAN_POINT('',(8.82087764961563,6.8164473727782,-3.14362932625094));
#511=CARTESIAN_POINT('',(7.5,6.72341786221859,-3.3235));
#512=CARTESIAN_POINT('',(7.5,7.81873237132035,0.));
#513=CARTESIAN_POINT('',(7.5,7.81873237132035,3.3235));
#514=CARTESIAN_POINT('',(7.5,16.,0.));
#515=CARTESIAN_POINT('',(7.5,15.6165,0.));
#516=CARTESIAN_POINT('',(7.5,16.,0.));
#517=CARTESIAN_POINT('',(7.5,15.6165,0.));
#518=CARTESIAN_POINT('',(26.,0.,0.));
#519=CARTESIAN_POINT('',(0.,0.,0.));
#520=CARTESIAN_POINT('',(0.,0.,-7.5));
#521=CARTESIAN_POINT('',(15.,0.,0.));
#522=CARTESIAN_POINT('',(15.,0.,-7.5));
#523=CARTESIAN_POINT('',(15.,0.,0.));
#524=CARTESIAN_POINT('',(8.67361737988404E-16,7.5,0.));
#525=CARTESIAN_POINT('',(0.,0.,0.));
#526=CARTESIAN_POINT('',(0.,0.,-15.));
#527=CARTESIAN_POINT('',(0.,0.,0.));
#528=CARTESIAN_POINT('',(22.,0.,0.));
#529=CARTESIAN_POINT('',(23.,0.,0.));
#530=CARTESIAN_POINT('',(23.,0.,-15.));
#531=CARTESIAN_POINT('',(23.,15.,0.));
#532=CARTESIAN_POINT('',(23.,0.,0.));
#533=CARTESIAN_POINT('',(23.,0.,-12.8));
#534=CARTESIAN_POINT('',(23.,0.,0.));
#535=CARTESIAN_POINT('',(26.,0.,0.));
#536=CARTESIAN_POINT('',(26.,0.,-11.9961524227066));
#537=CARTESIAN_POINT('',(26.,11.9961524227066,0.));
#538=CARTESIAN_POINT('',(7.5,16.,0.));
#539=CARTESIAN_POINT('',(7.5,16.,0.));
#540=CARTESIAN_POINT('',(7.5,16.,-3.233));
#541=CARTESIAN_POINT('',(7.5,16.,0.));
#542=CARTESIAN_POINT('',(7.5,16.,2.3094010767585));
#543=CARTESIAN_POINT('',(7.5,16.,2.3094010767585));
#544=CARTESIAN_POINT('',(9.5,16.,1.15470053837925));
#545=CARTESIAN_POINT('',(5.5,16.,1.15470053837925));
#546=CARTESIAN_POINT('',(5.5,16.,1.15470053837925));
#547=CARTESIAN_POINT('',(5.5,16.,-1.15470053837925));
#548=CARTESIAN_POINT('',(5.5,16.,-1.15470053837925));
#549=CARTESIAN_POINT('',(7.5,16.,-2.3094010767585));
#550=CARTESIAN_POINT('',(7.5,16.,-2.3094010767585));
#551=CARTESIAN_POINT('',(9.5,16.,-1.15470053837925));
#552=CARTESIAN_POINT('',(9.5,16.,-1.15470053837925));
#553=CARTESIAN_POINT('',(9.5,16.,0.));
#554=CARTESIAN_POINT('',(7.5,8.,0.));
#555=CARTESIAN_POINT('',(7.5,6.92820323027551,0.));
#556=CARTESIAN_POINT('',(5.5,12.,-1.15470053837925));
#557=CARTESIAN_POINT('',(5.5,12.,1.15470053837925));
#558=CARTESIAN_POINT('',(5.5,12.,1.15470053837925));
#559=CARTESIAN_POINT('',(5.5,12.,-1.15470053837925));
#560=CARTESIAN_POINT('',(5.5,12.,-1.15470053837925));
#561=CARTESIAN_POINT('',(5.5,12.,-1.15470053837925));
#562=CARTESIAN_POINT('',(5.5,12.,1.15470053837925));
#563=CARTESIAN_POINT('',(7.5,12.,2.3094010767585));
#564=CARTESIAN_POINT('',(7.5,12.,2.3094010767585));
#565=CARTESIAN_POINT('',(5.5,12.,1.15470053837925));
#566=CARTESIAN_POINT('',(7.5,12.,2.3094010767585));
#567=CARTESIAN_POINT('',(9.5,12.,1.15470053837925));
#568=CARTESIAN_POINT('',(9.5,12.,1.15470053837925));
#569=CARTESIAN_POINT('',(7.5,12.,2.3094010767585));
#570=CARTESIAN_POINT('',(9.5,12.,1.15470053837925));
#571=CARTESIAN_POINT('',(9.5,12.,-1.15470053837925));
#572=CARTESIAN_POINT('',(9.5,12.,-1.15470053837925));
#573=CARTESIAN_POINT('',(9.5,12.,1.15470053837925));
#574=CARTESIAN_POINT('',(9.5,12.,-1.15470053837925));
#575=CARTESIAN_POINT('',(7.5,12.,-2.3094010767585));
#576=CARTESIAN_POINT('',(7.5,12.,-2.3094010767585));
#577=CARTESIAN_POINT('',(9.5,12.,-1.15470053837925));
#578=CARTESIAN_POINT('',(7.5,12.,-2.3094010767585));
#579=CARTESIAN_POINT('',(7.5,12.,-2.3094010767585));
#580=CARTESIAN_POINT('',(0.,12.,0.));
#581=MECHANICAL_DESIGN_GEOMETRIC_PRESENTATION_REPRESENTATION('',(#321),
#582);
#582=(
GEOMETRIC_REPRESENTATION_CONTEXT(3)
GLOBAL_UNCERTAINTY_ASSIGNED_CONTEXT((#583))
GLOBAL_UNIT_ASSIGNED_CONTEXT((#586,#585,#584))
REPRESENTATION_CONTEXT('11137 YSRP-32','TOP_LEVEL_ASSEMBLY_PART')
);
#583=UNCERTAINTY_MEASURE_WITH_UNIT(LENGTH_MEASURE(0.005),#586,
'DISTANCE_ACCURACY_VALUE','Maximum Tolerance applied to model');
#584=(
NAMED_UNIT(*)
SI_UNIT($,.STERADIAN.)
SOLID_ANGLE_UNIT()
);
#585=(
NAMED_UNIT(*)
PLANE_ANGLE_UNIT()
SI_UNIT($,.RADIAN.)
);
#586=(
LENGTH_UNIT()
NAMED_UNIT(*)
SI_UNIT(.MILLI.,.METRE.)
);
#587=PRODUCT_DEFINITION_SHAPE('','',#588);
#588=PRODUCT_DEFINITION('','',#590,#589);
#589=PRODUCT_DEFINITION_CONTEXT('',#596,'design');
#590=PRODUCT_DEFINITION_FORMATION_WITH_SPECIFIED_SOURCE('','',#592,
 .NOT_KNOWN.);
#591=PRODUCT_RELATED_PRODUCT_CATEGORY('','',(#592));
#592=PRODUCT('11137 YSRP-32','11137 YSRP-32','11137 YSRP-32',(#594));
#593=PRODUCT_CATEGORY('','');
#594=PRODUCT_CONTEXT('',#596,'mechanical');
#595=APPLICATION_PROTOCOL_DEFINITION('international standard',
'automotive_design',2010,#596);
#596=APPLICATION_CONTEXT(
'core data for automotive mechanical design processes');
ENDSEC;
END-ISO-10303-21;
