ISO-10303-21;
HEADER;
/* Generated by software containing ST-Developer
 * from STEP Tools, Inc. (www.steptools.com) 
 */
/* OPTION: using custom renumber hook */

FILE_DESCRIPTION(
/* description */ ('STEP AP214'),
/* implementation_level */ '2;1');

FILE_NAME(
/* name */ '117945_KSV6-PK-6',
/* time_stamp */ '2024-08-23T09:25:27+02:00',
/* author */ ('License CC BY-ND 4.0'),
/* organization */ ('CADENAS'),
/* preprocessor_version */ 'ST-DEVELOPER v19.3',
/* originating_system */ 'PARTsolutions',
/* authorisation */ '  ');

FILE_SCHEMA (('AUTOMOTIVE_DESIGN {1 0 10303 214 3 1 1}'));
ENDSEC;

DATA;
#10=PROPERTY_DEFINITION_REPRESENTATION(#14,#12);
#11=PROPERTY_DEFINITION_REPRESENTATION(#15,#13);
#12=REPRESENTATION('',(#16),#677);
#13=REPRESENTATION('',(#17),#677);
#14=PROPERTY_DEFINITION('pmi validation property','',#682);
#15=PROPERTY_DEFINITION('pmi validation property','',#682);
#16=VALUE_REPRESENTATION_ITEM('number of annotations',COUNT_MEASURE(0.));
#17=VALUE_REPRESENTATION_ITEM('number of views',COUNT_MEASURE(0.));
#18=SHAPE_REPRESENTATION_RELATIONSHIP('','',#383,#19);
#19=ADVANCED_BREP_SHAPE_REPRESENTATION('',(#381),#677);
#20=CONICAL_SURFACE('',#398,3.07412295168564,0.349065850398867);
#21=CONICAL_SURFACE('',#410,3.33397459621556,0.523598775598297);
#22=CONICAL_SURFACE('',#432,3.91046719124859,1.51843644923507);
#23=CONICAL_SURFACE('',#440,3.41453280875141,1.51843644923507);
#24=CONICAL_SURFACE('',#446,4.1,0.261799387799149);
#25=TOROIDAL_SURFACE('',#392,2.80000000000001,0.249999999999993);
#26=TOROIDAL_SURFACE('',#396,3.44999999999988,0.399999999999884);
#27=TOROIDAL_SURFACE('',#400,3.10000000000012,0.399999999999885);
#28=TOROIDAL_SURFACE('',#408,4.2,1.);
#29=TOROIDAL_SURFACE('',#420,4.8,0.199999999999997);
#30=TOROIDAL_SURFACE('',#424,4.8,0.200000000000001);
#31=TOROIDAL_SURFACE('',#430,3.9,0.199999999999999);
#32=TOROIDAL_SURFACE('',#434,3.425,0.2);
#33=TOROIDAL_SURFACE('',#438,3.425,0.2);
#34=TOROIDAL_SURFACE('',#442,3.9,0.2);
#35=TOROIDAL_SURFACE('',#448,3.73217524845931,0.2);
#36=CYLINDRICAL_SURFACE('',#388,2.65);
#37=CYLINDRICAL_SURFACE('',#394,3.05);
#38=CYLINDRICAL_SURFACE('',#402,3.5);
#39=CYLINDRICAL_SURFACE('',#406,3.2);
#40=CYLINDRICAL_SURFACE('',#412,4.1);
#41=CYLINDRICAL_SURFACE('',#416,3.75);
#42=CYLINDRICAL_SURFACE('',#422,5.);
#43=CYLINDRICAL_SURFACE('',#428,4.1);
#44=CYLINDRICAL_SURFACE('',#436,3.225);
#45=CYLINDRICAL_SURFACE('',#444,4.1);
#46=ORIENTED_EDGE('',*,*,#110,.T.);
#47=ORIENTED_EDGE('',*,*,#111,.F.);
#48=ORIENTED_EDGE('',*,*,#112,.T.);
#49=ORIENTED_EDGE('',*,*,#110,.F.);
#50=ORIENTED_EDGE('',*,*,#113,.T.);
#51=ORIENTED_EDGE('',*,*,#112,.F.);
#52=ORIENTED_EDGE('',*,*,#114,.T.);
#53=ORIENTED_EDGE('',*,*,#113,.F.);
#54=ORIENTED_EDGE('',*,*,#115,.T.);
#55=ORIENTED_EDGE('',*,*,#114,.F.);
#56=ORIENTED_EDGE('',*,*,#115,.F.);
#57=ORIENTED_EDGE('',*,*,#116,.T.);
#58=ORIENTED_EDGE('',*,*,#117,.T.);
#59=ORIENTED_EDGE('',*,*,#116,.F.);
#60=ORIENTED_EDGE('',*,*,#118,.T.);
#61=ORIENTED_EDGE('',*,*,#117,.F.);
#62=ORIENTED_EDGE('',*,*,#119,.T.);
#63=ORIENTED_EDGE('',*,*,#118,.F.);
#64=ORIENTED_EDGE('',*,*,#120,.T.);
#65=ORIENTED_EDGE('',*,*,#119,.F.);
#66=ORIENTED_EDGE('',*,*,#121,.T.);
#67=ORIENTED_EDGE('',*,*,#120,.F.);
#68=ORIENTED_EDGE('',*,*,#121,.F.);
#69=ORIENTED_EDGE('',*,*,#122,.T.);
#70=ORIENTED_EDGE('',*,*,#123,.T.);
#71=ORIENTED_EDGE('',*,*,#122,.F.);
#72=ORIENTED_EDGE('',*,*,#124,.T.);
#73=ORIENTED_EDGE('',*,*,#123,.F.);
#74=ORIENTED_EDGE('',*,*,#125,.T.);
#75=ORIENTED_EDGE('',*,*,#124,.F.);
#76=ORIENTED_EDGE('',*,*,#126,.T.);
#77=ORIENTED_EDGE('',*,*,#125,.F.);
#78=ORIENTED_EDGE('',*,*,#127,.T.);
#79=ORIENTED_EDGE('',*,*,#126,.F.);
#80=ORIENTED_EDGE('',*,*,#128,.T.);
#81=ORIENTED_EDGE('',*,*,#127,.F.);
#82=ORIENTED_EDGE('',*,*,#129,.T.);
#83=ORIENTED_EDGE('',*,*,#128,.F.);
#84=ORIENTED_EDGE('',*,*,#130,.T.);
#85=ORIENTED_EDGE('',*,*,#129,.F.);
#86=ORIENTED_EDGE('',*,*,#131,.T.);
#87=ORIENTED_EDGE('',*,*,#130,.F.);
#88=ORIENTED_EDGE('',*,*,#132,.T.);
#89=ORIENTED_EDGE('',*,*,#131,.F.);
#90=ORIENTED_EDGE('',*,*,#133,.T.);
#91=ORIENTED_EDGE('',*,*,#132,.F.);
#92=ORIENTED_EDGE('',*,*,#134,.T.);
#93=ORIENTED_EDGE('',*,*,#133,.F.);
#94=ORIENTED_EDGE('',*,*,#134,.F.);
#95=ORIENTED_EDGE('',*,*,#135,.T.);
#96=ORIENTED_EDGE('',*,*,#136,.T.);
#97=ORIENTED_EDGE('',*,*,#135,.F.);
#98=ORIENTED_EDGE('',*,*,#136,.F.);
#99=ORIENTED_EDGE('',*,*,#137,.T.);
#100=ORIENTED_EDGE('',*,*,#138,.T.);
#101=ORIENTED_EDGE('',*,*,#137,.F.);
#102=ORIENTED_EDGE('',*,*,#139,.T.);
#103=ORIENTED_EDGE('',*,*,#138,.F.);
#104=ORIENTED_EDGE('',*,*,#140,.T.);
#105=ORIENTED_EDGE('',*,*,#139,.F.);
#106=ORIENTED_EDGE('',*,*,#141,.T.);
#107=ORIENTED_EDGE('',*,*,#140,.F.);
#108=ORIENTED_EDGE('',*,*,#111,.T.);
#109=ORIENTED_EDGE('',*,*,#141,.F.);
#110=EDGE_CURVE('',#142,#142,#174,.T.);
#111=EDGE_CURVE('',#143,#143,#175,.T.);
#112=EDGE_CURVE('',#144,#144,#176,.T.);
#113=EDGE_CURVE('',#145,#145,#177,.T.);
#114=EDGE_CURVE('',#146,#146,#178,.T.);
#115=EDGE_CURVE('',#147,#147,#179,.T.);
#116=EDGE_CURVE('',#148,#148,#180,.T.);
#117=EDGE_CURVE('',#149,#149,#181,.T.);
#118=EDGE_CURVE('',#150,#150,#182,.T.);
#119=EDGE_CURVE('',#151,#151,#183,.T.);
#120=EDGE_CURVE('',#152,#152,#184,.T.);
#121=EDGE_CURVE('',#153,#153,#185,.T.);
#122=EDGE_CURVE('',#154,#154,#186,.T.);
#123=EDGE_CURVE('',#155,#155,#187,.T.);
#124=EDGE_CURVE('',#156,#156,#188,.T.);
#125=EDGE_CURVE('',#157,#157,#189,.T.);
#126=EDGE_CURVE('',#158,#158,#190,.T.);
#127=EDGE_CURVE('',#159,#159,#191,.T.);
#128=EDGE_CURVE('',#160,#160,#192,.T.);
#129=EDGE_CURVE('',#161,#161,#193,.T.);
#130=EDGE_CURVE('',#162,#162,#194,.T.);
#131=EDGE_CURVE('',#163,#163,#195,.T.);
#132=EDGE_CURVE('',#164,#164,#196,.T.);
#133=EDGE_CURVE('',#165,#165,#197,.T.);
#134=EDGE_CURVE('',#166,#166,#198,.T.);
#135=EDGE_CURVE('',#167,#167,#199,.T.);
#136=EDGE_CURVE('',#168,#168,#200,.T.);
#137=EDGE_CURVE('',#169,#169,#201,.T.);
#138=EDGE_CURVE('',#170,#170,#202,.T.);
#139=EDGE_CURVE('',#171,#171,#203,.T.);
#140=EDGE_CURVE('',#172,#172,#204,.T.);
#141=EDGE_CURVE('',#173,#173,#205,.T.);
#142=VERTEX_POINT('',#582);
#143=VERTEX_POINT('',#584);
#144=VERTEX_POINT('',#587);
#145=VERTEX_POINT('',#590);
#146=VERTEX_POINT('',#593);
#147=VERTEX_POINT('',#596);
#148=VERTEX_POINT('',#599);
#149=VERTEX_POINT('',#602);
#150=VERTEX_POINT('',#605);
#151=VERTEX_POINT('',#608);
#152=VERTEX_POINT('',#611);
#153=VERTEX_POINT('',#614);
#154=VERTEX_POINT('',#617);
#155=VERTEX_POINT('',#620);
#156=VERTEX_POINT('',#623);
#157=VERTEX_POINT('',#626);
#158=VERTEX_POINT('',#629);
#159=VERTEX_POINT('',#632);
#160=VERTEX_POINT('',#635);
#161=VERTEX_POINT('',#638);
#162=VERTEX_POINT('',#641);
#163=VERTEX_POINT('',#644);
#164=VERTEX_POINT('',#647);
#165=VERTEX_POINT('',#650);
#166=VERTEX_POINT('',#653);
#167=VERTEX_POINT('',#656);
#168=VERTEX_POINT('',#659);
#169=VERTEX_POINT('',#662);
#170=VERTEX_POINT('',#665);
#171=VERTEX_POINT('',#668);
#172=VERTEX_POINT('',#671);
#173=VERTEX_POINT('',#674);
#174=CIRCLE('',#386,2.65);
#175=CIRCLE('',#387,3.73217524845931);
#176=CIRCLE('',#389,2.65);
#177=CIRCLE('',#391,2.8);
#178=CIRCLE('',#393,3.05);
#179=CIRCLE('',#395,3.05);
#180=CIRCLE('',#397,3.07412295168564);
#181=CIRCLE('',#399,3.47587704831436);
#182=CIRCLE('',#401,3.5);
#183=CIRCLE('',#403,3.5);
#184=CIRCLE('',#405,3.2);
#185=CIRCLE('',#407,3.2);
#186=CIRCLE('',#409,3.33397459621556);
#187=CIRCLE('',#411,4.1);
#188=CIRCLE('',#413,4.1);
#189=CIRCLE('',#415,3.75);
#190=CIRCLE('',#417,3.75);
#191=CIRCLE('',#419,4.8);
#192=CIRCLE('',#421,5.);
#193=CIRCLE('',#423,5.);
#194=CIRCLE('',#425,4.8);
#195=CIRCLE('',#427,4.1);
#196=CIRCLE('',#429,4.1);
#197=CIRCLE('',#431,3.91046719124859);
#198=CIRCLE('',#433,3.41453280875141);
#199=CIRCLE('',#435,3.225);
#200=CIRCLE('',#437,3.225);
#201=CIRCLE('',#439,3.41453280875141);
#202=CIRCLE('',#441,3.91046719124859);
#203=CIRCLE('',#443,4.1);
#204=CIRCLE('',#445,4.1);
#205=CIRCLE('',#447,3.92536041371712);
#206=EDGE_LOOP('',(#46));
#207=EDGE_LOOP('',(#47));
#208=EDGE_LOOP('',(#48));
#209=EDGE_LOOP('',(#49));
#210=EDGE_LOOP('',(#50));
#211=EDGE_LOOP('',(#51));
#212=EDGE_LOOP('',(#52));
#213=EDGE_LOOP('',(#53));
#214=EDGE_LOOP('',(#54));
#215=EDGE_LOOP('',(#55));
#216=EDGE_LOOP('',(#56));
#217=EDGE_LOOP('',(#57));
#218=EDGE_LOOP('',(#58));
#219=EDGE_LOOP('',(#59));
#220=EDGE_LOOP('',(#60));
#221=EDGE_LOOP('',(#61));
#222=EDGE_LOOP('',(#62));
#223=EDGE_LOOP('',(#63));
#224=EDGE_LOOP('',(#64));
#225=EDGE_LOOP('',(#65));
#226=EDGE_LOOP('',(#66));
#227=EDGE_LOOP('',(#67));
#228=EDGE_LOOP('',(#68));
#229=EDGE_LOOP('',(#69));
#230=EDGE_LOOP('',(#70));
#231=EDGE_LOOP('',(#71));
#232=EDGE_LOOP('',(#72));
#233=EDGE_LOOP('',(#73));
#234=EDGE_LOOP('',(#74));
#235=EDGE_LOOP('',(#75));
#236=EDGE_LOOP('',(#76));
#237=EDGE_LOOP('',(#77));
#238=EDGE_LOOP('',(#78));
#239=EDGE_LOOP('',(#79));
#240=EDGE_LOOP('',(#80));
#241=EDGE_LOOP('',(#81));
#242=EDGE_LOOP('',(#82));
#243=EDGE_LOOP('',(#83));
#244=EDGE_LOOP('',(#84));
#245=EDGE_LOOP('',(#85));
#246=EDGE_LOOP('',(#86));
#247=EDGE_LOOP('',(#87));
#248=EDGE_LOOP('',(#88));
#249=EDGE_LOOP('',(#89));
#250=EDGE_LOOP('',(#90));
#251=EDGE_LOOP('',(#91));
#252=EDGE_LOOP('',(#92));
#253=EDGE_LOOP('',(#93));
#254=EDGE_LOOP('',(#94));
#255=EDGE_LOOP('',(#95));
#256=EDGE_LOOP('',(#96));
#257=EDGE_LOOP('',(#97));
#258=EDGE_LOOP('',(#98));
#259=EDGE_LOOP('',(#99));
#260=EDGE_LOOP('',(#100));
#261=EDGE_LOOP('',(#101));
#262=EDGE_LOOP('',(#102));
#263=EDGE_LOOP('',(#103));
#264=EDGE_LOOP('',(#104));
#265=EDGE_LOOP('',(#105));
#266=EDGE_LOOP('',(#106));
#267=EDGE_LOOP('',(#107));
#268=EDGE_LOOP('',(#108));
#269=EDGE_LOOP('',(#109));
#270=FACE_BOUND('',#206,.T.);
#271=FACE_BOUND('',#207,.T.);
#272=FACE_BOUND('',#208,.T.);
#273=FACE_BOUND('',#209,.T.);
#274=FACE_BOUND('',#210,.T.);
#275=FACE_BOUND('',#211,.T.);
#276=FACE_BOUND('',#212,.T.);
#277=FACE_BOUND('',#213,.T.);
#278=FACE_BOUND('',#214,.T.);
#279=FACE_BOUND('',#215,.T.);
#280=FACE_BOUND('',#216,.T.);
#281=FACE_BOUND('',#217,.T.);
#282=FACE_BOUND('',#218,.T.);
#283=FACE_BOUND('',#219,.T.);
#284=FACE_BOUND('',#220,.T.);
#285=FACE_BOUND('',#221,.T.);
#286=FACE_BOUND('',#222,.T.);
#287=FACE_BOUND('',#223,.T.);
#288=FACE_BOUND('',#224,.T.);
#289=FACE_BOUND('',#225,.T.);
#290=FACE_BOUND('',#226,.T.);
#291=FACE_BOUND('',#227,.T.);
#292=FACE_BOUND('',#228,.T.);
#293=FACE_BOUND('',#229,.T.);
#294=FACE_BOUND('',#230,.T.);
#295=FACE_BOUND('',#231,.T.);
#296=FACE_BOUND('',#232,.T.);
#297=FACE_BOUND('',#233,.T.);
#298=FACE_BOUND('',#234,.T.);
#299=FACE_BOUND('',#235,.T.);
#300=FACE_BOUND('',#236,.T.);
#301=FACE_BOUND('',#237,.T.);
#302=FACE_BOUND('',#238,.T.);
#303=FACE_BOUND('',#239,.T.);
#304=FACE_BOUND('',#240,.T.);
#305=FACE_BOUND('',#241,.T.);
#306=FACE_BOUND('',#242,.T.);
#307=FACE_BOUND('',#243,.T.);
#308=FACE_BOUND('',#244,.T.);
#309=FACE_BOUND('',#245,.T.);
#310=FACE_BOUND('',#246,.T.);
#311=FACE_BOUND('',#247,.T.);
#312=FACE_BOUND('',#248,.T.);
#313=FACE_BOUND('',#249,.T.);
#314=FACE_BOUND('',#250,.T.);
#315=FACE_BOUND('',#251,.T.);
#316=FACE_BOUND('',#252,.T.);
#317=FACE_BOUND('',#253,.T.);
#318=FACE_BOUND('',#254,.T.);
#319=FACE_BOUND('',#255,.T.);
#320=FACE_BOUND('',#256,.T.);
#321=FACE_BOUND('',#257,.T.);
#322=FACE_BOUND('',#258,.T.);
#323=FACE_BOUND('',#259,.T.);
#324=FACE_BOUND('',#260,.T.);
#325=FACE_BOUND('',#261,.T.);
#326=FACE_BOUND('',#262,.T.);
#327=FACE_BOUND('',#263,.T.);
#328=FACE_BOUND('',#264,.T.);
#329=FACE_BOUND('',#265,.T.);
#330=FACE_BOUND('',#266,.T.);
#331=FACE_BOUND('',#267,.T.);
#332=FACE_BOUND('',#268,.T.);
#333=FACE_BOUND('',#269,.T.);
#334=PLANE('',#385);
#335=PLANE('',#390);
#336=PLANE('',#404);
#337=PLANE('',#414);
#338=PLANE('',#418);
#339=PLANE('',#426);
#340=ADVANCED_FACE('',(#270,#271),#334,.T.);
#341=ADVANCED_FACE('',(#272,#273),#36,.F.);
#342=ADVANCED_FACE('',(#274,#275),#335,.T.);
#343=ADVANCED_FACE('',(#276,#277),#25,.T.);
#344=ADVANCED_FACE('',(#278,#279),#37,.T.);
#345=ADVANCED_FACE('',(#280,#281),#26,.F.);
#346=ADVANCED_FACE('',(#282,#283),#20,.T.);
#347=ADVANCED_FACE('',(#284,#285),#27,.T.);
#348=ADVANCED_FACE('',(#286,#287),#38,.T.);
#349=ADVANCED_FACE('',(#288,#289),#336,.T.);
#350=ADVANCED_FACE('',(#290,#291),#39,.T.);
#351=ADVANCED_FACE('',(#292,#293),#28,.F.);
#352=ADVANCED_FACE('',(#294,#295),#21,.T.);
#353=ADVANCED_FACE('',(#296,#297),#40,.T.);
#354=ADVANCED_FACE('',(#298,#299),#337,.T.);
#355=ADVANCED_FACE('',(#300,#301),#41,.T.);
#356=ADVANCED_FACE('',(#302,#303),#338,.T.);
#357=ADVANCED_FACE('',(#304,#305),#29,.T.);
#358=ADVANCED_FACE('',(#306,#307),#42,.T.);
#359=ADVANCED_FACE('',(#308,#309),#30,.T.);
#360=ADVANCED_FACE('',(#310,#311),#339,.T.);
#361=ADVANCED_FACE('',(#312,#313),#43,.T.);
#362=ADVANCED_FACE('',(#314,#315),#31,.T.);
#363=ADVANCED_FACE('',(#316,#317),#22,.T.);
#364=ADVANCED_FACE('',(#318,#319),#32,.F.);
#365=ADVANCED_FACE('',(#320,#321),#44,.T.);
#366=ADVANCED_FACE('',(#322,#323),#33,.F.);
#367=ADVANCED_FACE('',(#324,#325),#23,.T.);
#368=ADVANCED_FACE('',(#326,#327),#34,.T.);
#369=ADVANCED_FACE('',(#328,#329),#45,.T.);
#370=ADVANCED_FACE('',(#330,#331),#24,.T.);
#371=ADVANCED_FACE('',(#332,#333),#35,.T.);
#372=CLOSED_SHELL('',(#340,#341,#342,#343,#344,#345,#346,#347,#348,#349,
#350,#351,#352,#353,#354,#355,#356,#357,#358,#359,#360,#361,#362,#363,#364,
#365,#366,#367,#368,#369,#370,#371));
#373=STYLED_ITEM('',(#374),#381);
#374=PRESENTATION_STYLE_ASSIGNMENT((#375));
#375=SURFACE_STYLE_USAGE(.BOTH.,#376);
#376=SURFACE_SIDE_STYLE('',(#377));
#377=SURFACE_STYLE_FILL_AREA(#378);
#378=FILL_AREA_STYLE('',(#379));
#379=FILL_AREA_STYLE_COLOUR('',#380);
#380=COLOUR_RGB('',0.689999997615814,0.689999997615814,0.689999997615814);
#381=MANIFOLD_SOLID_BREP('117945 KSV6-PK-6',#372);
#382=SHAPE_DEFINITION_REPRESENTATION(#682,#383);
#383=SHAPE_REPRESENTATION('117945 KSV6-PK-6',(#384),#677);
#384=AXIS2_PLACEMENT_3D('',#579,#449,#450);
#385=AXIS2_PLACEMENT_3D('',#580,#451,#452);
#386=AXIS2_PLACEMENT_3D('',#581,#453,#454);
#387=AXIS2_PLACEMENT_3D('',#583,#455,#456);
#388=AXIS2_PLACEMENT_3D('',#585,#457,#458);
#389=AXIS2_PLACEMENT_3D('',#586,#459,#460);
#390=AXIS2_PLACEMENT_3D('',#588,#461,#462);
#391=AXIS2_PLACEMENT_3D('',#589,#463,#464);
#392=AXIS2_PLACEMENT_3D('',#591,#465,#466);
#393=AXIS2_PLACEMENT_3D('',#592,#467,#468);
#394=AXIS2_PLACEMENT_3D('',#594,#469,#470);
#395=AXIS2_PLACEMENT_3D('',#595,#471,#472);
#396=AXIS2_PLACEMENT_3D('',#597,#473,#474);
#397=AXIS2_PLACEMENT_3D('',#598,#475,#476);
#398=AXIS2_PLACEMENT_3D('',#600,#477,#478);
#399=AXIS2_PLACEMENT_3D('',#601,#479,#480);
#400=AXIS2_PLACEMENT_3D('',#603,#481,#482);
#401=AXIS2_PLACEMENT_3D('',#604,#483,#484);
#402=AXIS2_PLACEMENT_3D('',#606,#485,#486);
#403=AXIS2_PLACEMENT_3D('',#607,#487,#488);
#404=AXIS2_PLACEMENT_3D('',#609,#489,#490);
#405=AXIS2_PLACEMENT_3D('',#610,#491,#492);
#406=AXIS2_PLACEMENT_3D('',#612,#493,#494);
#407=AXIS2_PLACEMENT_3D('',#613,#495,#496);
#408=AXIS2_PLACEMENT_3D('',#615,#497,#498);
#409=AXIS2_PLACEMENT_3D('',#616,#499,#500);
#410=AXIS2_PLACEMENT_3D('',#618,#501,#502);
#411=AXIS2_PLACEMENT_3D('',#619,#503,#504);
#412=AXIS2_PLACEMENT_3D('',#621,#505,#506);
#413=AXIS2_PLACEMENT_3D('',#622,#507,#508);
#414=AXIS2_PLACEMENT_3D('',#624,#509,#510);
#415=AXIS2_PLACEMENT_3D('',#625,#511,#512);
#416=AXIS2_PLACEMENT_3D('',#627,#513,#514);
#417=AXIS2_PLACEMENT_3D('',#628,#515,#516);
#418=AXIS2_PLACEMENT_3D('',#630,#517,#518);
#419=AXIS2_PLACEMENT_3D('',#631,#519,#520);
#420=AXIS2_PLACEMENT_3D('',#633,#521,#522);
#421=AXIS2_PLACEMENT_3D('',#634,#523,#524);
#422=AXIS2_PLACEMENT_3D('',#636,#525,#526);
#423=AXIS2_PLACEMENT_3D('',#637,#527,#528);
#424=AXIS2_PLACEMENT_3D('',#639,#529,#530);
#425=AXIS2_PLACEMENT_3D('',#640,#531,#532);
#426=AXIS2_PLACEMENT_3D('',#642,#533,#534);
#427=AXIS2_PLACEMENT_3D('',#643,#535,#536);
#428=AXIS2_PLACEMENT_3D('',#645,#537,#538);
#429=AXIS2_PLACEMENT_3D('',#646,#539,#540);
#430=AXIS2_PLACEMENT_3D('',#648,#541,#542);
#431=AXIS2_PLACEMENT_3D('',#649,#543,#544);
#432=AXIS2_PLACEMENT_3D('',#651,#545,#546);
#433=AXIS2_PLACEMENT_3D('',#652,#547,#548);
#434=AXIS2_PLACEMENT_3D('',#654,#549,#550);
#435=AXIS2_PLACEMENT_3D('',#655,#551,#552);
#436=AXIS2_PLACEMENT_3D('',#657,#553,#554);
#437=AXIS2_PLACEMENT_3D('',#658,#555,#556);
#438=AXIS2_PLACEMENT_3D('',#660,#557,#558);
#439=AXIS2_PLACEMENT_3D('',#661,#559,#560);
#440=AXIS2_PLACEMENT_3D('',#663,#561,#562);
#441=AXIS2_PLACEMENT_3D('',#664,#563,#564);
#442=AXIS2_PLACEMENT_3D('',#666,#565,#566);
#443=AXIS2_PLACEMENT_3D('',#667,#567,#568);
#444=AXIS2_PLACEMENT_3D('',#669,#569,#570);
#445=AXIS2_PLACEMENT_3D('',#670,#571,#572);
#446=AXIS2_PLACEMENT_3D('',#672,#573,#574);
#447=AXIS2_PLACEMENT_3D('',#673,#575,#576);
#448=AXIS2_PLACEMENT_3D('',#675,#577,#578);
#449=DIRECTION('',(0.,0.,1.));
#450=DIRECTION('',(1.,0.,0.));
#451=DIRECTION('',(0.,0.,1.));
#452=DIRECTION('',(1.,0.,0.));
#453=DIRECTION('',(0.,0.,-1.));
#454=DIRECTION('',(-1.,0.,0.));
#455=DIRECTION('',(0.,0.,-1.));
#456=DIRECTION('',(-1.,0.,0.));
#457=DIRECTION('',(0.,0.,-1.));
#458=DIRECTION('',(-1.,0.,0.));
#459=DIRECTION('',(0.,0.,-1.));
#460=DIRECTION('',(-1.,0.,0.));
#461=DIRECTION('',(0.,0.,-1.));
#462=DIRECTION('',(-1.,0.,0.));
#463=DIRECTION('',(0.,0.,-1.));
#464=DIRECTION('',(-1.,0.,0.));
#465=DIRECTION('',(0.,0.,-1.));
#466=DIRECTION('',(-1.,0.,0.));
#467=DIRECTION('',(0.,0.,-1.));
#468=DIRECTION('',(-1.,0.,0.));
#469=DIRECTION('',(0.,0.,-1.));
#470=DIRECTION('',(-1.,0.,0.));
#471=DIRECTION('',(0.,0.,-1.));
#472=DIRECTION('',(-1.,0.,0.));
#473=DIRECTION('',(0.,0.,-1.));
#474=DIRECTION('',(-1.,0.,0.));
#475=DIRECTION('',(0.,0.,-1.));
#476=DIRECTION('',(-1.,0.,0.));
#477=DIRECTION('',(0.,0.,1.));
#478=DIRECTION('',(1.,0.,0.));
#479=DIRECTION('',(0.,0.,-1.));
#480=DIRECTION('',(-1.,0.,0.));
#481=DIRECTION('',(0.,0.,-1.));
#482=DIRECTION('',(-1.,0.,0.));
#483=DIRECTION('',(0.,0.,-1.));
#484=DIRECTION('',(-1.,0.,0.));
#485=DIRECTION('',(0.,0.,-1.));
#486=DIRECTION('',(-1.,0.,0.));
#487=DIRECTION('',(0.,0.,-1.));
#488=DIRECTION('',(-1.,0.,0.));
#489=DIRECTION('',(0.,0.,1.));
#490=DIRECTION('',(1.,0.,0.));
#491=DIRECTION('',(0.,0.,-1.));
#492=DIRECTION('',(-1.,0.,0.));
#493=DIRECTION('',(0.,0.,-1.));
#494=DIRECTION('',(-1.,0.,0.));
#495=DIRECTION('',(0.,0.,-1.));
#496=DIRECTION('',(-1.,0.,0.));
#497=DIRECTION('',(0.,0.,-1.));
#498=DIRECTION('',(-1.,0.,0.));
#499=DIRECTION('',(0.,0.,-1.));
#500=DIRECTION('',(-1.,0.,0.));
#501=DIRECTION('',(0.,0.,1.));
#502=DIRECTION('',(1.,0.,0.));
#503=DIRECTION('',(0.,0.,-1.));
#504=DIRECTION('',(-1.,0.,0.));
#505=DIRECTION('',(0.,0.,-1.));
#506=DIRECTION('',(-1.,0.,0.));
#507=DIRECTION('',(0.,0.,-1.));
#508=DIRECTION('',(-1.,0.,0.));
#509=DIRECTION('',(0.,0.,1.));
#510=DIRECTION('',(1.,0.,0.));
#511=DIRECTION('',(0.,0.,-1.));
#512=DIRECTION('',(-1.,0.,0.));
#513=DIRECTION('',(0.,0.,-1.));
#514=DIRECTION('',(-1.,0.,0.));
#515=DIRECTION('',(0.,0.,-1.));
#516=DIRECTION('',(-1.,0.,0.));
#517=DIRECTION('',(0.,0.,-1.));
#518=DIRECTION('',(-1.,0.,0.));
#519=DIRECTION('',(0.,0.,-1.));
#520=DIRECTION('',(-1.,0.,0.));
#521=DIRECTION('',(0.,0.,-1.));
#522=DIRECTION('',(-1.,0.,0.));
#523=DIRECTION('',(0.,0.,-1.));
#524=DIRECTION('',(-1.,0.,0.));
#525=DIRECTION('',(0.,0.,-1.));
#526=DIRECTION('',(-1.,0.,0.));
#527=DIRECTION('',(0.,0.,-1.));
#528=DIRECTION('',(-1.,0.,0.));
#529=DIRECTION('',(0.,0.,-1.));
#530=DIRECTION('',(-1.,0.,0.));
#531=DIRECTION('',(0.,0.,-1.));
#532=DIRECTION('',(-1.,0.,0.));
#533=DIRECTION('',(0.,0.,1.));
#534=DIRECTION('',(1.,0.,0.));
#535=DIRECTION('',(0.,0.,-1.));
#536=DIRECTION('',(-1.,0.,0.));
#537=DIRECTION('',(0.,0.,-1.));
#538=DIRECTION('',(-1.,0.,0.));
#539=DIRECTION('',(0.,0.,-1.));
#540=DIRECTION('',(-1.,0.,0.));
#541=DIRECTION('',(0.,0.,-1.));
#542=DIRECTION('',(-1.,0.,0.));
#543=DIRECTION('',(0.,0.,-1.));
#544=DIRECTION('',(-1.,0.,0.));
#545=DIRECTION('',(0.,0.,-1.));
#546=DIRECTION('',(-1.,0.,0.));
#547=DIRECTION('',(0.,0.,-1.));
#548=DIRECTION('',(-1.,0.,0.));
#549=DIRECTION('',(0.,0.,-1.));
#550=DIRECTION('',(-1.,0.,0.));
#551=DIRECTION('',(0.,0.,-1.));
#552=DIRECTION('',(-1.,0.,0.));
#553=DIRECTION('',(0.,0.,-1.));
#554=DIRECTION('',(-1.,0.,0.));
#555=DIRECTION('',(0.,0.,-1.));
#556=DIRECTION('',(-1.,0.,0.));
#557=DIRECTION('',(0.,0.,-1.));
#558=DIRECTION('',(-1.,0.,0.));
#559=DIRECTION('',(0.,0.,-1.));
#560=DIRECTION('',(-1.,0.,0.));
#561=DIRECTION('',(0.,0.,1.));
#562=DIRECTION('',(1.,0.,0.));
#563=DIRECTION('',(0.,0.,-1.));
#564=DIRECTION('',(-1.,0.,0.));
#565=DIRECTION('',(0.,0.,-1.));
#566=DIRECTION('',(-1.,0.,0.));
#567=DIRECTION('',(0.,0.,-1.));
#568=DIRECTION('',(-1.,0.,0.));
#569=DIRECTION('',(0.,0.,-1.));
#570=DIRECTION('',(-1.,0.,0.));
#571=DIRECTION('',(0.,0.,-1.));
#572=DIRECTION('',(-1.,0.,0.));
#573=DIRECTION('',(0.,0.,-1.));
#574=DIRECTION('',(-1.,0.,0.));
#575=DIRECTION('',(0.,0.,-1.));
#576=DIRECTION('',(-1.,0.,0.));
#577=DIRECTION('',(0.,0.,-1.));
#578=DIRECTION('',(-1.,0.,0.));
#579=CARTESIAN_POINT('',(0.,0.,0.));
#580=CARTESIAN_POINT('',(0.,3.73217524845931,-1.35525271560688E-17));
#581=CARTESIAN_POINT('',(0.,0.,0.));
#582=CARTESIAN_POINT('',(-2.65,0.,0.));
#583=CARTESIAN_POINT('',(0.,0.,0.));
#584=CARTESIAN_POINT('',(-3.73217524845931,0.,0.));
#585=CARTESIAN_POINT('',(0.,0.,-35.1));
#586=CARTESIAN_POINT('',(0.,0.,-35.1));
#587=CARTESIAN_POINT('',(-2.65,0.,-35.1));
#588=CARTESIAN_POINT('',(0.,2.65,-35.1));
#589=CARTESIAN_POINT('',(0.,0.,-35.1));
#590=CARTESIAN_POINT('',(-2.8,0.,-35.1));
#591=CARTESIAN_POINT('',(0.,0.,-34.85));
#592=CARTESIAN_POINT('',(0.,0.,-34.85));
#593=CARTESIAN_POINT('',(-3.05,0.,-34.85));
#594=CARTESIAN_POINT('',(0.,0.,-35.1));
#595=CARTESIAN_POINT('',(0.,0.,-33.806895631038));
#596=CARTESIAN_POINT('',(-3.05,0.,-33.806895631038));
#597=CARTESIAN_POINT('',(0.,0.,-33.806895631038));
#598=CARTESIAN_POINT('',(0.,0.,-33.6700875737077));
#599=CARTESIAN_POINT('',(-3.07412295168564,0.,-33.6700875737077));
#600=CARTESIAN_POINT('',(0.,0.,-33.6700875737077));
#601=CARTESIAN_POINT('',(0.,0.,-32.5662772650469));
#602=CARTESIAN_POINT('',(-3.47587704831436,0.,-32.5662772650469));
#603=CARTESIAN_POINT('',(0.,0.,-32.4294692077166));
#604=CARTESIAN_POINT('',(0.,0.,-32.4294692077166));
#605=CARTESIAN_POINT('',(-3.5,0.,-32.4294692077166));
#606=CARTESIAN_POINT('',(0.,0.,-35.1));
#607=CARTESIAN_POINT('',(0.,0.,-32.3));
#608=CARTESIAN_POINT('',(-3.5,0.,-32.3));
#609=CARTESIAN_POINT('',(0.,3.5,-32.3));
#610=CARTESIAN_POINT('',(0.,0.,-32.3));
#611=CARTESIAN_POINT('',(-3.2,0.,-32.3));
#612=CARTESIAN_POINT('',(0.,0.,-35.1));
#613=CARTESIAN_POINT('',(0.,0.,-21.3679491924311));
#614=CARTESIAN_POINT('',(-3.2,0.,-21.3679491924311));
#615=CARTESIAN_POINT('',(0.,0.,-21.3679491924311));
#616=CARTESIAN_POINT('',(0.,0.,-20.8679491924311));
#617=CARTESIAN_POINT('',(-3.33397459621556,0.,-20.8679491924311));
#618=CARTESIAN_POINT('',(0.,0.,-20.8679491924311));
#619=CARTESIAN_POINT('',(0.,0.,-19.541154273188));
#620=CARTESIAN_POINT('',(-4.1,0.,-19.541154273188));
#621=CARTESIAN_POINT('',(0.,0.,-35.1));
#622=CARTESIAN_POINT('',(0.,0.,-18.5));
#623=CARTESIAN_POINT('',(-4.1,0.,-18.5));
#624=CARTESIAN_POINT('',(0.,4.1,-18.5));
#625=CARTESIAN_POINT('',(0.,0.,-18.5));
#626=CARTESIAN_POINT('',(-3.75,0.,-18.5));
#627=CARTESIAN_POINT('',(0.,0.,-35.1));
#628=CARTESIAN_POINT('',(0.,0.,-15.8));
#629=CARTESIAN_POINT('',(-3.75,0.,-15.8));
#630=CARTESIAN_POINT('',(0.,3.75,-15.8));
#631=CARTESIAN_POINT('',(0.,0.,-15.8));
#632=CARTESIAN_POINT('',(-4.8,0.,-15.8));
#633=CARTESIAN_POINT('',(0.,0.,-15.6));
#634=CARTESIAN_POINT('',(0.,0.,-15.6));
#635=CARTESIAN_POINT('',(-5.,0.,-15.6));
#636=CARTESIAN_POINT('',(0.,0.,-35.1));
#637=CARTESIAN_POINT('',(0.,0.,-9.7));
#638=CARTESIAN_POINT('',(-5.,0.,-9.7));
#639=CARTESIAN_POINT('',(0.,0.,-9.7));
#640=CARTESIAN_POINT('',(0.,0.,-9.5));
#641=CARTESIAN_POINT('',(-4.8,0.,-9.5));
#642=CARTESIAN_POINT('',(0.,4.8,-9.5));
#643=CARTESIAN_POINT('',(0.,0.,-9.5));
#644=CARTESIAN_POINT('',(-4.1,0.,-9.5));
#645=CARTESIAN_POINT('',(0.,0.,-35.1));
#646=CARTESIAN_POINT('',(0.,0.,-2.83564972021564));
#647=CARTESIAN_POINT('',(-4.1,0.,-2.83564972021564));
#648=CARTESIAN_POINT('',(0.,0.,-2.83564972021564));
#649=CARTESIAN_POINT('',(0.,0.,-2.63592381326472));
#650=CARTESIAN_POINT('',(-3.91046719124859,0.,-2.63592381326472));
#651=CARTESIAN_POINT('',(0.,0.,-2.63592381326472));
#652=CARTESIAN_POINT('',(0.,0.,-2.60993299360794));
#653=CARTESIAN_POINT('',(-3.41453280875141,0.,-2.60993299360794));
#654=CARTESIAN_POINT('',(0.,0.,-2.41020708665702));
#655=CARTESIAN_POINT('',(0.,0.,-2.41020708665703));
#656=CARTESIAN_POINT('',(-3.225,0.,-2.41020708665703));
#657=CARTESIAN_POINT('',(0.,0.,-35.1));
#658=CARTESIAN_POINT('',(0.,0.,-1.48979291334297));
#659=CARTESIAN_POINT('',(-3.225,0.,-1.48979291334297));
#660=CARTESIAN_POINT('',(0.,0.,-1.48979291334298));
#661=CARTESIAN_POINT('',(0.,0.,-1.29006700639206));
#662=CARTESIAN_POINT('',(-3.41453280875141,0.,-1.29006700639206));
#663=CARTESIAN_POINT('',(0.,0.,-1.29006700639206));
#664=CARTESIAN_POINT('',(0.,0.,-1.26407618673528));
#665=CARTESIAN_POINT('',(-3.91046719124859,0.,-1.26407618673528));
#666=CARTESIAN_POINT('',(0.,0.,-1.06435027978436));
#667=CARTESIAN_POINT('',(0.,0.,-1.06435027978436));
#668=CARTESIAN_POINT('',(-4.1,0.,-1.06435027978436));
#669=CARTESIAN_POINT('',(0.,0.,-35.1));
#670=CARTESIAN_POINT('',(0.,0.,-0.800000000000002));
#671=CARTESIAN_POINT('',(-4.1,0.,-0.800000000000002));
#672=CARTESIAN_POINT('',(0.,0.,-0.800000000000002));
#673=CARTESIAN_POINT('',(0.,0.,-0.148236190979499));
#674=CARTESIAN_POINT('',(-3.92536041371712,0.,-0.148236190979499));
#675=CARTESIAN_POINT('',(0.,0.,-0.2));
#676=MECHANICAL_DESIGN_GEOMETRIC_PRESENTATION_REPRESENTATION('',(#373),
#677);
#677=(
GEOMETRIC_REPRESENTATION_CONTEXT(3)
GLOBAL_UNCERTAINTY_ASSIGNED_CONTEXT((#678))
GLOBAL_UNIT_ASSIGNED_CONTEXT((#681,#680,#679))
REPRESENTATION_CONTEXT('117945 KSV6-PK-6','TOP_LEVEL_ASSEMBLY_PART')
);
#678=UNCERTAINTY_MEASURE_WITH_UNIT(LENGTH_MEASURE(0.005),#681,
'DISTANCE_ACCURACY_VALUE','Maximum Tolerance applied to model');
#679=(
NAMED_UNIT(*)
SI_UNIT($,.STERADIAN.)
SOLID_ANGLE_UNIT()
);
#680=(
NAMED_UNIT(*)
PLANE_ANGLE_UNIT()
SI_UNIT($,.RADIAN.)
);
#681=(
LENGTH_UNIT()
NAMED_UNIT(*)
SI_UNIT(.MILLI.,.METRE.)
);
#682=PRODUCT_DEFINITION_SHAPE('','',#683);
#683=PRODUCT_DEFINITION('','',#685,#684);
#684=PRODUCT_DEFINITION_CONTEXT('',#691,'design');
#685=PRODUCT_DEFINITION_FORMATION_WITH_SPECIFIED_SOURCE('','',#687,
 .NOT_KNOWN.);
#686=PRODUCT_RELATED_PRODUCT_CATEGORY('','',(#687));
#687=PRODUCT('117945 KSV6-PK-6','117945 KSV6-PK-6','117945 KSV6-PK-6',(#689));
#688=PRODUCT_CATEGORY('','');
#689=PRODUCT_CONTEXT('',#691,'mechanical');
#690=APPLICATION_PROTOCOL_DEFINITION('international standard',
'automotive_design',2010,#691);
#691=APPLICATION_CONTEXT(
'core data for automotive mechanical design processes');
ENDSEC;
END-ISO-10303-21;
