ISO-10303-21;
HEADER;
/* Generated by software containing ST-Developer
 * from STEP Tools, Inc. (www.steptools.com) 
 */
/* OPTION: using custom renumber hook */

FILE_DESCRIPTION(
/* description */ ('STEP AP214'),
/* implementation_level */ '2;1');

FILE_NAME(
/* name */ '12133_PU-13-SW',
/* time_stamp */ '2024-09-13T19:44:38+02:00',
/* author */ ('License CC BY-ND 4.0'),
/* organization */ ('CADENAS'),
/* preprocessor_version */ 'ST-DEVELOPER v19.3',
/* originating_system */ 'PARTsolutions',
/* authorisation */ '  ');

FILE_SCHEMA (('AUTOMOTIVE_DESIGN {1 0 10303 214 3 1 1}'));
ENDSEC;

DATA;
#10=PROPERTY_DEFINITION_REPRESENTATION(#14,#12);
#11=PROPERTY_DEFINITION_REPRESENTATION(#15,#13);
#12=REPRESENTATION('',(#16),#117);
#13=REPRESENTATION('',(#17),#117);
#14=PROPERTY_DEFINITION('pmi validation property','',#122);
#15=PROPERTY_DEFINITION('pmi validation property','',#122);
#16=VALUE_REPRESENTATION_ITEM('number of annotations',COUNT_MEASURE(0.));
#17=VALUE_REPRESENTATION_ITEM('number of views',COUNT_MEASURE(0.));
#18=SHAPE_REPRESENTATION_RELATIONSHIP('','',#75,#19);
#19=ADVANCED_BREP_SHAPE_REPRESENTATION('',(#73),#117);
#20=PLANE('',#83);
#21=PLANE('',#84);
#22=ELLIPSE('',#79,9.26309883354377,6.55);
#23=ELLIPSE('',#82,12.7279220613579,9.);
#24=ORIENTED_EDGE('',*,*,#32,.T.);
#25=ORIENTED_EDGE('',*,*,#33,.F.);
#26=ORIENTED_EDGE('',*,*,#34,.F.);
#27=ORIENTED_EDGE('',*,*,#35,.T.);
#28=ORIENTED_EDGE('',*,*,#32,.F.);
#29=ORIENTED_EDGE('',*,*,#34,.T.);
#30=ORIENTED_EDGE('',*,*,#35,.F.);
#31=ORIENTED_EDGE('',*,*,#33,.T.);
#32=EDGE_CURVE('',#36,#36,#40,.T.);
#33=EDGE_CURVE('',#37,#37,#22,.F.);
#34=EDGE_CURVE('',#38,#38,#41,.T.);
#35=EDGE_CURVE('',#39,#39,#23,.F.);
#36=VERTEX_POINT('',#106);
#37=VERTEX_POINT('',#108);
#38=VERTEX_POINT('',#111);
#39=VERTEX_POINT('',#113);
#40=CIRCLE('',#78,6.55);
#41=CIRCLE('',#81,9.);
#42=EDGE_LOOP('',(#24));
#43=EDGE_LOOP('',(#25));
#44=EDGE_LOOP('',(#26));
#45=EDGE_LOOP('',(#27));
#46=EDGE_LOOP('',(#28));
#47=EDGE_LOOP('',(#29));
#48=EDGE_LOOP('',(#30));
#49=EDGE_LOOP('',(#31));
#50=FACE_BOUND('',#42,.T.);
#51=FACE_BOUND('',#43,.T.);
#52=FACE_BOUND('',#44,.T.);
#53=FACE_BOUND('',#45,.T.);
#54=FACE_BOUND('',#46,.T.);
#55=FACE_BOUND('',#47,.T.);
#56=FACE_BOUND('',#48,.T.);
#57=FACE_BOUND('',#49,.T.);
#58=CYLINDRICAL_SURFACE('',#77,6.55);
#59=CYLINDRICAL_SURFACE('',#80,9.);
#60=ADVANCED_FACE('',(#50,#51),#58,.F.);
#61=ADVANCED_FACE('',(#52,#53),#59,.T.);
#62=ADVANCED_FACE('',(#54,#55),#20,.T.);
#63=ADVANCED_FACE('',(#56,#57),#21,.T.);
#64=CLOSED_SHELL('',(#60,#61,#62,#63));
#65=STYLED_ITEM('',(#66),#73);
#66=PRESENTATION_STYLE_ASSIGNMENT((#67));
#67=SURFACE_STYLE_USAGE(.BOTH.,#68);
#68=SURFACE_SIDE_STYLE('',(#69));
#69=SURFACE_STYLE_FILL_AREA(#70);
#70=FILL_AREA_STYLE('',(#71));
#71=FILL_AREA_STYLE_COLOUR('',#72);
#72=DRAUGHTING_PRE_DEFINED_COLOUR('black');
#73=MANIFOLD_SOLID_BREP('12133 PU-13-SW',#64);
#74=SHAPE_DEFINITION_REPRESENTATION(#122,#75);
#75=SHAPE_REPRESENTATION('12133 PU-13-SW',(#76),#117);
#76=AXIS2_PLACEMENT_3D('',#103,#85,#86);
#77=AXIS2_PLACEMENT_3D('',#104,#87,#88);
#78=AXIS2_PLACEMENT_3D('',#105,#89,#90);
#79=AXIS2_PLACEMENT_3D('',#107,#91,#92);
#80=AXIS2_PLACEMENT_3D('',#109,#93,#94);
#81=AXIS2_PLACEMENT_3D('',#110,#95,#96);
#82=AXIS2_PLACEMENT_3D('',#112,#97,#98);
#83=AXIS2_PLACEMENT_3D('',#114,#99,#100);
#84=AXIS2_PLACEMENT_3D('',#115,#101,#102);
#85=DIRECTION('',(0.,0.,1.));
#86=DIRECTION('',(1.,0.,0.));
#87=DIRECTION('',(0.,0.,1.));
#88=DIRECTION('',(1.,0.,0.));
#89=DIRECTION('',(0.,0.,1.));
#90=DIRECTION('',(1.,0.,0.));
#91=DIRECTION('',(0.,0.707106781186547,-0.707106781186547));
#92=DIRECTION('',(0.,0.707106781186548,0.707106781186548));
#93=DIRECTION('',(0.,0.,1.));
#94=DIRECTION('',(1.,0.,0.));
#95=DIRECTION('',(0.,0.,1.));
#96=DIRECTION('',(1.,0.,0.));
#97=DIRECTION('',(0.,0.707106781186547,-0.707106781186547));
#98=DIRECTION('',(0.,0.707106781186548,0.707106781186548));
#99=DIRECTION('',(0.,0.,1.));
#100=DIRECTION('',(1.,0.,0.));
#101=DIRECTION('',(0.,0.707106781186547,-0.707106781186547));
#102=DIRECTION('',(0.,0.707106781186548,0.707106781186548));
#103=CARTESIAN_POINT('',(0.,0.,0.));
#104=CARTESIAN_POINT('',(0.,0.,-80.));
#105=CARTESIAN_POINT('',(0.,0.,0.));
#106=CARTESIAN_POINT('',(6.55,0.,0.));
#107=CARTESIAN_POINT('',(0.,0.,-71.));
#108=CARTESIAN_POINT('',(0.,6.55,-64.45));
#109=CARTESIAN_POINT('',(0.,0.,-80.));
#110=CARTESIAN_POINT('',(0.,0.,0.));
#111=CARTESIAN_POINT('',(9.,0.,0.));
#112=CARTESIAN_POINT('',(0.,0.,-71.));
#113=CARTESIAN_POINT('',(0.,9.,-62.));
#114=CARTESIAN_POINT('',(0.,0.,0.));
#115=CARTESIAN_POINT('',(9.,9.,-62.));
#116=MECHANICAL_DESIGN_GEOMETRIC_PRESENTATION_REPRESENTATION('',(#65),#117);
#117=(
GEOMETRIC_REPRESENTATION_CONTEXT(3)
GLOBAL_UNCERTAINTY_ASSIGNED_CONTEXT((#118))
GLOBAL_UNIT_ASSIGNED_CONTEXT((#121,#120,#119))
REPRESENTATION_CONTEXT('12133 PU-13-SW','TOP_LEVEL_ASSEMBLY_PART')
);
#118=UNCERTAINTY_MEASURE_WITH_UNIT(LENGTH_MEASURE(0.005),#121,
'DISTANCE_ACCURACY_VALUE','Maximum Tolerance applied to model');
#119=(
NAMED_UNIT(*)
SI_UNIT($,.STERADIAN.)
SOLID_ANGLE_UNIT()
);
#120=(
NAMED_UNIT(*)
PLANE_ANGLE_UNIT()
SI_UNIT($,.RADIAN.)
);
#121=(
LENGTH_UNIT()
NAMED_UNIT(*)
SI_UNIT(.MILLI.,.METRE.)
);
#122=PRODUCT_DEFINITION_SHAPE('','',#123);
#123=PRODUCT_DEFINITION('','',#125,#124);
#124=PRODUCT_DEFINITION_CONTEXT('',#131,'design');
#125=PRODUCT_DEFINITION_FORMATION_WITH_SPECIFIED_SOURCE('','',#127,
 .NOT_KNOWN.);
#126=PRODUCT_RELATED_PRODUCT_CATEGORY('','',(#127));
#127=PRODUCT('12133 PU-13-SW','12133 PU-13-SW','12133 PU-13-SW',(#129));
#128=PRODUCT_CATEGORY('','');
#129=PRODUCT_CONTEXT('',#131,'mechanical');
#130=APPLICATION_PROTOCOL_DEFINITION('international standard',
'automotive_design',2010,#131);
#131=APPLICATION_CONTEXT(
'core data for automotive mechanical design processes');
ENDSEC;
END-ISO-10303-21;
