ISO-10303-21;
HEADER;
/* Generated by software containing ST-Developer
 * from STEP Tools, Inc. (www.steptools.com) 
 */
/* OPTION: using custom renumber hook */

FILE_DESCRIPTION(
/* description */ ('STEP AP214'),
/* implementation_level */ '2;1');

FILE_NAME(
/* name */ '1224460_AMTC-P-PC10',
/* time_stamp */ '2024-08-02T21:24:14+02:00',
/* author */ ('License CC BY-ND 4.0'),
/* organization */ ('CADENAS'),
/* preprocessor_version */ 'ST-DEVELOPER v19.3',
/* originating_system */ 'PARTsolutions',
/* authorisation */ '  ');

FILE_SCHEMA (('AUTOMOTIVE_DESIGN {1 0 10303 214 3 1 1}'));
ENDSEC;

DATA;
#10=PROPERTY_DEFINITION_REPRESENTATION(#14,#12);
#11=PROPERTY_DEFINITION_REPRESENTATION(#15,#13);
#12=REPRESENTATION('',(#16),#773);
#13=REPRESENTATION('',(#17),#773);
#14=PROPERTY_DEFINITION('pmi validation property','',#778);
#15=PROPERTY_DEFINITION('pmi validation property','',#778);
#16=VALUE_REPRESENTATION_ITEM('number of annotations',COUNT_MEASURE(0.));
#17=VALUE_REPRESENTATION_ITEM('number of views',COUNT_MEASURE(0.));
#18=SHAPE_REPRESENTATION_RELATIONSHIP('','',#520,#19);
#19=ADVANCED_BREP_SHAPE_REPRESENTATION('',(#518),#773);
#20=SPHERICAL_SURFACE('',#555,14.5);
#21=CONICAL_SURFACE('',#531,3.9,0.785398163397451);
#22=CONICAL_SURFACE('',#564,2.1,0.785398163397451);
#23=CONICAL_SURFACE('',#568,3.45,0.785398163397433);
#24=PLANE('',#527);
#25=PLANE('',#535);
#26=PLANE('',#543);
#27=PLANE('',#547);
#28=PLANE('',#551);
#29=PLANE('',#558);
#30=PLANE('',#566);
#31=PLANE('',#572);
#32=TOROIDAL_SURFACE('',#525,3.125,0.299999999999999);
#33=TOROIDAL_SURFACE('',#537,3.85,0.3);
#34=TOROIDAL_SURFACE('',#541,3.85,0.3);
#35=TOROIDAL_SURFACE('',#556,3.475,0.75);
#36=TOROIDAL_SURFACE('',#560,1.1,1.);
#37=TOROIDAL_SURFACE('',#574,3.125,0.299999999999999);
#38=ORIENTED_EDGE('',*,*,#92,.F.);
#39=ORIENTED_EDGE('',*,*,#93,.T.);
#40=ORIENTED_EDGE('',*,*,#94,.F.);
#41=ORIENTED_EDGE('',*,*,#92,.T.);
#42=ORIENTED_EDGE('',*,*,#95,.F.);
#43=ORIENTED_EDGE('',*,*,#94,.T.);
#44=ORIENTED_EDGE('',*,*,#96,.F.);
#45=ORIENTED_EDGE('',*,*,#95,.T.);
#46=ORIENTED_EDGE('',*,*,#97,.F.);
#47=ORIENTED_EDGE('',*,*,#96,.T.);
#48=ORIENTED_EDGE('',*,*,#98,.F.);
#49=ORIENTED_EDGE('',*,*,#97,.T.);
#50=ORIENTED_EDGE('',*,*,#99,.F.);
#51=ORIENTED_EDGE('',*,*,#98,.T.);
#52=ORIENTED_EDGE('',*,*,#100,.F.);
#53=ORIENTED_EDGE('',*,*,#99,.T.);
#54=ORIENTED_EDGE('',*,*,#101,.F.);
#55=ORIENTED_EDGE('',*,*,#100,.T.);
#56=ORIENTED_EDGE('',*,*,#102,.F.);
#57=ORIENTED_EDGE('',*,*,#101,.T.);
#58=ORIENTED_EDGE('',*,*,#103,.F.);
#59=ORIENTED_EDGE('',*,*,#102,.T.);
#60=ORIENTED_EDGE('',*,*,#104,.F.);
#61=ORIENTED_EDGE('',*,*,#103,.T.);
#62=ORIENTED_EDGE('',*,*,#105,.F.);
#63=ORIENTED_EDGE('',*,*,#104,.T.);
#64=ORIENTED_EDGE('',*,*,#106,.F.);
#65=ORIENTED_EDGE('',*,*,#105,.T.);
#66=ORIENTED_EDGE('',*,*,#107,.F.);
#67=ORIENTED_EDGE('',*,*,#106,.T.);
#68=ORIENTED_EDGE('',*,*,#108,.F.);
#69=ORIENTED_EDGE('',*,*,#107,.T.);
#70=ORIENTED_EDGE('',*,*,#108,.T.);
#71=ORIENTED_EDGE('',*,*,#109,.F.);
#72=ORIENTED_EDGE('',*,*,#93,.F.);
#73=ORIENTED_EDGE('',*,*,#110,.F.);
#74=ORIENTED_EDGE('',*,*,#111,.F.);
#75=ORIENTED_EDGE('',*,*,#110,.T.);
#76=ORIENTED_EDGE('',*,*,#112,.F.);
#77=ORIENTED_EDGE('',*,*,#111,.T.);
#78=ORIENTED_EDGE('',*,*,#113,.F.);
#79=ORIENTED_EDGE('',*,*,#112,.T.);
#80=ORIENTED_EDGE('',*,*,#114,.F.);
#81=ORIENTED_EDGE('',*,*,#113,.T.);
#82=ORIENTED_EDGE('',*,*,#115,.F.);
#83=ORIENTED_EDGE('',*,*,#114,.T.);
#84=ORIENTED_EDGE('',*,*,#116,.F.);
#85=ORIENTED_EDGE('',*,*,#115,.T.);
#86=ORIENTED_EDGE('',*,*,#117,.F.);
#87=ORIENTED_EDGE('',*,*,#116,.T.);
#88=ORIENTED_EDGE('',*,*,#118,.F.);
#89=ORIENTED_EDGE('',*,*,#117,.T.);
#90=ORIENTED_EDGE('',*,*,#109,.T.);
#91=ORIENTED_EDGE('',*,*,#118,.T.);
#92=EDGE_CURVE('',#119,#119,#146,.T.);
#93=EDGE_CURVE('',#120,#120,#147,.F.);
#94=EDGE_CURVE('',#121,#121,#148,.T.);
#95=EDGE_CURVE('',#122,#122,#149,.T.);
#96=EDGE_CURVE('',#123,#123,#150,.T.);
#97=EDGE_CURVE('',#124,#124,#151,.T.);
#98=EDGE_CURVE('',#125,#125,#152,.T.);
#99=EDGE_CURVE('',#126,#126,#153,.T.);
#100=EDGE_CURVE('',#127,#127,#154,.T.);
#101=EDGE_CURVE('',#128,#128,#155,.T.);
#102=EDGE_CURVE('',#129,#129,#156,.T.);
#103=EDGE_CURVE('',#130,#130,#157,.T.);
#104=EDGE_CURVE('',#131,#131,#158,.T.);
#105=EDGE_CURVE('',#132,#132,#159,.T.);
#106=EDGE_CURVE('',#133,#133,#160,.T.);
#107=EDGE_CURVE('',#134,#134,#161,.T.);
#108=EDGE_CURVE('',#135,#135,#162,.T.);
#109=EDGE_CURVE('',#136,#136,#163,.F.);
#110=EDGE_CURVE('',#137,#137,#164,.T.);
#111=EDGE_CURVE('',#138,#138,#165,.T.);
#112=EDGE_CURVE('',#139,#139,#166,.T.);
#113=EDGE_CURVE('',#140,#140,#167,.T.);
#114=EDGE_CURVE('',#141,#141,#168,.T.);
#115=EDGE_CURVE('',#142,#142,#169,.T.);
#116=EDGE_CURVE('',#143,#143,#170,.T.);
#117=EDGE_CURVE('',#144,#144,#171,.T.);
#118=EDGE_CURVE('',#145,#145,#172,.T.);
#119=VERTEX_POINT('',#692);
#120=VERTEX_POINT('',#694);
#121=VERTEX_POINT('',#697);
#122=VERTEX_POINT('',#700);
#123=VERTEX_POINT('',#703);
#124=VERTEX_POINT('',#706);
#125=VERTEX_POINT('',#709);
#126=VERTEX_POINT('',#712);
#127=VERTEX_POINT('',#715);
#128=VERTEX_POINT('',#718);
#129=VERTEX_POINT('',#721);
#130=VERTEX_POINT('',#724);
#131=VERTEX_POINT('',#727);
#132=VERTEX_POINT('',#730);
#133=VERTEX_POINT('',#733);
#134=VERTEX_POINT('',#736);
#135=VERTEX_POINT('',#739);
#136=VERTEX_POINT('',#743);
#137=VERTEX_POINT('',#746);
#138=VERTEX_POINT('',#749);
#139=VERTEX_POINT('',#752);
#140=VERTEX_POINT('',#755);
#141=VERTEX_POINT('',#758);
#142=VERTEX_POINT('',#761);
#143=VERTEX_POINT('',#764);
#144=VERTEX_POINT('',#767);
#145=VERTEX_POINT('',#770);
#146=CIRCLE('',#523,2.825);
#147=CIRCLE('',#524,2.825);
#148=CIRCLE('',#526,3.125);
#149=CIRCLE('',#528,3.9);
#150=CIRCLE('',#530,3.9);
#151=CIRCLE('',#532,4.425);
#152=CIRCLE('',#534,4.425);
#153=CIRCLE('',#536,3.85);
#154=CIRCLE('',#538,3.55);
#155=CIRCLE('',#540,3.55);
#156=CIRCLE('',#542,3.85);
#157=CIRCLE('',#544,4.425);
#158=CIRCLE('',#546,4.425);
#159=CIRCLE('',#548,4.825);
#160=CIRCLE('',#550,4.825);
#161=CIRCLE('',#552,4.9);
#162=CIRCLE('',#554,4.9);
#163=CIRCLE('',#557,2.825);
#164=CIRCLE('',#559,1.1);
#165=CIRCLE('',#561,2.1);
#166=CIRCLE('',#563,2.1);
#167=CIRCLE('',#565,2.5);
#168=CIRCLE('',#567,3.45);
#169=CIRCLE('',#569,3.55);
#170=CIRCLE('',#571,3.55);
#171=CIRCLE('',#573,3.125);
#172=CIRCLE('',#575,2.825);
#173=EDGE_LOOP('',(#38));
#174=EDGE_LOOP('',(#39));
#175=EDGE_LOOP('',(#40));
#176=EDGE_LOOP('',(#41));
#177=EDGE_LOOP('',(#42));
#178=EDGE_LOOP('',(#43));
#179=EDGE_LOOP('',(#44));
#180=EDGE_LOOP('',(#45));
#181=EDGE_LOOP('',(#46));
#182=EDGE_LOOP('',(#47));
#183=EDGE_LOOP('',(#48));
#184=EDGE_LOOP('',(#49));
#185=EDGE_LOOP('',(#50));
#186=EDGE_LOOP('',(#51));
#187=EDGE_LOOP('',(#52));
#188=EDGE_LOOP('',(#53));
#189=EDGE_LOOP('',(#54));
#190=EDGE_LOOP('',(#55));
#191=EDGE_LOOP('',(#56));
#192=EDGE_LOOP('',(#57));
#193=EDGE_LOOP('',(#58));
#194=EDGE_LOOP('',(#59));
#195=EDGE_LOOP('',(#60));
#196=EDGE_LOOP('',(#61));
#197=EDGE_LOOP('',(#62));
#198=EDGE_LOOP('',(#63));
#199=EDGE_LOOP('',(#64));
#200=EDGE_LOOP('',(#65));
#201=EDGE_LOOP('',(#66));
#202=EDGE_LOOP('',(#67));
#203=EDGE_LOOP('',(#68));
#204=EDGE_LOOP('',(#69));
#205=EDGE_LOOP('',(#70));
#206=EDGE_LOOP('',(#71));
#207=EDGE_LOOP('',(#72));
#208=EDGE_LOOP('',(#73));
#209=EDGE_LOOP('',(#74));
#210=EDGE_LOOP('',(#75));
#211=EDGE_LOOP('',(#76));
#212=EDGE_LOOP('',(#77));
#213=EDGE_LOOP('',(#78));
#214=EDGE_LOOP('',(#79));
#215=EDGE_LOOP('',(#80));
#216=EDGE_LOOP('',(#81));
#217=EDGE_LOOP('',(#82));
#218=EDGE_LOOP('',(#83));
#219=EDGE_LOOP('',(#84));
#220=EDGE_LOOP('',(#85));
#221=EDGE_LOOP('',(#86));
#222=EDGE_LOOP('',(#87));
#223=EDGE_LOOP('',(#88));
#224=EDGE_LOOP('',(#89));
#225=EDGE_LOOP('',(#90));
#226=EDGE_LOOP('',(#91));
#227=FACE_BOUND('',#173,.T.);
#228=FACE_BOUND('',#174,.T.);
#229=FACE_BOUND('',#175,.T.);
#230=FACE_BOUND('',#176,.T.);
#231=FACE_BOUND('',#177,.T.);
#232=FACE_BOUND('',#178,.T.);
#233=FACE_BOUND('',#179,.T.);
#234=FACE_BOUND('',#180,.T.);
#235=FACE_BOUND('',#181,.T.);
#236=FACE_BOUND('',#182,.T.);
#237=FACE_BOUND('',#183,.T.);
#238=FACE_BOUND('',#184,.T.);
#239=FACE_BOUND('',#185,.T.);
#240=FACE_BOUND('',#186,.T.);
#241=FACE_BOUND('',#187,.T.);
#242=FACE_BOUND('',#188,.T.);
#243=FACE_BOUND('',#189,.T.);
#244=FACE_BOUND('',#190,.T.);
#245=FACE_BOUND('',#191,.T.);
#246=FACE_BOUND('',#192,.T.);
#247=FACE_BOUND('',#193,.T.);
#248=FACE_BOUND('',#194,.T.);
#249=FACE_BOUND('',#195,.T.);
#250=FACE_BOUND('',#196,.T.);
#251=FACE_BOUND('',#197,.T.);
#252=FACE_BOUND('',#198,.T.);
#253=FACE_BOUND('',#199,.T.);
#254=FACE_BOUND('',#200,.T.);
#255=FACE_BOUND('',#201,.T.);
#256=FACE_BOUND('',#202,.T.);
#257=FACE_BOUND('',#203,.T.);
#258=FACE_BOUND('',#204,.T.);
#259=FACE_BOUND('',#205,.T.);
#260=FACE_BOUND('',#206,.T.);
#261=FACE_BOUND('',#207,.T.);
#262=FACE_BOUND('',#208,.T.);
#263=FACE_BOUND('',#209,.T.);
#264=FACE_BOUND('',#210,.T.);
#265=FACE_BOUND('',#211,.T.);
#266=FACE_BOUND('',#212,.T.);
#267=FACE_BOUND('',#213,.T.);
#268=FACE_BOUND('',#214,.T.);
#269=FACE_BOUND('',#215,.T.);
#270=FACE_BOUND('',#216,.T.);
#271=FACE_BOUND('',#217,.T.);
#272=FACE_BOUND('',#218,.T.);
#273=FACE_BOUND('',#219,.T.);
#274=FACE_BOUND('',#220,.T.);
#275=FACE_BOUND('',#221,.T.);
#276=FACE_BOUND('',#222,.T.);
#277=FACE_BOUND('',#223,.T.);
#278=FACE_BOUND('',#224,.T.);
#279=FACE_BOUND('',#225,.T.);
#280=FACE_BOUND('',#226,.T.);
#281=CYLINDRICAL_SURFACE('',#522,2.825);
#282=CYLINDRICAL_SURFACE('',#529,3.9);
#283=CYLINDRICAL_SURFACE('',#533,4.425);
#284=CYLINDRICAL_SURFACE('',#539,3.55);
#285=CYLINDRICAL_SURFACE('',#545,4.425);
#286=CYLINDRICAL_SURFACE('',#549,4.825);
#287=CYLINDRICAL_SURFACE('',#553,4.9);
#288=CYLINDRICAL_SURFACE('',#562,2.1);
#289=CYLINDRICAL_SURFACE('',#570,3.55);
#290=CYLINDRICAL_SURFACE('',#576,2.825);
#291=STYLED_ITEM('',(#319),#489);
#292=STYLED_ITEM('',(#320),#490);
#293=STYLED_ITEM('',(#321),#491);
#294=STYLED_ITEM('',(#322),#492);
#295=STYLED_ITEM('',(#323),#493);
#296=STYLED_ITEM('',(#324),#494);
#297=STYLED_ITEM('',(#325),#495);
#298=STYLED_ITEM('',(#326),#496);
#299=STYLED_ITEM('',(#327),#497);
#300=STYLED_ITEM('',(#328),#498);
#301=STYLED_ITEM('',(#329),#499);
#302=STYLED_ITEM('',(#330),#500);
#303=STYLED_ITEM('',(#331),#501);
#304=STYLED_ITEM('',(#332),#502);
#305=STYLED_ITEM('',(#333),#503);
#306=STYLED_ITEM('',(#334),#504);
#307=STYLED_ITEM('',(#335),#505);
#308=STYLED_ITEM('',(#336),#506);
#309=STYLED_ITEM('',(#337),#507);
#310=STYLED_ITEM('',(#338),#508);
#311=STYLED_ITEM('',(#339),#509);
#312=STYLED_ITEM('',(#340),#510);
#313=STYLED_ITEM('',(#341),#511);
#314=STYLED_ITEM('',(#342),#512);
#315=STYLED_ITEM('',(#343),#513);
#316=STYLED_ITEM('',(#344),#514);
#317=STYLED_ITEM('',(#345),#515);
#318=STYLED_ITEM('',(#346),#516);
#319=PRESENTATION_STYLE_ASSIGNMENT((#347));
#320=PRESENTATION_STYLE_ASSIGNMENT((#348));
#321=PRESENTATION_STYLE_ASSIGNMENT((#349));
#322=PRESENTATION_STYLE_ASSIGNMENT((#350));
#323=PRESENTATION_STYLE_ASSIGNMENT((#351));
#324=PRESENTATION_STYLE_ASSIGNMENT((#352));
#325=PRESENTATION_STYLE_ASSIGNMENT((#353));
#326=PRESENTATION_STYLE_ASSIGNMENT((#354));
#327=PRESENTATION_STYLE_ASSIGNMENT((#355));
#328=PRESENTATION_STYLE_ASSIGNMENT((#356));
#329=PRESENTATION_STYLE_ASSIGNMENT((#357));
#330=PRESENTATION_STYLE_ASSIGNMENT((#358));
#331=PRESENTATION_STYLE_ASSIGNMENT((#359));
#332=PRESENTATION_STYLE_ASSIGNMENT((#360));
#333=PRESENTATION_STYLE_ASSIGNMENT((#361));
#334=PRESENTATION_STYLE_ASSIGNMENT((#362));
#335=PRESENTATION_STYLE_ASSIGNMENT((#363));
#336=PRESENTATION_STYLE_ASSIGNMENT((#364));
#337=PRESENTATION_STYLE_ASSIGNMENT((#365));
#338=PRESENTATION_STYLE_ASSIGNMENT((#366));
#339=PRESENTATION_STYLE_ASSIGNMENT((#367));
#340=PRESENTATION_STYLE_ASSIGNMENT((#368));
#341=PRESENTATION_STYLE_ASSIGNMENT((#369));
#342=PRESENTATION_STYLE_ASSIGNMENT((#370));
#343=PRESENTATION_STYLE_ASSIGNMENT((#371));
#344=PRESENTATION_STYLE_ASSIGNMENT((#372));
#345=PRESENTATION_STYLE_ASSIGNMENT((#373));
#346=PRESENTATION_STYLE_ASSIGNMENT((#374));
#347=SURFACE_STYLE_USAGE(.BOTH.,#375);
#348=SURFACE_STYLE_USAGE(.BOTH.,#376);
#349=SURFACE_STYLE_USAGE(.BOTH.,#377);
#350=SURFACE_STYLE_USAGE(.BOTH.,#378);
#351=SURFACE_STYLE_USAGE(.BOTH.,#379);
#352=SURFACE_STYLE_USAGE(.BOTH.,#380);
#353=SURFACE_STYLE_USAGE(.BOTH.,#381);
#354=SURFACE_STYLE_USAGE(.BOTH.,#382);
#355=SURFACE_STYLE_USAGE(.BOTH.,#383);
#356=SURFACE_STYLE_USAGE(.BOTH.,#384);
#357=SURFACE_STYLE_USAGE(.BOTH.,#385);
#358=SURFACE_STYLE_USAGE(.BOTH.,#386);
#359=SURFACE_STYLE_USAGE(.BOTH.,#387);
#360=SURFACE_STYLE_USAGE(.BOTH.,#388);
#361=SURFACE_STYLE_USAGE(.BOTH.,#389);
#362=SURFACE_STYLE_USAGE(.BOTH.,#390);
#363=SURFACE_STYLE_USAGE(.BOTH.,#391);
#364=SURFACE_STYLE_USAGE(.BOTH.,#392);
#365=SURFACE_STYLE_USAGE(.BOTH.,#393);
#366=SURFACE_STYLE_USAGE(.BOTH.,#394);
#367=SURFACE_STYLE_USAGE(.BOTH.,#395);
#368=SURFACE_STYLE_USAGE(.BOTH.,#396);
#369=SURFACE_STYLE_USAGE(.BOTH.,#397);
#370=SURFACE_STYLE_USAGE(.BOTH.,#398);
#371=SURFACE_STYLE_USAGE(.BOTH.,#399);
#372=SURFACE_STYLE_USAGE(.BOTH.,#400);
#373=SURFACE_STYLE_USAGE(.BOTH.,#401);
#374=SURFACE_STYLE_USAGE(.BOTH.,#402);
#375=SURFACE_SIDE_STYLE('',(#403));
#376=SURFACE_SIDE_STYLE('',(#404));
#377=SURFACE_SIDE_STYLE('',(#405));
#378=SURFACE_SIDE_STYLE('',(#406));
#379=SURFACE_SIDE_STYLE('',(#407));
#380=SURFACE_SIDE_STYLE('',(#408));
#381=SURFACE_SIDE_STYLE('',(#409));
#382=SURFACE_SIDE_STYLE('',(#410));
#383=SURFACE_SIDE_STYLE('',(#411));
#384=SURFACE_SIDE_STYLE('',(#412));
#385=SURFACE_SIDE_STYLE('',(#413));
#386=SURFACE_SIDE_STYLE('',(#414));
#387=SURFACE_SIDE_STYLE('',(#415));
#388=SURFACE_SIDE_STYLE('',(#416));
#389=SURFACE_SIDE_STYLE('',(#417));
#390=SURFACE_SIDE_STYLE('',(#418));
#391=SURFACE_SIDE_STYLE('',(#419));
#392=SURFACE_SIDE_STYLE('',(#420));
#393=SURFACE_SIDE_STYLE('',(#421));
#394=SURFACE_SIDE_STYLE('',(#422));
#395=SURFACE_SIDE_STYLE('',(#423));
#396=SURFACE_SIDE_STYLE('',(#424));
#397=SURFACE_SIDE_STYLE('',(#425));
#398=SURFACE_SIDE_STYLE('',(#426));
#399=SURFACE_SIDE_STYLE('',(#427));
#400=SURFACE_SIDE_STYLE('',(#428));
#401=SURFACE_SIDE_STYLE('',(#429));
#402=SURFACE_SIDE_STYLE('',(#430));
#403=SURFACE_STYLE_FILL_AREA(#431);
#404=SURFACE_STYLE_FILL_AREA(#432);
#405=SURFACE_STYLE_FILL_AREA(#433);
#406=SURFACE_STYLE_FILL_AREA(#434);
#407=SURFACE_STYLE_FILL_AREA(#435);
#408=SURFACE_STYLE_FILL_AREA(#436);
#409=SURFACE_STYLE_FILL_AREA(#437);
#410=SURFACE_STYLE_FILL_AREA(#438);
#411=SURFACE_STYLE_FILL_AREA(#439);
#412=SURFACE_STYLE_FILL_AREA(#440);
#413=SURFACE_STYLE_FILL_AREA(#441);
#414=SURFACE_STYLE_FILL_AREA(#442);
#415=SURFACE_STYLE_FILL_AREA(#443);
#416=SURFACE_STYLE_FILL_AREA(#444);
#417=SURFACE_STYLE_FILL_AREA(#445);
#418=SURFACE_STYLE_FILL_AREA(#446);
#419=SURFACE_STYLE_FILL_AREA(#447);
#420=SURFACE_STYLE_FILL_AREA(#448);
#421=SURFACE_STYLE_FILL_AREA(#449);
#422=SURFACE_STYLE_FILL_AREA(#450);
#423=SURFACE_STYLE_FILL_AREA(#451);
#424=SURFACE_STYLE_FILL_AREA(#452);
#425=SURFACE_STYLE_FILL_AREA(#453);
#426=SURFACE_STYLE_FILL_AREA(#454);
#427=SURFACE_STYLE_FILL_AREA(#455);
#428=SURFACE_STYLE_FILL_AREA(#456);
#429=SURFACE_STYLE_FILL_AREA(#457);
#430=SURFACE_STYLE_FILL_AREA(#458);
#431=FILL_AREA_STYLE('',(#459));
#432=FILL_AREA_STYLE('',(#460));
#433=FILL_AREA_STYLE('',(#461));
#434=FILL_AREA_STYLE('',(#462));
#435=FILL_AREA_STYLE('',(#463));
#436=FILL_AREA_STYLE('',(#464));
#437=FILL_AREA_STYLE('',(#465));
#438=FILL_AREA_STYLE('',(#466));
#439=FILL_AREA_STYLE('',(#467));
#440=FILL_AREA_STYLE('',(#468));
#441=FILL_AREA_STYLE('',(#469));
#442=FILL_AREA_STYLE('',(#470));
#443=FILL_AREA_STYLE('',(#471));
#444=FILL_AREA_STYLE('',(#472));
#445=FILL_AREA_STYLE('',(#473));
#446=FILL_AREA_STYLE('',(#474));
#447=FILL_AREA_STYLE('',(#475));
#448=FILL_AREA_STYLE('',(#476));
#449=FILL_AREA_STYLE('',(#477));
#450=FILL_AREA_STYLE('',(#478));
#451=FILL_AREA_STYLE('',(#479));
#452=FILL_AREA_STYLE('',(#480));
#453=FILL_AREA_STYLE('',(#481));
#454=FILL_AREA_STYLE('',(#482));
#455=FILL_AREA_STYLE('',(#483));
#456=FILL_AREA_STYLE('',(#484));
#457=FILL_AREA_STYLE('',(#485));
#458=FILL_AREA_STYLE('',(#486));
#459=FILL_AREA_STYLE_COLOUR('',#487);
#460=FILL_AREA_STYLE_COLOUR('',#487);
#461=FILL_AREA_STYLE_COLOUR('',#487);
#462=FILL_AREA_STYLE_COLOUR('',#487);
#463=FILL_AREA_STYLE_COLOUR('',#487);
#464=FILL_AREA_STYLE_COLOUR('',#487);
#465=FILL_AREA_STYLE_COLOUR('',#487);
#466=FILL_AREA_STYLE_COLOUR('',#487);
#467=FILL_AREA_STYLE_COLOUR('',#487);
#468=FILL_AREA_STYLE_COLOUR('',#487);
#469=FILL_AREA_STYLE_COLOUR('',#487);
#470=FILL_AREA_STYLE_COLOUR('',#487);
#471=FILL_AREA_STYLE_COLOUR('',#487);
#472=FILL_AREA_STYLE_COLOUR('',#487);
#473=FILL_AREA_STYLE_COLOUR('',#487);
#474=FILL_AREA_STYLE_COLOUR('',#488);
#475=FILL_AREA_STYLE_COLOUR('',#488);
#476=FILL_AREA_STYLE_COLOUR('',#487);
#477=FILL_AREA_STYLE_COLOUR('',#487);
#478=FILL_AREA_STYLE_COLOUR('',#487);
#479=FILL_AREA_STYLE_COLOUR('',#487);
#480=FILL_AREA_STYLE_COLOUR('',#487);
#481=FILL_AREA_STYLE_COLOUR('',#487);
#482=FILL_AREA_STYLE_COLOUR('',#487);
#483=FILL_AREA_STYLE_COLOUR('',#487);
#484=FILL_AREA_STYLE_COLOUR('',#487);
#485=FILL_AREA_STYLE_COLOUR('',#487);
#486=FILL_AREA_STYLE_COLOUR('',#487);
#487=COLOUR_RGB('',0.,0.600000023841858,1.);
#488=COLOUR_RGB('',0.84299999475479,0.84299999475479,0.84299999475479);
#489=ADVANCED_FACE('',(#227,#228),#281,.T.);
#490=ADVANCED_FACE('',(#229,#230),#32,.F.);
#491=ADVANCED_FACE('',(#231,#232),#24,.F.);
#492=ADVANCED_FACE('',(#233,#234),#282,.T.);
#493=ADVANCED_FACE('',(#235,#236),#21,.T.);
#494=ADVANCED_FACE('',(#237,#238),#283,.T.);
#495=ADVANCED_FACE('',(#239,#240),#25,.F.);
#496=ADVANCED_FACE('',(#241,#242),#33,.F.);
#497=ADVANCED_FACE('',(#243,#244),#284,.T.);
#498=ADVANCED_FACE('',(#245,#246),#34,.F.);
#499=ADVANCED_FACE('',(#247,#248),#26,.F.);
#500=ADVANCED_FACE('',(#249,#250),#285,.T.);
#501=ADVANCED_FACE('',(#251,#252),#27,.F.);
#502=ADVANCED_FACE('',(#253,#254),#286,.T.);
#503=ADVANCED_FACE('',(#255,#256),#28,.F.);
#504=ADVANCED_FACE('',(#257,#258),#287,.T.);
#505=ADVANCED_FACE('',(#259),#20,.T.);
#506=ADVANCED_FACE('',(#260,#261),#35,.T.);
#507=ADVANCED_FACE('',(#262),#29,.F.);
#508=ADVANCED_FACE('',(#263,#264),#36,.F.);
#509=ADVANCED_FACE('',(#265,#266),#288,.F.);
#510=ADVANCED_FACE('',(#267,#268),#22,.F.);
#511=ADVANCED_FACE('',(#269,#270),#30,.F.);
#512=ADVANCED_FACE('',(#271,#272),#23,.T.);
#513=ADVANCED_FACE('',(#273,#274),#289,.T.);
#514=ADVANCED_FACE('',(#275,#276),#31,.F.);
#515=ADVANCED_FACE('',(#277,#278),#37,.F.);
#516=ADVANCED_FACE('',(#279,#280),#290,.T.);
#517=CLOSED_SHELL('',(#489,#490,#491,#492,#493,#494,#495,#496,#497,#498,
#499,#500,#501,#502,#503,#504,#505,#506,#507,#508,#509,#510,#511,#512,#513,
#514,#515,#516));
#518=MANIFOLD_SOLID_BREP('1224460 AMTC-P-P10',#517);
#519=SHAPE_DEFINITION_REPRESENTATION(#778,#520);
#520=SHAPE_REPRESENTATION('1224460 AMTC-P-P10',(#521),#773);
#521=AXIS2_PLACEMENT_3D('',#689,#577,#578);
#522=AXIS2_PLACEMENT_3D('',#690,#579,#580);
#523=AXIS2_PLACEMENT_3D('',#691,#581,#582);
#524=AXIS2_PLACEMENT_3D('',#693,#583,#584);
#525=AXIS2_PLACEMENT_3D('',#695,#585,#586);
#526=AXIS2_PLACEMENT_3D('',#696,#587,#588);
#527=AXIS2_PLACEMENT_3D('',#698,#589,#590);
#528=AXIS2_PLACEMENT_3D('',#699,#591,#592);
#529=AXIS2_PLACEMENT_3D('',#701,#593,#594);
#530=AXIS2_PLACEMENT_3D('',#702,#595,#596);
#531=AXIS2_PLACEMENT_3D('',#704,#597,#598);
#532=AXIS2_PLACEMENT_3D('',#705,#599,#600);
#533=AXIS2_PLACEMENT_3D('',#707,#601,#602);
#534=AXIS2_PLACEMENT_3D('',#708,#603,#604);
#535=AXIS2_PLACEMENT_3D('',#710,#605,#606);
#536=AXIS2_PLACEMENT_3D('',#711,#607,#608);
#537=AXIS2_PLACEMENT_3D('',#713,#609,#610);
#538=AXIS2_PLACEMENT_3D('',#714,#611,#612);
#539=AXIS2_PLACEMENT_3D('',#716,#613,#614);
#540=AXIS2_PLACEMENT_3D('',#717,#615,#616);
#541=AXIS2_PLACEMENT_3D('',#719,#617,#618);
#542=AXIS2_PLACEMENT_3D('',#720,#619,#620);
#543=AXIS2_PLACEMENT_3D('',#722,#621,#622);
#544=AXIS2_PLACEMENT_3D('',#723,#623,#624);
#545=AXIS2_PLACEMENT_3D('',#725,#625,#626);
#546=AXIS2_PLACEMENT_3D('',#726,#627,#628);
#547=AXIS2_PLACEMENT_3D('',#728,#629,#630);
#548=AXIS2_PLACEMENT_3D('',#729,#631,#632);
#549=AXIS2_PLACEMENT_3D('',#731,#633,#634);
#550=AXIS2_PLACEMENT_3D('',#732,#635,#636);
#551=AXIS2_PLACEMENT_3D('',#734,#637,#638);
#552=AXIS2_PLACEMENT_3D('',#735,#639,#640);
#553=AXIS2_PLACEMENT_3D('',#737,#641,#642);
#554=AXIS2_PLACEMENT_3D('',#738,#643,#644);
#555=AXIS2_PLACEMENT_3D('',#740,#645,#646);
#556=AXIS2_PLACEMENT_3D('',#741,#647,#648);
#557=AXIS2_PLACEMENT_3D('',#742,#649,#650);
#558=AXIS2_PLACEMENT_3D('',#744,#651,#652);
#559=AXIS2_PLACEMENT_3D('',#745,#653,#654);
#560=AXIS2_PLACEMENT_3D('',#747,#655,#656);
#561=AXIS2_PLACEMENT_3D('',#748,#657,#658);
#562=AXIS2_PLACEMENT_3D('',#750,#659,#660);
#563=AXIS2_PLACEMENT_3D('',#751,#661,#662);
#564=AXIS2_PLACEMENT_3D('',#753,#663,#664);
#565=AXIS2_PLACEMENT_3D('',#754,#665,#666);
#566=AXIS2_PLACEMENT_3D('',#756,#667,#668);
#567=AXIS2_PLACEMENT_3D('',#757,#669,#670);
#568=AXIS2_PLACEMENT_3D('',#759,#671,#672);
#569=AXIS2_PLACEMENT_3D('',#760,#673,#674);
#570=AXIS2_PLACEMENT_3D('',#762,#675,#676);
#571=AXIS2_PLACEMENT_3D('',#763,#677,#678);
#572=AXIS2_PLACEMENT_3D('',#765,#679,#680);
#573=AXIS2_PLACEMENT_3D('',#766,#681,#682);
#574=AXIS2_PLACEMENT_3D('',#768,#683,#684);
#575=AXIS2_PLACEMENT_3D('',#769,#685,#686);
#576=AXIS2_PLACEMENT_3D('',#771,#687,#688);
#577=DIRECTION('',(0.,0.,1.));
#578=DIRECTION('',(1.,0.,0.));
#579=DIRECTION('',(0.,0.,-1.));
#580=DIRECTION('',(-1.,0.,0.));
#581=DIRECTION('',(0.,0.,-1.));
#582=DIRECTION('',(-1.,0.,0.));
#583=DIRECTION('',(0.,0.,1.));
#584=DIRECTION('',(1.,0.,0.));
#585=DIRECTION('',(0.,0.,-1.));
#586=DIRECTION('',(-1.,0.,0.));
#587=DIRECTION('',(0.,0.,-1.));
#588=DIRECTION('',(-1.,0.,0.));
#589=DIRECTION('',(0.,0.,-1.));
#590=DIRECTION('',(-1.,0.,0.));
#591=DIRECTION('',(0.,0.,-1.));
#592=DIRECTION('',(-1.,0.,0.));
#593=DIRECTION('',(0.,0.,-1.));
#594=DIRECTION('',(-1.,0.,0.));
#595=DIRECTION('',(0.,0.,-1.));
#596=DIRECTION('',(-1.,0.,0.));
#597=DIRECTION('',(0.,0.,-1.));
#598=DIRECTION('',(-1.,0.,0.));
#599=DIRECTION('',(0.,0.,-1.));
#600=DIRECTION('',(-1.,0.,0.));
#601=DIRECTION('',(0.,0.,-1.));
#602=DIRECTION('',(-1.,0.,0.));
#603=DIRECTION('',(0.,0.,-1.));
#604=DIRECTION('',(-1.,0.,0.));
#605=DIRECTION('',(0.,0.,1.));
#606=DIRECTION('',(1.,0.,0.));
#607=DIRECTION('',(0.,0.,-1.));
#608=DIRECTION('',(-1.,0.,0.));
#609=DIRECTION('',(0.,0.,-1.));
#610=DIRECTION('',(-1.,0.,0.));
#611=DIRECTION('',(0.,0.,-1.));
#612=DIRECTION('',(-1.,0.,0.));
#613=DIRECTION('',(0.,0.,-1.));
#614=DIRECTION('',(-1.,0.,0.));
#615=DIRECTION('',(0.,0.,-1.));
#616=DIRECTION('',(-1.,0.,0.));
#617=DIRECTION('',(0.,0.,-1.));
#618=DIRECTION('',(-1.,0.,0.));
#619=DIRECTION('',(0.,0.,-1.));
#620=DIRECTION('',(-1.,0.,0.));
#621=DIRECTION('',(0.,0.,-1.));
#622=DIRECTION('',(-1.,0.,0.));
#623=DIRECTION('',(0.,0.,-1.));
#624=DIRECTION('',(-1.,0.,0.));
#625=DIRECTION('',(0.,0.,-1.));
#626=DIRECTION('',(-1.,0.,0.));
#627=DIRECTION('',(0.,0.,-1.));
#628=DIRECTION('',(-1.,0.,0.));
#629=DIRECTION('',(0.,0.,-1.));
#630=DIRECTION('',(-1.,0.,0.));
#631=DIRECTION('',(0.,0.,-1.));
#632=DIRECTION('',(-1.,0.,0.));
#633=DIRECTION('',(0.,0.,-1.));
#634=DIRECTION('',(-1.,0.,0.));
#635=DIRECTION('',(0.,0.,-1.));
#636=DIRECTION('',(-1.,0.,0.));
#637=DIRECTION('',(0.,0.,-1.));
#638=DIRECTION('',(-1.,0.,0.));
#639=DIRECTION('',(0.,0.,-1.));
#640=DIRECTION('',(-1.,0.,0.));
#641=DIRECTION('',(0.,0.,-1.));
#642=DIRECTION('',(-1.,0.,0.));
#643=DIRECTION('',(0.,0.,-1.));
#644=DIRECTION('',(-1.,0.,0.));
#645=DIRECTION('',(0.,0.,-1.));
#646=DIRECTION('',(0.,1.,0.));
#647=DIRECTION('',(0.,0.,-1.));
#648=DIRECTION('',(-1.,0.,0.));
#649=DIRECTION('',(0.,0.,-1.));
#650=DIRECTION('',(-1.,0.,0.));
#651=DIRECTION('',(0.,0.,-1.));
#652=DIRECTION('',(-1.,0.,0.));
#653=DIRECTION('',(0.,0.,-1.));
#654=DIRECTION('',(-1.,0.,0.));
#655=DIRECTION('',(0.,0.,-1.));
#656=DIRECTION('',(-1.,0.,0.));
#657=DIRECTION('',(0.,0.,-1.));
#658=DIRECTION('',(-1.,0.,0.));
#659=DIRECTION('',(0.,0.,-1.));
#660=DIRECTION('',(-1.,0.,0.));
#661=DIRECTION('',(0.,0.,-1.));
#662=DIRECTION('',(-1.,0.,0.));
#663=DIRECTION('',(0.,0.,1.));
#664=DIRECTION('',(1.,0.,0.));
#665=DIRECTION('',(0.,0.,-1.));
#666=DIRECTION('',(-1.,0.,0.));
#667=DIRECTION('',(0.,0.,-1.));
#668=DIRECTION('',(-1.,0.,0.));
#669=DIRECTION('',(0.,0.,-1.));
#670=DIRECTION('',(-1.,0.,0.));
#671=DIRECTION('',(0.,0.,-1.));
#672=DIRECTION('',(-1.,0.,0.));
#673=DIRECTION('',(0.,0.,-1.));
#674=DIRECTION('',(-1.,0.,0.));
#675=DIRECTION('',(0.,0.,-1.));
#676=DIRECTION('',(-1.,0.,0.));
#677=DIRECTION('',(0.,0.,-1.));
#678=DIRECTION('',(-1.,0.,0.));
#679=DIRECTION('',(0.,0.,1.));
#680=DIRECTION('',(1.,0.,0.));
#681=DIRECTION('',(0.,0.,-1.));
#682=DIRECTION('',(-1.,0.,0.));
#683=DIRECTION('',(0.,0.,-1.));
#684=DIRECTION('',(-1.,0.,0.));
#685=DIRECTION('',(0.,0.,-1.));
#686=DIRECTION('',(-1.,0.,0.));
#687=DIRECTION('',(0.,0.,-1.));
#688=DIRECTION('',(-1.,0.,0.));
#689=CARTESIAN_POINT('',(0.,0.,0.));
#690=CARTESIAN_POINT('',(0.,0.,-31.35));
#691=CARTESIAN_POINT('',(0.,0.,-2.2));
#692=CARTESIAN_POINT('',(-2.825,0.,-2.2));
#693=CARTESIAN_POINT('',(0.,0.,-1.92416573867739));
#694=CARTESIAN_POINT('',(2.825,0.,-1.92416573867739));
#695=CARTESIAN_POINT('',(0.,0.,-2.2));
#696=CARTESIAN_POINT('',(0.,0.,-2.5));
#697=CARTESIAN_POINT('',(-3.125,0.,-2.5));
#698=CARTESIAN_POINT('',(0.,3.125,-2.5));
#699=CARTESIAN_POINT('',(0.,0.,-2.5));
#700=CARTESIAN_POINT('',(-3.9,0.,-2.5));
#701=CARTESIAN_POINT('',(0.,0.,-31.35));
#702=CARTESIAN_POINT('',(0.,0.,-2.925));
#703=CARTESIAN_POINT('',(-3.9,0.,-2.925));
#704=CARTESIAN_POINT('',(0.,0.,-2.925));
#705=CARTESIAN_POINT('',(0.,0.,-3.45));
#706=CARTESIAN_POINT('',(-4.425,0.,-3.45));
#707=CARTESIAN_POINT('',(0.,0.,-31.35));
#708=CARTESIAN_POINT('',(0.,0.,-3.95));
#709=CARTESIAN_POINT('',(-4.425,0.,-3.95));
#710=CARTESIAN_POINT('',(0.,4.425,-3.95));
#711=CARTESIAN_POINT('',(0.,0.,-3.95));
#712=CARTESIAN_POINT('',(-3.85,0.,-3.95));
#713=CARTESIAN_POINT('',(0.,0.,-4.25));
#714=CARTESIAN_POINT('',(0.,0.,-4.25));
#715=CARTESIAN_POINT('',(-3.55,0.,-4.25));
#716=CARTESIAN_POINT('',(0.,0.,-31.35));
#717=CARTESIAN_POINT('',(0.,0.,-4.8));
#718=CARTESIAN_POINT('',(-3.55,0.,-4.8));
#719=CARTESIAN_POINT('',(0.,0.,-4.8));
#720=CARTESIAN_POINT('',(0.,0.,-5.1));
#721=CARTESIAN_POINT('',(-3.85,0.,-5.1));
#722=CARTESIAN_POINT('',(0.,3.85,-5.1));
#723=CARTESIAN_POINT('',(0.,0.,-5.1));
#724=CARTESIAN_POINT('',(-4.425,0.,-5.1));
#725=CARTESIAN_POINT('',(0.,0.,-31.35));
#726=CARTESIAN_POINT('',(0.,0.,-6.75));
#727=CARTESIAN_POINT('',(-4.425,0.,-6.75));
#728=CARTESIAN_POINT('',(0.,4.425,-6.75));
#729=CARTESIAN_POINT('',(0.,0.,-6.75));
#730=CARTESIAN_POINT('',(-4.825,0.,-6.75));
#731=CARTESIAN_POINT('',(0.,0.,-31.35));
#732=CARTESIAN_POINT('',(0.,0.,-12.35));
#733=CARTESIAN_POINT('',(-4.825,0.,-12.35));
#734=CARTESIAN_POINT('',(0.,4.825,-12.35));
#735=CARTESIAN_POINT('',(0.,0.,-12.35));
#736=CARTESIAN_POINT('',(-4.9,0.,-12.35));
#737=CARTESIAN_POINT('',(0.,0.,-31.35));
#738=CARTESIAN_POINT('',(0.,0.,-30.4969776873856));
#739=CARTESIAN_POINT('',(-4.9,0.,-30.4969776873856));
#740=CARTESIAN_POINT('',(0.,-4.33680868994202E-15,-16.85));
#741=CARTESIAN_POINT('',(0.,0.,-1.55));
#742=CARTESIAN_POINT('',(0.,0.,-1.17583426132261));
#743=CARTESIAN_POINT('',(-2.825,0.,-1.17583426132261));
#744=CARTESIAN_POINT('',(0.,0.,-27.85));
#745=CARTESIAN_POINT('',(0.,0.,-27.85));
#746=CARTESIAN_POINT('',(-1.1,0.,-27.85));
#747=CARTESIAN_POINT('',(0.,0.,-26.85));
#748=CARTESIAN_POINT('',(0.,0.,-26.85));
#749=CARTESIAN_POINT('',(-2.1,0.,-26.85));
#750=CARTESIAN_POINT('',(0.,0.,-31.35));
#751=CARTESIAN_POINT('',(0.,0.,-0.399999999999998));
#752=CARTESIAN_POINT('',(-2.1,0.,-0.399999999999998));
#753=CARTESIAN_POINT('',(0.,0.,-0.399999999999998));
#754=CARTESIAN_POINT('',(0.,0.,0.));
#755=CARTESIAN_POINT('',(-2.5,0.,0.));
#756=CARTESIAN_POINT('',(0.,2.5,-2.71050543121376E-17));
#757=CARTESIAN_POINT('',(0.,0.,0.));
#758=CARTESIAN_POINT('',(-3.45,0.,0.));
#759=CARTESIAN_POINT('',(0.,0.,0.));
#760=CARTESIAN_POINT('',(0.,0.,-0.100000000000003));
#761=CARTESIAN_POINT('',(-3.55,0.,-0.100000000000003));
#762=CARTESIAN_POINT('',(0.,0.,-31.35));
#763=CARTESIAN_POINT('',(0.,0.,-0.6));
#764=CARTESIAN_POINT('',(-3.55,0.,-0.6));
#765=CARTESIAN_POINT('',(0.,3.55,-0.6));
#766=CARTESIAN_POINT('',(0.,0.,-0.6));
#767=CARTESIAN_POINT('',(-3.125,0.,-0.6));
#768=CARTESIAN_POINT('',(0.,0.,-0.899999999999999));
#769=CARTESIAN_POINT('',(0.,0.,-0.900000000000001));
#770=CARTESIAN_POINT('',(-2.825,0.,-0.900000000000001));
#771=CARTESIAN_POINT('',(0.,0.,-31.35));
#772=MECHANICAL_DESIGN_GEOMETRIC_PRESENTATION_REPRESENTATION('',(#291,#292,
#293,#294,#295,#296,#297,#298,#299,#300,#301,#302,#303,#304,#305,#306,#307,
#308,#309,#310,#311,#312,#313,#314,#315,#316,#317,#318),#773);
#773=(
GEOMETRIC_REPRESENTATION_CONTEXT(3)
GLOBAL_UNCERTAINTY_ASSIGNED_CONTEXT((#774))
GLOBAL_UNIT_ASSIGNED_CONTEXT((#777,#776,#775))
REPRESENTATION_CONTEXT('1224460 AMTC-P-P10','TOP_LEVEL_ASSEMBLY_PART')
);
#774=UNCERTAINTY_MEASURE_WITH_UNIT(LENGTH_MEASURE(0.005),#777,
'DISTANCE_ACCURACY_VALUE','Maximum Tolerance applied to model');
#775=(
NAMED_UNIT(*)
SI_UNIT($,.STERADIAN.)
SOLID_ANGLE_UNIT()
);
#776=(
NAMED_UNIT(*)
PLANE_ANGLE_UNIT()
SI_UNIT($,.RADIAN.)
);
#777=(
LENGTH_UNIT()
NAMED_UNIT(*)
SI_UNIT(.MILLI.,.METRE.)
);
#778=PRODUCT_DEFINITION_SHAPE('','',#779);
#779=PRODUCT_DEFINITION('','',#781,#780);
#780=PRODUCT_DEFINITION_CONTEXT('',#787,'design');
#781=PRODUCT_DEFINITION_FORMATION_WITH_SPECIFIED_SOURCE('','',#783,
 .NOT_KNOWN.);
#782=PRODUCT_RELATED_PRODUCT_CATEGORY('','',(#783));
#783=PRODUCT('1224460 AMTC-P-P10','1224460 AMTC-P-P10',
'1224460 AMTC-P-P10',(#785));
#784=PRODUCT_CATEGORY('','');
#785=PRODUCT_CONTEXT('',#787,'mechanical');
#786=APPLICATION_PROTOCOL_DEFINITION('international standard',
'automotive_design',2010,#787);
#787=APPLICATION_CONTEXT(
'core data for automotive mechanical design processes');
ENDSEC;
END-ISO-10303-21;
