ISO-10303-21;
HEADER;
/* Generated by software containing ST-Developer
 * from STEP Tools, Inc. (www.steptools.com) 
 */
/* OPTION: using custom renumber hook */

FILE_DESCRIPTION(
/* description */ ('STEP AP214'),
/* implementation_level */ '2;1');

FILE_NAME(
/* name */ '130624_QS-12H-8',
/* time_stamp */ '2024-09-11T11:42:14+02:00',
/* author */ ('License CC BY-ND 4.0'),
/* organization */ ('CADENAS'),
/* preprocessor_version */ 'ST-DEVELOPER v19.3',
/* originating_system */ 'PARTsolutions',
/* authorisation */ '  ');

FILE_SCHEMA (('AUTOMOTIVE_DESIGN {1 0 10303 214 3 1 1}'));
ENDSEC;

DATA;
#10=PROPERTY_DEFINITION_REPRESENTATION(#14,#12);
#11=PROPERTY_DEFINITION_REPRESENTATION(#15,#13);
#12=REPRESENTATION('',(#16),#706);
#13=REPRESENTATION('',(#17),#706);
#14=PROPERTY_DEFINITION('pmi validation property','',#711);
#15=PROPERTY_DEFINITION('pmi validation property','',#711);
#16=VALUE_REPRESENTATION_ITEM('number of annotations',COUNT_MEASURE(0.));
#17=VALUE_REPRESENTATION_ITEM('number of views',COUNT_MEASURE(0.));
#18=SHAPE_REPRESENTATION_RELATIONSHIP('','',#475,#19);
#19=ADVANCED_BREP_SHAPE_REPRESENTATION('',(#473),#706);
#20=PLANE('',#484);
#21=PLANE('',#488);
#22=PLANE('',#504);
#23=PLANE('',#516);
#24=PLANE('',#522);
#25=CYLINDRICAL_SURFACE('',#482,4.);
#26=CYLINDRICAL_SURFACE('',#486,2.7);
#27=CYLINDRICAL_SURFACE('',#492,6.);
#28=CYLINDRICAL_SURFACE('',#496,5.5);
#29=CYLINDRICAL_SURFACE('',#500,7.25);
#30=CYLINDRICAL_SURFACE('',#506,7.1);
#31=CYLINDRICAL_SURFACE('',#512,7.1);
#32=CYLINDRICAL_SURFACE('',#518,5.);
#33=CYLINDRICAL_SURFACE('',#524,6.9);
#34=TOROIDAL_SURFACE('',#480,4.29999999999999,0.299999999999988);
#35=TOROIDAL_SURFACE('',#490,5.8,0.2);
#36=TOROIDAL_SURFACE('',#520,5.35000000000001,0.350000000000008);
#37=TOROIDAL_SURFACE('',#526,6.70000000000001,0.199999999999995);
#38=ORIENTED_EDGE('',*,*,#88,.T.);
#39=ORIENTED_EDGE('',*,*,#89,.F.);
#40=ORIENTED_EDGE('',*,*,#90,.T.);
#41=ORIENTED_EDGE('',*,*,#88,.F.);
#42=ORIENTED_EDGE('',*,*,#91,.T.);
#43=ORIENTED_EDGE('',*,*,#90,.F.);
#44=ORIENTED_EDGE('',*,*,#92,.T.);
#45=ORIENTED_EDGE('',*,*,#91,.F.);
#46=ORIENTED_EDGE('',*,*,#93,.T.);
#47=ORIENTED_EDGE('',*,*,#92,.F.);
#48=ORIENTED_EDGE('',*,*,#94,.T.);
#49=ORIENTED_EDGE('',*,*,#93,.F.);
#50=ORIENTED_EDGE('',*,*,#95,.T.);
#51=ORIENTED_EDGE('',*,*,#94,.F.);
#52=ORIENTED_EDGE('',*,*,#96,.T.);
#53=ORIENTED_EDGE('',*,*,#95,.F.);
#54=ORIENTED_EDGE('',*,*,#97,.T.);
#55=ORIENTED_EDGE('',*,*,#96,.F.);
#56=ORIENTED_EDGE('',*,*,#98,.T.);
#57=ORIENTED_EDGE('',*,*,#97,.F.);
#58=ORIENTED_EDGE('',*,*,#99,.T.);
#59=ORIENTED_EDGE('',*,*,#98,.F.);
#60=ORIENTED_EDGE('',*,*,#100,.T.);
#61=ORIENTED_EDGE('',*,*,#99,.F.);
#62=ORIENTED_EDGE('',*,*,#101,.T.);
#63=ORIENTED_EDGE('',*,*,#100,.F.);
#64=ORIENTED_EDGE('',*,*,#102,.T.);
#65=ORIENTED_EDGE('',*,*,#101,.F.);
#66=ORIENTED_EDGE('',*,*,#103,.T.);
#67=ORIENTED_EDGE('',*,*,#102,.F.);
#68=ORIENTED_EDGE('',*,*,#104,.T.);
#69=ORIENTED_EDGE('',*,*,#103,.F.);
#70=ORIENTED_EDGE('',*,*,#105,.T.);
#71=ORIENTED_EDGE('',*,*,#104,.F.);
#72=ORIENTED_EDGE('',*,*,#106,.T.);
#73=ORIENTED_EDGE('',*,*,#105,.F.);
#74=ORIENTED_EDGE('',*,*,#107,.T.);
#75=ORIENTED_EDGE('',*,*,#106,.F.);
#76=ORIENTED_EDGE('',*,*,#108,.T.);
#77=ORIENTED_EDGE('',*,*,#107,.F.);
#78=ORIENTED_EDGE('',*,*,#109,.T.);
#79=ORIENTED_EDGE('',*,*,#108,.F.);
#80=ORIENTED_EDGE('',*,*,#109,.F.);
#81=ORIENTED_EDGE('',*,*,#110,.T.);
#82=ORIENTED_EDGE('',*,*,#111,.T.);
#83=ORIENTED_EDGE('',*,*,#110,.F.);
#84=ORIENTED_EDGE('',*,*,#112,.T.);
#85=ORIENTED_EDGE('',*,*,#111,.F.);
#86=ORIENTED_EDGE('',*,*,#89,.T.);
#87=ORIENTED_EDGE('',*,*,#112,.F.);
#88=EDGE_CURVE('',#113,#113,#138,.T.);
#89=EDGE_CURVE('',#114,#114,#139,.T.);
#90=EDGE_CURVE('',#115,#115,#140,.T.);
#91=EDGE_CURVE('',#116,#116,#141,.T.);
#92=EDGE_CURVE('',#117,#117,#142,.T.);
#93=EDGE_CURVE('',#118,#118,#143,.T.);
#94=EDGE_CURVE('',#119,#119,#144,.T.);
#95=EDGE_CURVE('',#120,#120,#145,.T.);
#96=EDGE_CURVE('',#121,#121,#146,.T.);
#97=EDGE_CURVE('',#122,#122,#147,.T.);
#98=EDGE_CURVE('',#123,#123,#148,.T.);
#99=EDGE_CURVE('',#124,#124,#149,.T.);
#100=EDGE_CURVE('',#125,#125,#150,.T.);
#101=EDGE_CURVE('',#126,#126,#151,.T.);
#102=EDGE_CURVE('',#127,#127,#152,.T.);
#103=EDGE_CURVE('',#128,#128,#153,.T.);
#104=EDGE_CURVE('',#129,#129,#154,.T.);
#105=EDGE_CURVE('',#130,#130,#155,.T.);
#106=EDGE_CURVE('',#131,#131,#156,.T.);
#107=EDGE_CURVE('',#132,#132,#157,.T.);
#108=EDGE_CURVE('',#133,#133,#158,.T.);
#109=EDGE_CURVE('',#134,#134,#159,.T.);
#110=EDGE_CURVE('',#135,#135,#160,.T.);
#111=EDGE_CURVE('',#136,#136,#161,.T.);
#112=EDGE_CURVE('',#137,#137,#162,.T.);
#113=VERTEX_POINT('',#632);
#114=VERTEX_POINT('',#634);
#115=VERTEX_POINT('',#637);
#116=VERTEX_POINT('',#640);
#117=VERTEX_POINT('',#643);
#118=VERTEX_POINT('',#646);
#119=VERTEX_POINT('',#649);
#120=VERTEX_POINT('',#652);
#121=VERTEX_POINT('',#655);
#122=VERTEX_POINT('',#658);
#123=VERTEX_POINT('',#661);
#124=VERTEX_POINT('',#664);
#125=VERTEX_POINT('',#667);
#126=VERTEX_POINT('',#670);
#127=VERTEX_POINT('',#673);
#128=VERTEX_POINT('',#676);
#129=VERTEX_POINT('',#679);
#130=VERTEX_POINT('',#682);
#131=VERTEX_POINT('',#685);
#132=VERTEX_POINT('',#688);
#133=VERTEX_POINT('',#691);
#134=VERTEX_POINT('',#694);
#135=VERTEX_POINT('',#697);
#136=VERTEX_POINT('',#700);
#137=VERTEX_POINT('',#703);
#138=CIRCLE('',#478,4.29999999999997);
#139=CIRCLE('',#479,6.73472963553339);
#140=CIRCLE('',#481,4.);
#141=CIRCLE('',#483,4.);
#142=CIRCLE('',#485,2.7);
#143=CIRCLE('',#487,2.7);
#144=CIRCLE('',#489,5.8);
#145=CIRCLE('',#491,6.);
#146=CIRCLE('',#493,6.);
#147=CIRCLE('',#495,5.5);
#148=CIRCLE('',#497,5.5);
#149=CIRCLE('',#499,7.25);
#150=CIRCLE('',#501,7.25);
#151=CIRCLE('',#503,7.13154708740859);
#152=CIRCLE('',#505,7.1);
#153=CIRCLE('',#507,7.1);
#154=CIRCLE('',#509,7.);
#155=CIRCLE('',#511,7.1);
#156=CIRCLE('',#513,7.1);
#157=CIRCLE('',#515,6.95857864376269);
#158=CIRCLE('',#517,5.);
#159=CIRCLE('',#519,5.);
#160=CIRCLE('',#521,5.35);
#161=CIRCLE('',#523,6.9);
#162=CIRCLE('',#525,6.9);
#163=EDGE_LOOP('',(#38));
#164=EDGE_LOOP('',(#39));
#165=EDGE_LOOP('',(#40));
#166=EDGE_LOOP('',(#41));
#167=EDGE_LOOP('',(#42));
#168=EDGE_LOOP('',(#43));
#169=EDGE_LOOP('',(#44));
#170=EDGE_LOOP('',(#45));
#171=EDGE_LOOP('',(#46));
#172=EDGE_LOOP('',(#47));
#173=EDGE_LOOP('',(#48));
#174=EDGE_LOOP('',(#49));
#175=EDGE_LOOP('',(#50));
#176=EDGE_LOOP('',(#51));
#177=EDGE_LOOP('',(#52));
#178=EDGE_LOOP('',(#53));
#179=EDGE_LOOP('',(#54));
#180=EDGE_LOOP('',(#55));
#181=EDGE_LOOP('',(#56));
#182=EDGE_LOOP('',(#57));
#183=EDGE_LOOP('',(#58));
#184=EDGE_LOOP('',(#59));
#185=EDGE_LOOP('',(#60));
#186=EDGE_LOOP('',(#61));
#187=EDGE_LOOP('',(#62));
#188=EDGE_LOOP('',(#63));
#189=EDGE_LOOP('',(#64));
#190=EDGE_LOOP('',(#65));
#191=EDGE_LOOP('',(#66));
#192=EDGE_LOOP('',(#67));
#193=EDGE_LOOP('',(#68));
#194=EDGE_LOOP('',(#69));
#195=EDGE_LOOP('',(#70));
#196=EDGE_LOOP('',(#71));
#197=EDGE_LOOP('',(#72));
#198=EDGE_LOOP('',(#73));
#199=EDGE_LOOP('',(#74));
#200=EDGE_LOOP('',(#75));
#201=EDGE_LOOP('',(#76));
#202=EDGE_LOOP('',(#77));
#203=EDGE_LOOP('',(#78));
#204=EDGE_LOOP('',(#79));
#205=EDGE_LOOP('',(#80));
#206=EDGE_LOOP('',(#81));
#207=EDGE_LOOP('',(#82));
#208=EDGE_LOOP('',(#83));
#209=EDGE_LOOP('',(#84));
#210=EDGE_LOOP('',(#85));
#211=EDGE_LOOP('',(#86));
#212=EDGE_LOOP('',(#87));
#213=FACE_BOUND('',#163,.T.);
#214=FACE_BOUND('',#164,.T.);
#215=FACE_BOUND('',#165,.T.);
#216=FACE_BOUND('',#166,.T.);
#217=FACE_BOUND('',#167,.T.);
#218=FACE_BOUND('',#168,.T.);
#219=FACE_BOUND('',#169,.T.);
#220=FACE_BOUND('',#170,.T.);
#221=FACE_BOUND('',#171,.T.);
#222=FACE_BOUND('',#172,.T.);
#223=FACE_BOUND('',#173,.T.);
#224=FACE_BOUND('',#174,.T.);
#225=FACE_BOUND('',#175,.T.);
#226=FACE_BOUND('',#176,.T.);
#227=FACE_BOUND('',#177,.T.);
#228=FACE_BOUND('',#178,.T.);
#229=FACE_BOUND('',#179,.T.);
#230=FACE_BOUND('',#180,.T.);
#231=FACE_BOUND('',#181,.T.);
#232=FACE_BOUND('',#182,.T.);
#233=FACE_BOUND('',#183,.T.);
#234=FACE_BOUND('',#184,.T.);
#235=FACE_BOUND('',#185,.T.);
#236=FACE_BOUND('',#186,.T.);
#237=FACE_BOUND('',#187,.T.);
#238=FACE_BOUND('',#188,.T.);
#239=FACE_BOUND('',#189,.T.);
#240=FACE_BOUND('',#190,.T.);
#241=FACE_BOUND('',#191,.T.);
#242=FACE_BOUND('',#192,.T.);
#243=FACE_BOUND('',#193,.T.);
#244=FACE_BOUND('',#194,.T.);
#245=FACE_BOUND('',#195,.T.);
#246=FACE_BOUND('',#196,.T.);
#247=FACE_BOUND('',#197,.T.);
#248=FACE_BOUND('',#198,.T.);
#249=FACE_BOUND('',#199,.T.);
#250=FACE_BOUND('',#200,.T.);
#251=FACE_BOUND('',#201,.T.);
#252=FACE_BOUND('',#202,.T.);
#253=FACE_BOUND('',#203,.T.);
#254=FACE_BOUND('',#204,.T.);
#255=FACE_BOUND('',#205,.T.);
#256=FACE_BOUND('',#206,.T.);
#257=FACE_BOUND('',#207,.T.);
#258=FACE_BOUND('',#208,.T.);
#259=FACE_BOUND('',#209,.T.);
#260=FACE_BOUND('',#210,.T.);
#261=FACE_BOUND('',#211,.T.);
#262=FACE_BOUND('',#212,.T.);
#263=CONICAL_SURFACE('',#477,6.73472963553339,1.39626340159547);
#264=CONICAL_SURFACE('',#494,6.,1.0471975511966);
#265=CONICAL_SURFACE('',#498,5.5,0.785398163397447);
#266=CONICAL_SURFACE('',#502,7.25,0.0523598775598293);
#267=CONICAL_SURFACE('',#508,7.1,0.78539816339744);
#268=CONICAL_SURFACE('',#510,7.,0.78539816339744);
#269=CONICAL_SURFACE('',#514,7.1,0.785398163397457);
#270=STYLED_ITEM('',(#295),#447);
#271=STYLED_ITEM('',(#296),#448);
#272=STYLED_ITEM('',(#297),#449);
#273=STYLED_ITEM('',(#298),#450);
#274=STYLED_ITEM('',(#299),#451);
#275=STYLED_ITEM('',(#300),#452);
#276=STYLED_ITEM('',(#301),#453);
#277=STYLED_ITEM('',(#302),#454);
#278=STYLED_ITEM('',(#303),#455);
#279=STYLED_ITEM('',(#304),#456);
#280=STYLED_ITEM('',(#305),#457);
#281=STYLED_ITEM('',(#306),#458);
#282=STYLED_ITEM('',(#307),#459);
#283=STYLED_ITEM('',(#308),#460);
#284=STYLED_ITEM('',(#309),#461);
#285=STYLED_ITEM('',(#310),#462);
#286=STYLED_ITEM('',(#311),#463);
#287=STYLED_ITEM('',(#312),#464);
#288=STYLED_ITEM('',(#313),#465);
#289=STYLED_ITEM('',(#314),#466);
#290=STYLED_ITEM('',(#315),#467);
#291=STYLED_ITEM('',(#316),#468);
#292=STYLED_ITEM('',(#317),#469);
#293=STYLED_ITEM('',(#318),#470);
#294=STYLED_ITEM('',(#319),#471);
#295=PRESENTATION_STYLE_ASSIGNMENT((#320));
#296=PRESENTATION_STYLE_ASSIGNMENT((#321));
#297=PRESENTATION_STYLE_ASSIGNMENT((#322));
#298=PRESENTATION_STYLE_ASSIGNMENT((#323));
#299=PRESENTATION_STYLE_ASSIGNMENT((#324));
#300=PRESENTATION_STYLE_ASSIGNMENT((#325));
#301=PRESENTATION_STYLE_ASSIGNMENT((#326));
#302=PRESENTATION_STYLE_ASSIGNMENT((#327));
#303=PRESENTATION_STYLE_ASSIGNMENT((#328));
#304=PRESENTATION_STYLE_ASSIGNMENT((#329));
#305=PRESENTATION_STYLE_ASSIGNMENT((#330));
#306=PRESENTATION_STYLE_ASSIGNMENT((#331));
#307=PRESENTATION_STYLE_ASSIGNMENT((#332));
#308=PRESENTATION_STYLE_ASSIGNMENT((#333));
#309=PRESENTATION_STYLE_ASSIGNMENT((#334));
#310=PRESENTATION_STYLE_ASSIGNMENT((#335));
#311=PRESENTATION_STYLE_ASSIGNMENT((#336));
#312=PRESENTATION_STYLE_ASSIGNMENT((#337));
#313=PRESENTATION_STYLE_ASSIGNMENT((#338));
#314=PRESENTATION_STYLE_ASSIGNMENT((#339));
#315=PRESENTATION_STYLE_ASSIGNMENT((#340));
#316=PRESENTATION_STYLE_ASSIGNMENT((#341));
#317=PRESENTATION_STYLE_ASSIGNMENT((#342));
#318=PRESENTATION_STYLE_ASSIGNMENT((#343));
#319=PRESENTATION_STYLE_ASSIGNMENT((#344));
#320=SURFACE_STYLE_USAGE(.BOTH.,#345);
#321=SURFACE_STYLE_USAGE(.BOTH.,#346);
#322=SURFACE_STYLE_USAGE(.BOTH.,#347);
#323=SURFACE_STYLE_USAGE(.BOTH.,#348);
#324=SURFACE_STYLE_USAGE(.BOTH.,#349);
#325=SURFACE_STYLE_USAGE(.BOTH.,#350);
#326=SURFACE_STYLE_USAGE(.BOTH.,#351);
#327=SURFACE_STYLE_USAGE(.BOTH.,#352);
#328=SURFACE_STYLE_USAGE(.BOTH.,#353);
#329=SURFACE_STYLE_USAGE(.BOTH.,#354);
#330=SURFACE_STYLE_USAGE(.BOTH.,#355);
#331=SURFACE_STYLE_USAGE(.BOTH.,#356);
#332=SURFACE_STYLE_USAGE(.BOTH.,#357);
#333=SURFACE_STYLE_USAGE(.BOTH.,#358);
#334=SURFACE_STYLE_USAGE(.BOTH.,#359);
#335=SURFACE_STYLE_USAGE(.BOTH.,#360);
#336=SURFACE_STYLE_USAGE(.BOTH.,#361);
#337=SURFACE_STYLE_USAGE(.BOTH.,#362);
#338=SURFACE_STYLE_USAGE(.BOTH.,#363);
#339=SURFACE_STYLE_USAGE(.BOTH.,#364);
#340=SURFACE_STYLE_USAGE(.BOTH.,#365);
#341=SURFACE_STYLE_USAGE(.BOTH.,#366);
#342=SURFACE_STYLE_USAGE(.BOTH.,#367);
#343=SURFACE_STYLE_USAGE(.BOTH.,#368);
#344=SURFACE_STYLE_USAGE(.BOTH.,#369);
#345=SURFACE_SIDE_STYLE('',(#370));
#346=SURFACE_SIDE_STYLE('',(#371));
#347=SURFACE_SIDE_STYLE('',(#372));
#348=SURFACE_SIDE_STYLE('',(#373));
#349=SURFACE_SIDE_STYLE('',(#374));
#350=SURFACE_SIDE_STYLE('',(#375));
#351=SURFACE_SIDE_STYLE('',(#376));
#352=SURFACE_SIDE_STYLE('',(#377));
#353=SURFACE_SIDE_STYLE('',(#378));
#354=SURFACE_SIDE_STYLE('',(#379));
#355=SURFACE_SIDE_STYLE('',(#380));
#356=SURFACE_SIDE_STYLE('',(#381));
#357=SURFACE_SIDE_STYLE('',(#382));
#358=SURFACE_SIDE_STYLE('',(#383));
#359=SURFACE_SIDE_STYLE('',(#384));
#360=SURFACE_SIDE_STYLE('',(#385));
#361=SURFACE_SIDE_STYLE('',(#386));
#362=SURFACE_SIDE_STYLE('',(#387));
#363=SURFACE_SIDE_STYLE('',(#388));
#364=SURFACE_SIDE_STYLE('',(#389));
#365=SURFACE_SIDE_STYLE('',(#390));
#366=SURFACE_SIDE_STYLE('',(#391));
#367=SURFACE_SIDE_STYLE('',(#392));
#368=SURFACE_SIDE_STYLE('',(#393));
#369=SURFACE_SIDE_STYLE('',(#394));
#370=SURFACE_STYLE_FILL_AREA(#395);
#371=SURFACE_STYLE_FILL_AREA(#396);
#372=SURFACE_STYLE_FILL_AREA(#397);
#373=SURFACE_STYLE_FILL_AREA(#398);
#374=SURFACE_STYLE_FILL_AREA(#399);
#375=SURFACE_STYLE_FILL_AREA(#400);
#376=SURFACE_STYLE_FILL_AREA(#401);
#377=SURFACE_STYLE_FILL_AREA(#402);
#378=SURFACE_STYLE_FILL_AREA(#403);
#379=SURFACE_STYLE_FILL_AREA(#404);
#380=SURFACE_STYLE_FILL_AREA(#405);
#381=SURFACE_STYLE_FILL_AREA(#406);
#382=SURFACE_STYLE_FILL_AREA(#407);
#383=SURFACE_STYLE_FILL_AREA(#408);
#384=SURFACE_STYLE_FILL_AREA(#409);
#385=SURFACE_STYLE_FILL_AREA(#410);
#386=SURFACE_STYLE_FILL_AREA(#411);
#387=SURFACE_STYLE_FILL_AREA(#412);
#388=SURFACE_STYLE_FILL_AREA(#413);
#389=SURFACE_STYLE_FILL_AREA(#414);
#390=SURFACE_STYLE_FILL_AREA(#415);
#391=SURFACE_STYLE_FILL_AREA(#416);
#392=SURFACE_STYLE_FILL_AREA(#417);
#393=SURFACE_STYLE_FILL_AREA(#418);
#394=SURFACE_STYLE_FILL_AREA(#419);
#395=FILL_AREA_STYLE('',(#420));
#396=FILL_AREA_STYLE('',(#421));
#397=FILL_AREA_STYLE('',(#422));
#398=FILL_AREA_STYLE('',(#423));
#399=FILL_AREA_STYLE('',(#424));
#400=FILL_AREA_STYLE('',(#425));
#401=FILL_AREA_STYLE('',(#426));
#402=FILL_AREA_STYLE('',(#427));
#403=FILL_AREA_STYLE('',(#428));
#404=FILL_AREA_STYLE('',(#429));
#405=FILL_AREA_STYLE('',(#430));
#406=FILL_AREA_STYLE('',(#431));
#407=FILL_AREA_STYLE('',(#432));
#408=FILL_AREA_STYLE('',(#433));
#409=FILL_AREA_STYLE('',(#434));
#410=FILL_AREA_STYLE('',(#435));
#411=FILL_AREA_STYLE('',(#436));
#412=FILL_AREA_STYLE('',(#437));
#413=FILL_AREA_STYLE('',(#438));
#414=FILL_AREA_STYLE('',(#439));
#415=FILL_AREA_STYLE('',(#440));
#416=FILL_AREA_STYLE('',(#441));
#417=FILL_AREA_STYLE('',(#442));
#418=FILL_AREA_STYLE('',(#443));
#419=FILL_AREA_STYLE('',(#444));
#420=FILL_AREA_STYLE_COLOUR('',#445);
#421=FILL_AREA_STYLE_COLOUR('',#445);
#422=FILL_AREA_STYLE_COLOUR('',#446);
#423=FILL_AREA_STYLE_COLOUR('',#446);
#424=FILL_AREA_STYLE_COLOUR('',#446);
#425=FILL_AREA_STYLE_COLOUR('',#446);
#426=FILL_AREA_STYLE_COLOUR('',#446);
#427=FILL_AREA_STYLE_COLOUR('',#446);
#428=FILL_AREA_STYLE_COLOUR('',#446);
#429=FILL_AREA_STYLE_COLOUR('',#446);
#430=FILL_AREA_STYLE_COLOUR('',#446);
#431=FILL_AREA_STYLE_COLOUR('',#446);
#432=FILL_AREA_STYLE_COLOUR('',#446);
#433=FILL_AREA_STYLE_COLOUR('',#446);
#434=FILL_AREA_STYLE_COLOUR('',#446);
#435=FILL_AREA_STYLE_COLOUR('',#446);
#436=FILL_AREA_STYLE_COLOUR('',#446);
#437=FILL_AREA_STYLE_COLOUR('',#446);
#438=FILL_AREA_STYLE_COLOUR('',#446);
#439=FILL_AREA_STYLE_COLOUR('',#446);
#440=FILL_AREA_STYLE_COLOUR('',#445);
#441=FILL_AREA_STYLE_COLOUR('',#445);
#442=FILL_AREA_STYLE_COLOUR('',#445);
#443=FILL_AREA_STYLE_COLOUR('',#445);
#444=FILL_AREA_STYLE_COLOUR('',#445);
#445=COLOUR_RGB('',0.,0.60000002384186,1.);
#446=COLOUR_RGB('',0.689999997615814,0.689999997615814,0.689999997615814);
#447=ADVANCED_FACE('',(#213,#214),#263,.T.);
#448=ADVANCED_FACE('',(#215,#216),#34,.T.);
#449=ADVANCED_FACE('',(#217,#218),#25,.F.);
#450=ADVANCED_FACE('',(#219,#220),#20,.T.);
#451=ADVANCED_FACE('',(#221,#222),#26,.F.);
#452=ADVANCED_FACE('',(#223,#224),#21,.T.);
#453=ADVANCED_FACE('',(#225,#226),#35,.T.);
#454=ADVANCED_FACE('',(#227,#228),#27,.T.);
#455=ADVANCED_FACE('',(#229,#230),#264,.T.);
#456=ADVANCED_FACE('',(#231,#232),#28,.T.);
#457=ADVANCED_FACE('',(#233,#234),#265,.T.);
#458=ADVANCED_FACE('',(#235,#236),#29,.T.);
#459=ADVANCED_FACE('',(#237,#238),#266,.T.);
#460=ADVANCED_FACE('',(#239,#240),#22,.T.);
#461=ADVANCED_FACE('',(#241,#242),#30,.T.);
#462=ADVANCED_FACE('',(#243,#244),#267,.T.);
#463=ADVANCED_FACE('',(#245,#246),#268,.T.);
#464=ADVANCED_FACE('',(#247,#248),#31,.T.);
#465=ADVANCED_FACE('',(#249,#250),#269,.T.);
#466=ADVANCED_FACE('',(#251,#252),#23,.T.);
#467=ADVANCED_FACE('',(#253,#254),#32,.T.);
#468=ADVANCED_FACE('',(#255,#256),#36,.F.);
#469=ADVANCED_FACE('',(#257,#258),#24,.T.);
#470=ADVANCED_FACE('',(#259,#260),#33,.T.);
#471=ADVANCED_FACE('',(#261,#262),#37,.T.);
#472=CLOSED_SHELL('',(#447,#448,#449,#450,#451,#452,#453,#454,#455,#456,
#457,#458,#459,#460,#461,#462,#463,#464,#465,#466,#467,#468,#469,#470,#471));
#473=MANIFOLD_SOLID_BREP('130624 QS-12H-8',#472);
#474=SHAPE_DEFINITION_REPRESENTATION(#711,#475);
#475=SHAPE_REPRESENTATION('130624 QS-12H-8',(#476),#706);
#476=AXIS2_PLACEMENT_3D('',#629,#527,#528);
#477=AXIS2_PLACEMENT_3D('',#630,#529,#530);
#478=AXIS2_PLACEMENT_3D('',#631,#531,#532);
#479=AXIS2_PLACEMENT_3D('',#633,#533,#534);
#480=AXIS2_PLACEMENT_3D('',#635,#535,#536);
#481=AXIS2_PLACEMENT_3D('',#636,#537,#538);
#482=AXIS2_PLACEMENT_3D('',#638,#539,#540);
#483=AXIS2_PLACEMENT_3D('',#639,#541,#542);
#484=AXIS2_PLACEMENT_3D('',#641,#543,#544);
#485=AXIS2_PLACEMENT_3D('',#642,#545,#546);
#486=AXIS2_PLACEMENT_3D('',#644,#547,#548);
#487=AXIS2_PLACEMENT_3D('',#645,#549,#550);
#488=AXIS2_PLACEMENT_3D('',#647,#551,#552);
#489=AXIS2_PLACEMENT_3D('',#648,#553,#554);
#490=AXIS2_PLACEMENT_3D('',#650,#555,#556);
#491=AXIS2_PLACEMENT_3D('',#651,#557,#558);
#492=AXIS2_PLACEMENT_3D('',#653,#559,#560);
#493=AXIS2_PLACEMENT_3D('',#654,#561,#562);
#494=AXIS2_PLACEMENT_3D('',#656,#563,#564);
#495=AXIS2_PLACEMENT_3D('',#657,#565,#566);
#496=AXIS2_PLACEMENT_3D('',#659,#567,#568);
#497=AXIS2_PLACEMENT_3D('',#660,#569,#570);
#498=AXIS2_PLACEMENT_3D('',#662,#571,#572);
#499=AXIS2_PLACEMENT_3D('',#663,#573,#574);
#500=AXIS2_PLACEMENT_3D('',#665,#575,#576);
#501=AXIS2_PLACEMENT_3D('',#666,#577,#578);
#502=AXIS2_PLACEMENT_3D('',#668,#579,#580);
#503=AXIS2_PLACEMENT_3D('',#669,#581,#582);
#504=AXIS2_PLACEMENT_3D('',#671,#583,#584);
#505=AXIS2_PLACEMENT_3D('',#672,#585,#586);
#506=AXIS2_PLACEMENT_3D('',#674,#587,#588);
#507=AXIS2_PLACEMENT_3D('',#675,#589,#590);
#508=AXIS2_PLACEMENT_3D('',#677,#591,#592);
#509=AXIS2_PLACEMENT_3D('',#678,#593,#594);
#510=AXIS2_PLACEMENT_3D('',#680,#595,#596);
#511=AXIS2_PLACEMENT_3D('',#681,#597,#598);
#512=AXIS2_PLACEMENT_3D('',#683,#599,#600);
#513=AXIS2_PLACEMENT_3D('',#684,#601,#602);
#514=AXIS2_PLACEMENT_3D('',#686,#603,#604);
#515=AXIS2_PLACEMENT_3D('',#687,#605,#606);
#516=AXIS2_PLACEMENT_3D('',#689,#607,#608);
#517=AXIS2_PLACEMENT_3D('',#690,#609,#610);
#518=AXIS2_PLACEMENT_3D('',#692,#611,#612);
#519=AXIS2_PLACEMENT_3D('',#693,#613,#614);
#520=AXIS2_PLACEMENT_3D('',#695,#615,#616);
#521=AXIS2_PLACEMENT_3D('',#696,#617,#618);
#522=AXIS2_PLACEMENT_3D('',#698,#619,#620);
#523=AXIS2_PLACEMENT_3D('',#699,#621,#622);
#524=AXIS2_PLACEMENT_3D('',#701,#623,#624);
#525=AXIS2_PLACEMENT_3D('',#702,#625,#626);
#526=AXIS2_PLACEMENT_3D('',#704,#627,#628);
#527=DIRECTION('',(0.,0.,1.));
#528=DIRECTION('',(1.,0.,0.));
#529=DIRECTION('',(0.,0.,-1.));
#530=DIRECTION('',(-1.,0.,0.));
#531=DIRECTION('',(0.,0.,-1.));
#532=DIRECTION('',(-1.,0.,0.));
#533=DIRECTION('',(0.,0.,-1.));
#534=DIRECTION('',(-1.,0.,0.));
#535=DIRECTION('',(0.,0.,-1.));
#536=DIRECTION('',(-1.,0.,0.));
#537=DIRECTION('',(0.,0.,-1.));
#538=DIRECTION('',(-1.,0.,0.));
#539=DIRECTION('',(0.,0.,-1.));
#540=DIRECTION('',(-1.,0.,0.));
#541=DIRECTION('',(0.,0.,-1.));
#542=DIRECTION('',(-1.,0.,0.));
#543=DIRECTION('',(0.,0.,1.));
#544=DIRECTION('',(1.,0.,0.));
#545=DIRECTION('',(0.,0.,-1.));
#546=DIRECTION('',(-1.,0.,0.));
#547=DIRECTION('',(0.,0.,-1.));
#548=DIRECTION('',(-1.,0.,0.));
#549=DIRECTION('',(0.,0.,-1.));
#550=DIRECTION('',(-1.,0.,0.));
#551=DIRECTION('',(0.,0.,-1.));
#552=DIRECTION('',(-1.,0.,0.));
#553=DIRECTION('',(0.,0.,-1.));
#554=DIRECTION('',(-1.,0.,0.));
#555=DIRECTION('',(0.,0.,-1.));
#556=DIRECTION('',(-1.,0.,0.));
#557=DIRECTION('',(0.,0.,-1.));
#558=DIRECTION('',(-1.,0.,0.));
#559=DIRECTION('',(0.,0.,-1.));
#560=DIRECTION('',(-1.,0.,0.));
#561=DIRECTION('',(0.,0.,-1.));
#562=DIRECTION('',(-1.,0.,0.));
#563=DIRECTION('',(0.,0.,-1.));
#564=DIRECTION('',(-1.,0.,0.));
#565=DIRECTION('',(0.,0.,-1.));
#566=DIRECTION('',(-1.,0.,0.));
#567=DIRECTION('',(0.,0.,-1.));
#568=DIRECTION('',(-1.,0.,0.));
#569=DIRECTION('',(0.,0.,-1.));
#570=DIRECTION('',(-1.,0.,0.));
#571=DIRECTION('',(0.,0.,1.));
#572=DIRECTION('',(1.,0.,0.));
#573=DIRECTION('',(0.,0.,-1.));
#574=DIRECTION('',(-1.,0.,0.));
#575=DIRECTION('',(0.,0.,-1.));
#576=DIRECTION('',(-1.,0.,0.));
#577=DIRECTION('',(0.,0.,-1.));
#578=DIRECTION('',(-1.,0.,0.));
#579=DIRECTION('',(0.,0.,-1.));
#580=DIRECTION('',(-1.,0.,0.));
#581=DIRECTION('',(0.,0.,-1.));
#582=DIRECTION('',(-1.,0.,0.));
#583=DIRECTION('',(0.,0.,1.));
#584=DIRECTION('',(1.,0.,0.));
#585=DIRECTION('',(0.,0.,-1.));
#586=DIRECTION('',(-1.,0.,0.));
#587=DIRECTION('',(0.,0.,-1.));
#588=DIRECTION('',(-1.,0.,0.));
#589=DIRECTION('',(0.,0.,-1.));
#590=DIRECTION('',(-1.,0.,0.));
#591=DIRECTION('',(0.,0.,-1.));
#592=DIRECTION('',(-1.,0.,0.));
#593=DIRECTION('',(0.,0.,-1.));
#594=DIRECTION('',(-1.,0.,0.));
#595=DIRECTION('',(0.,0.,1.));
#596=DIRECTION('',(1.,0.,0.));
#597=DIRECTION('',(0.,0.,-1.));
#598=DIRECTION('',(-1.,0.,0.));
#599=DIRECTION('',(0.,0.,-1.));
#600=DIRECTION('',(-1.,0.,0.));
#601=DIRECTION('',(0.,0.,-1.));
#602=DIRECTION('',(-1.,0.,0.));
#603=DIRECTION('',(0.,0.,-1.));
#604=DIRECTION('',(-1.,0.,0.));
#605=DIRECTION('',(0.,0.,-1.));
#606=DIRECTION('',(-1.,0.,0.));
#607=DIRECTION('',(0.,0.,1.));
#608=DIRECTION('',(1.,0.,0.));
#609=DIRECTION('',(0.,0.,-1.));
#610=DIRECTION('',(-1.,0.,0.));
#611=DIRECTION('',(0.,0.,-1.));
#612=DIRECTION('',(-1.,0.,0.));
#613=DIRECTION('',(0.,0.,-1.));
#614=DIRECTION('',(-1.,0.,0.));
#615=DIRECTION('',(0.,0.,-1.));
#616=DIRECTION('',(-1.,0.,0.));
#617=DIRECTION('',(0.,0.,-1.));
#618=DIRECTION('',(-1.,0.,0.));
#619=DIRECTION('',(0.,0.,-1.));
#620=DIRECTION('',(-1.,0.,0.));
#621=DIRECTION('',(0.,0.,-1.));
#622=DIRECTION('',(-1.,0.,0.));
#623=DIRECTION('',(0.,0.,-1.));
#624=DIRECTION('',(-1.,0.,0.));
#625=DIRECTION('',(0.,0.,-1.));
#626=DIRECTION('',(-1.,0.,0.));
#627=DIRECTION('',(0.,0.,-1.));
#628=DIRECTION('',(-1.,0.,0.));
#629=CARTESIAN_POINT('',(0.,0.,0.));
#630=CARTESIAN_POINT('',(0.,0.,49.270691474525));
#631=CARTESIAN_POINT('',(0.,0.,49.7));
#632=CARTESIAN_POINT('',(-4.29999999999997,0.,49.7));
#633=CARTESIAN_POINT('',(0.,0.,49.270691474525));
#634=CARTESIAN_POINT('',(-6.73472963553339,0.,49.270691474525));
#635=CARTESIAN_POINT('',(0.,0.,49.4));
#636=CARTESIAN_POINT('',(0.,0.,49.4));
#637=CARTESIAN_POINT('',(-4.,0.,49.4));
#638=CARTESIAN_POINT('',(0.,0.,0.));
#639=CARTESIAN_POINT('',(0.,0.,31.6));
#640=CARTESIAN_POINT('',(-4.,0.,31.6));
#641=CARTESIAN_POINT('',(0.,4.,31.6));
#642=CARTESIAN_POINT('',(0.,0.,31.6));
#643=CARTESIAN_POINT('',(-2.7,0.,31.6));
#644=CARTESIAN_POINT('',(0.,0.,0.));
#645=CARTESIAN_POINT('',(0.,0.,0.));
#646=CARTESIAN_POINT('',(-2.7,0.,0.));
#647=CARTESIAN_POINT('',(0.,2.7,0.));
#648=CARTESIAN_POINT('',(0.,0.,0.));
#649=CARTESIAN_POINT('',(-5.8,0.,0.));
#650=CARTESIAN_POINT('',(0.,0.,0.2));
#651=CARTESIAN_POINT('',(0.,0.,0.2));
#652=CARTESIAN_POINT('',(-6.,0.,0.2));
#653=CARTESIAN_POINT('',(0.,0.,0.));
#654=CARTESIAN_POINT('',(0.,0.,29.));
#655=CARTESIAN_POINT('',(-6.,0.,29.));
#656=CARTESIAN_POINT('',(0.,0.,29.));
#657=CARTESIAN_POINT('',(0.,0.,29.2886751345948));
#658=CARTESIAN_POINT('',(-5.5,0.,29.2886751345948));
#659=CARTESIAN_POINT('',(0.,0.,0.));
#660=CARTESIAN_POINT('',(0.,0.,31.));
#661=CARTESIAN_POINT('',(-5.5,0.,31.));
#662=CARTESIAN_POINT('',(0.,0.,31.));
#663=CARTESIAN_POINT('',(0.,0.,32.75));
#664=CARTESIAN_POINT('',(-7.25,0.,32.75));
#665=CARTESIAN_POINT('',(0.,0.,0.));
#666=CARTESIAN_POINT('',(0.,0.,42.9864864864865));
#667=CARTESIAN_POINT('',(-7.25,0.,42.9864864864865));
#668=CARTESIAN_POINT('',(0.,0.,42.9864864864865));
#669=CARTESIAN_POINT('',(0.,0.,45.2467027027027));
#670=CARTESIAN_POINT('',(-7.13154708740859,0.,45.2467027027027));
#671=CARTESIAN_POINT('',(0.,7.13154708740859,45.2467027027027));
#672=CARTESIAN_POINT('',(0.,0.,45.2467027027027));
#673=CARTESIAN_POINT('',(-7.1,0.,45.2467027027027));
#674=CARTESIAN_POINT('',(0.,0.,0.));
#675=CARTESIAN_POINT('',(0.,0.,45.9747027027027));
#676=CARTESIAN_POINT('',(-7.1,0.,45.9747027027027));
#677=CARTESIAN_POINT('',(0.,0.,45.9747027027027));
#678=CARTESIAN_POINT('',(0.,0.,46.0747027027027));
#679=CARTESIAN_POINT('',(-7.,0.,46.0747027027027));
#680=CARTESIAN_POINT('',(0.,0.,46.0747027027027));
#681=CARTESIAN_POINT('',(0.,0.,46.1747027027027));
#682=CARTESIAN_POINT('',(-7.1,0.,46.1747027027027));
#683=CARTESIAN_POINT('',(0.,0.,0.));
#684=CARTESIAN_POINT('',(0.,0.,46.7612813464654));
#685=CARTESIAN_POINT('',(-7.1,0.,46.7612813464654));
#686=CARTESIAN_POINT('',(0.,0.,46.7612813464654));
#687=CARTESIAN_POINT('',(0.,0.,46.9027027027027));
#688=CARTESIAN_POINT('',(-6.95857864376269,0.,46.9027027027027));
#689=CARTESIAN_POINT('',(0.,6.95857864376269,46.9027027027027));
#690=CARTESIAN_POINT('',(0.,0.,46.9027027027027));
#691=CARTESIAN_POINT('',(-5.,0.,46.9027027027027));
#692=CARTESIAN_POINT('',(0.,0.,0.));
#693=CARTESIAN_POINT('',(0.,0.,47.6716216216216));
#694=CARTESIAN_POINT('',(-5.,0.,47.6716216216216));
#695=CARTESIAN_POINT('',(0.,0.,47.6716216216216));
#696=CARTESIAN_POINT('',(0.,0.,48.0216216216216));
#697=CARTESIAN_POINT('',(-5.35,0.,48.0216216216216));
#698=CARTESIAN_POINT('',(0.,5.35,48.0216216216216));
#699=CARTESIAN_POINT('',(0.,0.,48.0216216216216));
#700=CARTESIAN_POINT('',(-6.9,0.,48.0216216216216));
#701=CARTESIAN_POINT('',(0.,0.,0.));
#702=CARTESIAN_POINT('',(0.,0.,49.0737299239225));
#703=CARTESIAN_POINT('',(-6.9,0.,49.0737299239225));
#704=CARTESIAN_POINT('',(0.,0.,49.0737299239225));
#705=MECHANICAL_DESIGN_GEOMETRIC_PRESENTATION_REPRESENTATION('',(#270,#271,
#272,#273,#274,#275,#276,#277,#278,#279,#280,#281,#282,#283,#284,#285,#286,
#287,#288,#289,#290,#291,#292,#293,#294),#706);
#706=(
GEOMETRIC_REPRESENTATION_CONTEXT(3)
GLOBAL_UNCERTAINTY_ASSIGNED_CONTEXT((#707))
GLOBAL_UNIT_ASSIGNED_CONTEXT((#710,#709,#708))
REPRESENTATION_CONTEXT('130624 QS-12H-8','TOP_LEVEL_ASSEMBLY_PART')
);
#707=UNCERTAINTY_MEASURE_WITH_UNIT(LENGTH_MEASURE(0.005),#710,
'DISTANCE_ACCURACY_VALUE','Maximum Tolerance applied to model');
#708=(
NAMED_UNIT(*)
SI_UNIT($,.STERADIAN.)
SOLID_ANGLE_UNIT()
);
#709=(
NAMED_UNIT(*)
PLANE_ANGLE_UNIT()
SI_UNIT($,.RADIAN.)
);
#710=(
LENGTH_UNIT()
NAMED_UNIT(*)
SI_UNIT(.MILLI.,.METRE.)
);
#711=PRODUCT_DEFINITION_SHAPE('','',#712);
#712=PRODUCT_DEFINITION('','',#714,#713);
#713=PRODUCT_DEFINITION_CONTEXT('',#720,'design');
#714=PRODUCT_DEFINITION_FORMATION_WITH_SPECIFIED_SOURCE('','',#716,
 .NOT_KNOWN.);
#715=PRODUCT_RELATED_PRODUCT_CATEGORY('','',(#716));
#716=PRODUCT('130624 QS-12H-8','130624 QS-12H-8','130624 QS-12H-8',(#718));
#717=PRODUCT_CATEGORY('','');
#718=PRODUCT_CONTEXT('',#720,'mechanical');
#719=APPLICATION_PROTOCOL_DEFINITION('international standard',
'automotive_design',2010,#720);
#720=APPLICATION_CONTEXT(
'core data for automotive mechanical design processes');
ENDSEC;
END-ISO-10303-21;
