ISO-10303-21;
HEADER;
/* Generated by software containing ST-Developer
 * from STEP Tools, Inc. (www.steptools.com) 
 */
/* OPTION: using custom renumber hook */

FILE_DESCRIPTION(
/* description */ ('STEP AP214'),
/* implementation_level */ '2;1');

FILE_NAME(
/* name */ '132340_MA-15-10-M5',
/* time_stamp */ '2024-09-02T08:06:38+02:00',
/* author */ ('License CC BY-ND 4.0'),
/* organization */ ('CADENAS'),
/* preprocessor_version */ 'ST-DEVELOPER v19.3',
/* originating_system */ 'PARTsolutions',
/* authorisation */ '  ');

FILE_SCHEMA (('AUTOMOTIVE_DESIGN {1 0 10303 214 3 1 1}'));
ENDSEC;

DATA;
#10=PROPERTY_DEFINITION_REPRESENTATION(#14,#12);
#11=PROPERTY_DEFINITION_REPRESENTATION(#15,#13);
#12=REPRESENTATION('',(#16),#661);
#13=REPRESENTATION('',(#17),#661);
#14=PROPERTY_DEFINITION('pmi validation property','',#666);
#15=PROPERTY_DEFINITION('pmi validation property','',#666);
#16=VALUE_REPRESENTATION_ITEM('number of annotations',COUNT_MEASURE(0.));
#17=VALUE_REPRESENTATION_ITEM('number of views',COUNT_MEASURE(0.));
#18=SHAPE_REPRESENTATION_RELATIONSHIP('','',#389,#19);
#19=ADVANCED_BREP_SHAPE_REPRESENTATION('',(#387),#661);
#20=CONICAL_SURFACE('',#414,2.5,0.785398163397448);
#21=LINE('',#560,#45);
#22=LINE('',#565,#46);
#23=LINE('',#569,#47);
#24=LINE('',#573,#48);
#25=LINE('',#577,#49);
#26=LINE('',#581,#50);
#27=LINE('',#585,#51);
#28=LINE('',#589,#52);
#29=LINE('',#593,#53);
#30=LINE('',#597,#54);
#31=LINE('',#601,#55);
#32=LINE('',#605,#56);
#33=LINE('',#611,#57);
#34=LINE('',#612,#58);
#35=LINE('',#613,#59);
#36=LINE('',#614,#60);
#37=LINE('',#615,#61);
#38=LINE('',#616,#62);
#39=LINE('',#643,#63);
#40=LINE('',#646,#64);
#41=LINE('',#649,#65);
#42=LINE('',#652,#66);
#43=LINE('',#655,#67);
#44=LINE('',#658,#68);
#45=VECTOR('',#445,1000.);
#46=VECTOR('',#448,1000.);
#47=VECTOR('',#451,1000.);
#48=VECTOR('',#454,1000.);
#49=VECTOR('',#457,1000.);
#50=VECTOR('',#460,1000.);
#51=VECTOR('',#463,1000.);
#52=VECTOR('',#466,1000.);
#53=VECTOR('',#469,1000.);
#54=VECTOR('',#472,1000.);
#55=VECTOR('',#475,1000.);
#56=VECTOR('',#478,1000.);
#57=VECTOR('',#485,1000.);
#58=VECTOR('',#486,1000.);
#59=VECTOR('',#487,1000.);
#60=VECTOR('',#488,1000.);
#61=VECTOR('',#489,1000.);
#62=VECTOR('',#490,1000.);
#63=VECTOR('',#527,1000.);
#64=VECTOR('',#532,1000.);
#65=VECTOR('',#537,1000.);
#66=VECTOR('',#542,1000.);
#67=VECTOR('',#547,1000.);
#68=VECTOR('',#552,1000.);
#69=CYLINDRICAL_SURFACE('',#393,7.5);
#70=CYLINDRICAL_SURFACE('',#408,3.9);
#71=CYLINDRICAL_SURFACE('',#412,2.5);
#72=CYLINDRICAL_SURFACE('',#418,1.);
#73=CYLINDRICAL_SURFACE('',#422,0.75);
#74=ORIENTED_EDGE('',*,*,#166,.F.);
#75=ORIENTED_EDGE('',*,*,#167,.T.);
#76=ORIENTED_EDGE('',*,*,#168,.T.);
#77=ORIENTED_EDGE('',*,*,#169,.T.);
#78=ORIENTED_EDGE('',*,*,#170,.F.);
#79=ORIENTED_EDGE('',*,*,#171,.T.);
#80=ORIENTED_EDGE('',*,*,#172,.T.);
#81=ORIENTED_EDGE('',*,*,#173,.T.);
#82=ORIENTED_EDGE('',*,*,#174,.F.);
#83=ORIENTED_EDGE('',*,*,#175,.T.);
#84=ORIENTED_EDGE('',*,*,#176,.T.);
#85=ORIENTED_EDGE('',*,*,#177,.T.);
#86=ORIENTED_EDGE('',*,*,#178,.F.);
#87=ORIENTED_EDGE('',*,*,#179,.T.);
#88=ORIENTED_EDGE('',*,*,#180,.T.);
#89=ORIENTED_EDGE('',*,*,#181,.T.);
#90=ORIENTED_EDGE('',*,*,#182,.F.);
#91=ORIENTED_EDGE('',*,*,#183,.T.);
#92=ORIENTED_EDGE('',*,*,#184,.T.);
#93=ORIENTED_EDGE('',*,*,#185,.T.);
#94=ORIENTED_EDGE('',*,*,#186,.F.);
#95=ORIENTED_EDGE('',*,*,#187,.T.);
#96=ORIENTED_EDGE('',*,*,#188,.T.);
#97=ORIENTED_EDGE('',*,*,#189,.T.);
#98=ORIENTED_EDGE('',*,*,#190,.F.);
#99=ORIENTED_EDGE('',*,*,#166,.T.);
#100=ORIENTED_EDGE('',*,*,#191,.F.);
#101=ORIENTED_EDGE('',*,*,#182,.T.);
#102=ORIENTED_EDGE('',*,*,#192,.T.);
#103=ORIENTED_EDGE('',*,*,#178,.T.);
#104=ORIENTED_EDGE('',*,*,#193,.T.);
#105=ORIENTED_EDGE('',*,*,#174,.T.);
#106=ORIENTED_EDGE('',*,*,#194,.T.);
#107=ORIENTED_EDGE('',*,*,#170,.T.);
#108=ORIENTED_EDGE('',*,*,#195,.T.);
#109=ORIENTED_EDGE('',*,*,#190,.T.);
#110=ORIENTED_EDGE('',*,*,#196,.T.);
#111=ORIENTED_EDGE('',*,*,#186,.T.);
#112=ORIENTED_EDGE('',*,*,#197,.T.);
#113=ORIENTED_EDGE('',*,*,#198,.F.);
#114=ORIENTED_EDGE('',*,*,#191,.T.);
#115=ORIENTED_EDGE('',*,*,#199,.F.);
#116=ORIENTED_EDGE('',*,*,#198,.T.);
#117=ORIENTED_EDGE('',*,*,#200,.F.);
#118=ORIENTED_EDGE('',*,*,#199,.T.);
#119=ORIENTED_EDGE('',*,*,#201,.F.);
#120=ORIENTED_EDGE('',*,*,#200,.T.);
#121=ORIENTED_EDGE('',*,*,#202,.F.);
#122=ORIENTED_EDGE('',*,*,#201,.T.);
#123=ORIENTED_EDGE('',*,*,#203,.F.);
#124=ORIENTED_EDGE('',*,*,#202,.T.);
#125=ORIENTED_EDGE('',*,*,#204,.F.);
#126=ORIENTED_EDGE('',*,*,#203,.T.);
#127=ORIENTED_EDGE('',*,*,#205,.F.);
#128=ORIENTED_EDGE('',*,*,#204,.T.);
#129=ORIENTED_EDGE('',*,*,#205,.T.);
#130=ORIENTED_EDGE('',*,*,#206,.F.);
#131=ORIENTED_EDGE('',*,*,#183,.F.);
#132=ORIENTED_EDGE('',*,*,#197,.F.);
#133=ORIENTED_EDGE('',*,*,#185,.F.);
#134=ORIENTED_EDGE('',*,*,#206,.T.);
#135=ORIENTED_EDGE('',*,*,#184,.F.);
#136=ORIENTED_EDGE('',*,*,#207,.F.);
#137=ORIENTED_EDGE('',*,*,#187,.F.);
#138=ORIENTED_EDGE('',*,*,#196,.F.);
#139=ORIENTED_EDGE('',*,*,#189,.F.);
#140=ORIENTED_EDGE('',*,*,#207,.T.);
#141=ORIENTED_EDGE('',*,*,#188,.F.);
#142=ORIENTED_EDGE('',*,*,#208,.F.);
#143=ORIENTED_EDGE('',*,*,#167,.F.);
#144=ORIENTED_EDGE('',*,*,#195,.F.);
#145=ORIENTED_EDGE('',*,*,#169,.F.);
#146=ORIENTED_EDGE('',*,*,#208,.T.);
#147=ORIENTED_EDGE('',*,*,#168,.F.);
#148=ORIENTED_EDGE('',*,*,#209,.F.);
#149=ORIENTED_EDGE('',*,*,#171,.F.);
#150=ORIENTED_EDGE('',*,*,#194,.F.);
#151=ORIENTED_EDGE('',*,*,#173,.F.);
#152=ORIENTED_EDGE('',*,*,#209,.T.);
#153=ORIENTED_EDGE('',*,*,#172,.F.);
#154=ORIENTED_EDGE('',*,*,#210,.F.);
#155=ORIENTED_EDGE('',*,*,#175,.F.);
#156=ORIENTED_EDGE('',*,*,#193,.F.);
#157=ORIENTED_EDGE('',*,*,#177,.F.);
#158=ORIENTED_EDGE('',*,*,#210,.T.);
#159=ORIENTED_EDGE('',*,*,#176,.F.);
#160=ORIENTED_EDGE('',*,*,#211,.T.);
#161=ORIENTED_EDGE('',*,*,#180,.F.);
#162=ORIENTED_EDGE('',*,*,#211,.F.);
#163=ORIENTED_EDGE('',*,*,#179,.F.);
#164=ORIENTED_EDGE('',*,*,#192,.F.);
#165=ORIENTED_EDGE('',*,*,#181,.F.);
#166=EDGE_CURVE('',#212,#212,#246,.T.);
#167=EDGE_CURVE('',#213,#214,#21,.F.);
#168=EDGE_CURVE('',#214,#215,#247,.T.);
#169=EDGE_CURVE('',#215,#216,#22,.T.);
#170=EDGE_CURVE('',#217,#216,#248,.T.);
#171=EDGE_CURVE('',#217,#218,#23,.F.);
#172=EDGE_CURVE('',#218,#219,#249,.T.);
#173=EDGE_CURVE('',#219,#220,#24,.T.);
#174=EDGE_CURVE('',#221,#220,#250,.T.);
#175=EDGE_CURVE('',#221,#222,#25,.F.);
#176=EDGE_CURVE('',#222,#223,#251,.T.);
#177=EDGE_CURVE('',#223,#224,#26,.T.);
#178=EDGE_CURVE('',#225,#224,#252,.T.);
#179=EDGE_CURVE('',#225,#226,#27,.F.);
#180=EDGE_CURVE('',#226,#227,#253,.T.);
#181=EDGE_CURVE('',#227,#228,#28,.T.);
#182=EDGE_CURVE('',#229,#228,#254,.T.);
#183=EDGE_CURVE('',#229,#230,#29,.F.);
#184=EDGE_CURVE('',#230,#231,#255,.T.);
#185=EDGE_CURVE('',#231,#232,#30,.T.);
#186=EDGE_CURVE('',#233,#232,#256,.T.);
#187=EDGE_CURVE('',#233,#234,#31,.F.);
#188=EDGE_CURVE('',#234,#235,#257,.T.);
#189=EDGE_CURVE('',#235,#236,#32,.T.);
#190=EDGE_CURVE('',#213,#236,#258,.T.);
#191=EDGE_CURVE('',#237,#237,#259,.T.);
#192=EDGE_CURVE('',#228,#225,#33,.T.);
#193=EDGE_CURVE('',#224,#221,#34,.T.);
#194=EDGE_CURVE('',#220,#217,#35,.T.);
#195=EDGE_CURVE('',#216,#213,#36,.T.);
#196=EDGE_CURVE('',#236,#233,#37,.T.);
#197=EDGE_CURVE('',#232,#229,#38,.T.);
#198=EDGE_CURVE('',#238,#238,#260,.T.);
#199=EDGE_CURVE('',#239,#239,#261,.T.);
#200=EDGE_CURVE('',#240,#240,#262,.T.);
#201=EDGE_CURVE('',#241,#241,#263,.T.);
#202=EDGE_CURVE('',#242,#242,#264,.T.);
#203=EDGE_CURVE('',#243,#243,#265,.T.);
#204=EDGE_CURVE('',#244,#244,#266,.T.);
#205=EDGE_CURVE('',#245,#245,#267,.T.);
#206=EDGE_CURVE('',#230,#231,#39,.T.);
#207=EDGE_CURVE('',#234,#235,#40,.T.);
#208=EDGE_CURVE('',#214,#215,#41,.T.);
#209=EDGE_CURVE('',#218,#219,#42,.T.);
#210=EDGE_CURVE('',#222,#223,#43,.T.);
#211=EDGE_CURVE('',#226,#227,#44,.T.);
#212=VERTEX_POINT('',#558);
#213=VERTEX_POINT('',#561);
#214=VERTEX_POINT('',#562);
#215=VERTEX_POINT('',#564);
#216=VERTEX_POINT('',#566);
#217=VERTEX_POINT('',#568);
#218=VERTEX_POINT('',#570);
#219=VERTEX_POINT('',#572);
#220=VERTEX_POINT('',#574);
#221=VERTEX_POINT('',#576);
#222=VERTEX_POINT('',#578);
#223=VERTEX_POINT('',#580);
#224=VERTEX_POINT('',#582);
#225=VERTEX_POINT('',#584);
#226=VERTEX_POINT('',#586);
#227=VERTEX_POINT('',#588);
#228=VERTEX_POINT('',#590);
#229=VERTEX_POINT('',#592);
#230=VERTEX_POINT('',#594);
#231=VERTEX_POINT('',#596);
#232=VERTEX_POINT('',#598);
#233=VERTEX_POINT('',#600);
#234=VERTEX_POINT('',#602);
#235=VERTEX_POINT('',#604);
#236=VERTEX_POINT('',#606);
#237=VERTEX_POINT('',#610);
#238=VERTEX_POINT('',#619);
#239=VERTEX_POINT('',#622);
#240=VERTEX_POINT('',#625);
#241=VERTEX_POINT('',#628);
#242=VERTEX_POINT('',#631);
#243=VERTEX_POINT('',#634);
#244=VERTEX_POINT('',#637);
#245=VERTEX_POINT('',#640);
#246=CIRCLE('',#392,7.5);
#247=CIRCLE('',#394,7.5);
#248=CIRCLE('',#395,7.5);
#249=CIRCLE('',#396,7.5);
#250=CIRCLE('',#397,7.5);
#251=CIRCLE('',#398,7.5);
#252=CIRCLE('',#399,7.5);
#253=CIRCLE('',#400,7.5);
#254=CIRCLE('',#401,7.5);
#255=CIRCLE('',#402,7.5);
#256=CIRCLE('',#403,7.5);
#257=CIRCLE('',#404,7.5);
#258=CIRCLE('',#405,7.5);
#259=CIRCLE('',#407,3.9);
#260=CIRCLE('',#409,3.9);
#261=CIRCLE('',#411,2.5);
#262=CIRCLE('',#413,2.5);
#263=CIRCLE('',#415,2.0095);
#264=CIRCLE('',#417,1.);
#265=CIRCLE('',#419,1.);
#266=CIRCLE('',#421,0.75);
#267=CIRCLE('',#423,0.75);
#268=EDGE_LOOP('',(#74));
#269=EDGE_LOOP('',(#75,#76,#77,#78,#79,#80,#81,#82,#83,#84,#85,#86,#87,
#88,#89,#90,#91,#92,#93,#94,#95,#96,#97,#98));
#270=EDGE_LOOP('',(#99));
#271=EDGE_LOOP('',(#100));
#272=EDGE_LOOP('',(#101,#102,#103,#104,#105,#106,#107,#108,#109,#110,#111,
#112));
#273=EDGE_LOOP('',(#113));
#274=EDGE_LOOP('',(#114));
#275=EDGE_LOOP('',(#115));
#276=EDGE_LOOP('',(#116));
#277=EDGE_LOOP('',(#117));
#278=EDGE_LOOP('',(#118));
#279=EDGE_LOOP('',(#119));
#280=EDGE_LOOP('',(#120));
#281=EDGE_LOOP('',(#121));
#282=EDGE_LOOP('',(#122));
#283=EDGE_LOOP('',(#123));
#284=EDGE_LOOP('',(#124));
#285=EDGE_LOOP('',(#125));
#286=EDGE_LOOP('',(#126));
#287=EDGE_LOOP('',(#127));
#288=EDGE_LOOP('',(#128));
#289=EDGE_LOOP('',(#129));
#290=EDGE_LOOP('',(#130,#131,#132,#133));
#291=EDGE_LOOP('',(#134,#135));
#292=EDGE_LOOP('',(#136,#137,#138,#139));
#293=EDGE_LOOP('',(#140,#141));
#294=EDGE_LOOP('',(#142,#143,#144,#145));
#295=EDGE_LOOP('',(#146,#147));
#296=EDGE_LOOP('',(#148,#149,#150,#151));
#297=EDGE_LOOP('',(#152,#153));
#298=EDGE_LOOP('',(#154,#155,#156,#157));
#299=EDGE_LOOP('',(#158,#159));
#300=EDGE_LOOP('',(#160,#161));
#301=EDGE_LOOP('',(#162,#163,#164,#165));
#302=FACE_BOUND('',#268,.T.);
#303=FACE_BOUND('',#269,.T.);
#304=FACE_BOUND('',#270,.T.);
#305=FACE_BOUND('',#271,.T.);
#306=FACE_BOUND('',#272,.T.);
#307=FACE_BOUND('',#273,.T.);
#308=FACE_BOUND('',#274,.T.);
#309=FACE_BOUND('',#275,.T.);
#310=FACE_BOUND('',#276,.T.);
#311=FACE_BOUND('',#277,.T.);
#312=FACE_BOUND('',#278,.T.);
#313=FACE_BOUND('',#279,.T.);
#314=FACE_BOUND('',#280,.T.);
#315=FACE_BOUND('',#281,.T.);
#316=FACE_BOUND('',#282,.T.);
#317=FACE_BOUND('',#283,.T.);
#318=FACE_BOUND('',#284,.T.);
#319=FACE_BOUND('',#285,.T.);
#320=FACE_BOUND('',#286,.T.);
#321=FACE_BOUND('',#287,.T.);
#322=FACE_BOUND('',#288,.T.);
#323=FACE_BOUND('',#289,.T.);
#324=FACE_BOUND('',#290,.T.);
#325=FACE_BOUND('',#291,.T.);
#326=FACE_BOUND('',#292,.T.);
#327=FACE_BOUND('',#293,.T.);
#328=FACE_BOUND('',#294,.T.);
#329=FACE_BOUND('',#295,.T.);
#330=FACE_BOUND('',#296,.T.);
#331=FACE_BOUND('',#297,.T.);
#332=FACE_BOUND('',#298,.T.);
#333=FACE_BOUND('',#299,.T.);
#334=FACE_BOUND('',#300,.T.);
#335=FACE_BOUND('',#301,.T.);
#336=PLANE('',#391);
#337=PLANE('',#406);
#338=PLANE('',#410);
#339=PLANE('',#416);
#340=PLANE('',#420);
#341=PLANE('',#424);
#342=PLANE('',#425);
#343=PLANE('',#426);
#344=PLANE('',#427);
#345=PLANE('',#428);
#346=PLANE('',#429);
#347=PLANE('',#430);
#348=PLANE('',#431);
#349=PLANE('',#432);
#350=PLANE('',#433);
#351=PLANE('',#434);
#352=PLANE('',#435);
#353=PLANE('',#436);
#354=ADVANCED_FACE('',(#302),#336,.F.);
#355=ADVANCED_FACE('',(#303,#304),#69,.T.);
#356=ADVANCED_FACE('',(#305,#306),#337,.F.);
#357=ADVANCED_FACE('',(#307,#308),#70,.T.);
#358=ADVANCED_FACE('',(#309,#310),#338,.F.);
#359=ADVANCED_FACE('',(#311,#312),#71,.T.);
#360=ADVANCED_FACE('',(#313,#314),#20,.T.);
#361=ADVANCED_FACE('',(#315,#316),#339,.F.);
#362=ADVANCED_FACE('',(#317,#318),#72,.T.);
#363=ADVANCED_FACE('',(#319,#320),#340,.F.);
#364=ADVANCED_FACE('',(#321,#322),#73,.F.);
#365=ADVANCED_FACE('',(#323),#341,.F.);
#366=ADVANCED_FACE('',(#324),#342,.F.);
#367=ADVANCED_FACE('',(#325),#343,.F.);
#368=ADVANCED_FACE('',(#326),#344,.F.);
#369=ADVANCED_FACE('',(#327),#345,.F.);
#370=ADVANCED_FACE('',(#328),#346,.F.);
#371=ADVANCED_FACE('',(#329),#347,.F.);
#372=ADVANCED_FACE('',(#330),#348,.F.);
#373=ADVANCED_FACE('',(#331),#349,.F.);
#374=ADVANCED_FACE('',(#332),#350,.F.);
#375=ADVANCED_FACE('',(#333),#351,.F.);
#376=ADVANCED_FACE('',(#334),#352,.F.);
#377=ADVANCED_FACE('',(#335),#353,.F.);
#378=CLOSED_SHELL('',(#354,#355,#356,#357,#358,#359,#360,#361,#362,#363,
#364,#365,#366,#367,#368,#369,#370,#371,#372,#373,#374,#375,#376,#377));
#379=STYLED_ITEM('',(#380),#387);
#380=PRESENTATION_STYLE_ASSIGNMENT((#381));
#381=SURFACE_STYLE_USAGE(.BOTH.,#382);
#382=SURFACE_SIDE_STYLE('',(#383));
#383=SURFACE_STYLE_FILL_AREA(#384);
#384=FILL_AREA_STYLE('',(#385));
#385=FILL_AREA_STYLE_COLOUR('',#386);
#386=COLOUR_RGB('',0.689999997615814,0.689999997615814,0.689999997615814);
#387=MANIFOLD_SOLID_BREP('132340 MA-15-10-M5',#378);
#388=SHAPE_DEFINITION_REPRESENTATION(#666,#389);
#389=SHAPE_REPRESENTATION('132340 MA-15-10-M5',(#390),#661);
#390=AXIS2_PLACEMENT_3D('',#555,#437,#438);
#391=AXIS2_PLACEMENT_3D('',#556,#439,#440);
#392=AXIS2_PLACEMENT_3D('',#557,#441,#442);
#393=AXIS2_PLACEMENT_3D('',#559,#443,#444);
#394=AXIS2_PLACEMENT_3D('',#563,#446,#447);
#395=AXIS2_PLACEMENT_3D('',#567,#449,#450);
#396=AXIS2_PLACEMENT_3D('',#571,#452,#453);
#397=AXIS2_PLACEMENT_3D('',#575,#455,#456);
#398=AXIS2_PLACEMENT_3D('',#579,#458,#459);
#399=AXIS2_PLACEMENT_3D('',#583,#461,#462);
#400=AXIS2_PLACEMENT_3D('',#587,#464,#465);
#401=AXIS2_PLACEMENT_3D('',#591,#467,#468);
#402=AXIS2_PLACEMENT_3D('',#595,#470,#471);
#403=AXIS2_PLACEMENT_3D('',#599,#473,#474);
#404=AXIS2_PLACEMENT_3D('',#603,#476,#477);
#405=AXIS2_PLACEMENT_3D('',#607,#479,#480);
#406=AXIS2_PLACEMENT_3D('',#608,#481,#482);
#407=AXIS2_PLACEMENT_3D('',#609,#483,#484);
#408=AXIS2_PLACEMENT_3D('',#617,#491,#492);
#409=AXIS2_PLACEMENT_3D('',#618,#493,#494);
#410=AXIS2_PLACEMENT_3D('',#620,#495,#496);
#411=AXIS2_PLACEMENT_3D('',#621,#497,#498);
#412=AXIS2_PLACEMENT_3D('',#623,#499,#500);
#413=AXIS2_PLACEMENT_3D('',#624,#501,#502);
#414=AXIS2_PLACEMENT_3D('',#626,#503,#504);
#415=AXIS2_PLACEMENT_3D('',#627,#505,#506);
#416=AXIS2_PLACEMENT_3D('',#629,#507,#508);
#417=AXIS2_PLACEMENT_3D('',#630,#509,#510);
#418=AXIS2_PLACEMENT_3D('',#632,#511,#512);
#419=AXIS2_PLACEMENT_3D('',#633,#513,#514);
#420=AXIS2_PLACEMENT_3D('',#635,#515,#516);
#421=AXIS2_PLACEMENT_3D('',#636,#517,#518);
#422=AXIS2_PLACEMENT_3D('',#638,#519,#520);
#423=AXIS2_PLACEMENT_3D('',#639,#521,#522);
#424=AXIS2_PLACEMENT_3D('',#641,#523,#524);
#425=AXIS2_PLACEMENT_3D('',#642,#525,#526);
#426=AXIS2_PLACEMENT_3D('',#644,#528,#529);
#427=AXIS2_PLACEMENT_3D('',#645,#530,#531);
#428=AXIS2_PLACEMENT_3D('',#647,#533,#534);
#429=AXIS2_PLACEMENT_3D('',#648,#535,#536);
#430=AXIS2_PLACEMENT_3D('',#650,#538,#539);
#431=AXIS2_PLACEMENT_3D('',#651,#540,#541);
#432=AXIS2_PLACEMENT_3D('',#653,#543,#544);
#433=AXIS2_PLACEMENT_3D('',#654,#545,#546);
#434=AXIS2_PLACEMENT_3D('',#656,#548,#549);
#435=AXIS2_PLACEMENT_3D('',#657,#550,#551);
#436=AXIS2_PLACEMENT_3D('',#659,#553,#554);
#437=DIRECTION('',(0.,0.,1.));
#438=DIRECTION('',(1.,0.,0.));
#439=DIRECTION('',(0.,-1.,0.));
#440=DIRECTION('',(0.,0.,-1.));
#441=DIRECTION('',(0.,-1.,0.));
#442=DIRECTION('',(0.,0.,-1.));
#443=DIRECTION('',(0.,-1.,0.));
#444=DIRECTION('',(0.,0.,-1.));
#445=DIRECTION('',(0.,-1.,0.));
#446=DIRECTION('',(0.,1.,0.));
#447=DIRECTION('',(0.,0.,1.));
#448=DIRECTION('',(0.,-1.,0.));
#449=DIRECTION('',(0.,-1.,0.));
#450=DIRECTION('',(0.,0.,-1.));
#451=DIRECTION('',(0.,-1.,0.));
#452=DIRECTION('',(0.,1.,0.));
#453=DIRECTION('',(0.,0.,1.));
#454=DIRECTION('',(0.,-1.,0.));
#455=DIRECTION('',(0.,-1.,0.));
#456=DIRECTION('',(0.,0.,-1.));
#457=DIRECTION('',(0.,-1.,0.));
#458=DIRECTION('',(0.,1.,0.));
#459=DIRECTION('',(0.,0.,1.));
#460=DIRECTION('',(0.,-1.,0.));
#461=DIRECTION('',(0.,-1.,0.));
#462=DIRECTION('',(0.,0.,-1.));
#463=DIRECTION('',(0.,-1.,0.));
#464=DIRECTION('',(0.,1.,0.));
#465=DIRECTION('',(0.,0.,1.));
#466=DIRECTION('',(0.,-1.,0.));
#467=DIRECTION('',(0.,-1.,0.));
#468=DIRECTION('',(0.,0.,-1.));
#469=DIRECTION('',(0.,-1.,0.));
#470=DIRECTION('',(0.,1.,0.));
#471=DIRECTION('',(0.,0.,1.));
#472=DIRECTION('',(0.,-1.,0.));
#473=DIRECTION('',(0.,-1.,0.));
#474=DIRECTION('',(0.,0.,-1.));
#475=DIRECTION('',(0.,-1.,0.));
#476=DIRECTION('',(0.,1.,0.));
#477=DIRECTION('',(0.,0.,1.));
#478=DIRECTION('',(0.,-1.,0.));
#479=DIRECTION('',(0.,-1.,0.));
#480=DIRECTION('',(0.,0.,-1.));
#481=DIRECTION('',(0.,1.,0.));
#482=DIRECTION('',(0.,0.,1.));
#483=DIRECTION('',(0.,-1.,0.));
#484=DIRECTION('',(0.,0.,-1.));
#485=DIRECTION('',(0.,0.,-1.));
#486=DIRECTION('',(0.866025403784439,0.,-0.5));
#487=DIRECTION('',(0.866025403784439,0.,0.5));
#488=DIRECTION('',(0.,0.,1.));
#489=DIRECTION('',(-0.866025403784439,0.,0.5));
#490=DIRECTION('',(-0.866025403784439,0.,-0.5));
#491=DIRECTION('',(0.,-1.,0.));
#492=DIRECTION('',(0.,0.,-1.));
#493=DIRECTION('',(0.,-1.,0.));
#494=DIRECTION('',(0.,0.,-1.));
#495=DIRECTION('',(0.,1.,0.));
#496=DIRECTION('',(0.,0.,1.));
#497=DIRECTION('',(0.,-1.,0.));
#498=DIRECTION('',(0.,0.,-1.));
#499=DIRECTION('',(0.,-1.,0.));
#500=DIRECTION('',(0.,0.,-1.));
#501=DIRECTION('',(0.,-1.,0.));
#502=DIRECTION('',(0.,0.,-1.));
#503=DIRECTION('',(0.,1.,0.));
#504=DIRECTION('',(0.,0.,1.));
#505=DIRECTION('',(0.,-1.,0.));
#506=DIRECTION('',(0.,0.,-1.));
#507=DIRECTION('',(0.,1.,0.));
#508=DIRECTION('',(0.,0.,1.));
#509=DIRECTION('',(0.,-1.,0.));
#510=DIRECTION('',(0.,0.,-1.));
#511=DIRECTION('',(0.,-1.,0.));
#512=DIRECTION('',(0.,0.,-1.));
#513=DIRECTION('',(0.,-1.,0.));
#514=DIRECTION('',(0.,0.,-1.));
#515=DIRECTION('',(0.,1.,0.));
#516=DIRECTION('',(0.,0.,1.));
#517=DIRECTION('',(0.,-1.,0.));
#518=DIRECTION('',(0.,0.,-1.));
#519=DIRECTION('',(0.,-1.,0.));
#520=DIRECTION('',(0.,0.,-1.));
#521=DIRECTION('',(0.,-1.,0.));
#522=DIRECTION('',(0.,0.,-1.));
#523=DIRECTION('',(0.,1.,0.));
#524=DIRECTION('',(0.,0.,1.));
#525=DIRECTION('',(0.5,0.,-0.866025403784439));
#526=DIRECTION('',(-0.866025403784439,0.,-0.5));
#527=DIRECTION('',(0.866025403784439,0.,0.5));
#528=DIRECTION('',(0.,1.,0.));
#529=DIRECTION('',(0.,0.,1.));
#530=DIRECTION('',(-0.5,0.,-0.866025403784439));
#531=DIRECTION('',(-0.866025403784439,0.,0.5));
#532=DIRECTION('',(0.866025403784439,0.,-0.5));
#533=DIRECTION('',(0.,1.,0.));
#534=DIRECTION('',(0.,0.,1.));
#535=DIRECTION('',(-1.,0.,0.));
#536=DIRECTION('',(0.,0.,1.));
#537=DIRECTION('',(0.,0.,-1.));
#538=DIRECTION('',(0.,1.,0.));
#539=DIRECTION('',(0.,0.,1.));
#540=DIRECTION('',(-0.5,0.,0.866025403784439));
#541=DIRECTION('',(0.866025403784439,0.,0.5));
#542=DIRECTION('',(-0.866025403784439,0.,-0.5));
#543=DIRECTION('',(0.,1.,0.));
#544=DIRECTION('',(0.,0.,1.));
#545=DIRECTION('',(0.5,0.,0.866025403784439));
#546=DIRECTION('',(0.866025403784439,0.,-0.5));
#547=DIRECTION('',(-0.866025403784439,0.,0.5));
#548=DIRECTION('',(0.,1.,0.));
#549=DIRECTION('',(0.,0.,1.));
#550=DIRECTION('',(0.,1.,0.));
#551=DIRECTION('',(0.,0.,1.));
#552=DIRECTION('',(0.,0.,1.));
#553=DIRECTION('',(1.,0.,0.));
#554=DIRECTION('',(0.,0.,-1.));
#555=CARTESIAN_POINT('',(0.,0.,0.));
#556=CARTESIAN_POINT('',(0.,13.5,0.));
#557=CARTESIAN_POINT('',(0.,13.5,0.));
#558=CARTESIAN_POINT('',(0.,13.5,-7.5));
#559=CARTESIAN_POINT('',(0.,-3.,0.));
#560=CARTESIAN_POINT('',(7.,-3.,2.69258240356725));
#561=CARTESIAN_POINT('',(7.,0.500000000000002,2.69258240356725));
#562=CARTESIAN_POINT('',(7.,5.5,2.69258240356725));
#563=CARTESIAN_POINT('',(0.,5.5,0.));
#564=CARTESIAN_POINT('',(7.,5.5,-2.69258240356725));
#565=CARTESIAN_POINT('',(7.,-3.,-2.69258240356725));
#566=CARTESIAN_POINT('',(7.,0.500000000000002,-2.69258240356725));
#567=CARTESIAN_POINT('',(0.,0.500000000000002,0.));
#568=CARTESIAN_POINT('',(5.8318447632722,0.500000000000002,-4.71588662470745));
#569=CARTESIAN_POINT('',(5.8318447632722,-3.,-4.71588662470745));
#570=CARTESIAN_POINT('',(5.8318447632722,5.5,-4.71588662470745));
#571=CARTESIAN_POINT('',(0.,5.5,0.));
#572=CARTESIAN_POINT('',(1.1681552367278,5.5,-7.4084690282747));
#573=CARTESIAN_POINT('',(1.1681552367278,-3.,-7.4084690282747));
#574=CARTESIAN_POINT('',(1.1681552367278,0.500000000000002,-7.4084690282747));
#575=CARTESIAN_POINT('',(0.,0.500000000000002,0.));
#576=CARTESIAN_POINT('',(-1.16815523672781,0.500000000000002,-7.40846902827469));
#577=CARTESIAN_POINT('',(-1.1681552367278,-3.,-7.4084690282747));
#578=CARTESIAN_POINT('',(-1.1681552367278,5.5,-7.4084690282747));
#579=CARTESIAN_POINT('',(0.,5.5,0.));
#580=CARTESIAN_POINT('',(-5.8318447632722,5.5,-4.71588662470745));
#581=CARTESIAN_POINT('',(-5.8318447632722,-3.,-4.71588662470745));
#582=CARTESIAN_POINT('',(-5.8318447632722,0.500000000000002,-4.71588662470745));
#583=CARTESIAN_POINT('',(0.,0.500000000000002,0.));
#584=CARTESIAN_POINT('',(-7.,0.500000000000002,-2.69258240356725));
#585=CARTESIAN_POINT('',(-7.,-3.,-2.69258240356725));
#586=CARTESIAN_POINT('',(-7.,5.5,-2.69258240356725));
#587=CARTESIAN_POINT('',(0.,5.5,0.));
#588=CARTESIAN_POINT('',(-7.,5.5,2.69258240356725));
#589=CARTESIAN_POINT('',(-7.,-3.,2.69258240356725));
#590=CARTESIAN_POINT('',(-7.,0.500000000000002,2.69258240356725));
#591=CARTESIAN_POINT('',(0.,0.500000000000002,0.));
#592=CARTESIAN_POINT('',(-5.8318447632722,0.500000000000002,4.71588662470745));
#593=CARTESIAN_POINT('',(-5.8318447632722,-3.,4.71588662470745));
#594=CARTESIAN_POINT('',(-5.8318447632722,5.5,4.71588662470745));
#595=CARTESIAN_POINT('',(0.,5.5,0.));
#596=CARTESIAN_POINT('',(-1.1681552367278,5.5,7.4084690282747));
#597=CARTESIAN_POINT('',(-1.1681552367278,-3.,7.4084690282747));
#598=CARTESIAN_POINT('',(-1.1681552367278,0.500000000000002,7.4084690282747));
#599=CARTESIAN_POINT('',(0.,0.500000000000002,0.));
#600=CARTESIAN_POINT('',(1.1681552367278,0.500000000000002,7.4084690282747));
#601=CARTESIAN_POINT('',(1.1681552367278,-3.,7.4084690282747));
#602=CARTESIAN_POINT('',(1.1681552367278,5.5,7.4084690282747));
#603=CARTESIAN_POINT('',(0.,5.5,0.));
#604=CARTESIAN_POINT('',(5.8318447632722,5.5,4.71588662470745));
#605=CARTESIAN_POINT('',(5.8318447632722,-3.,4.71588662470745));
#606=CARTESIAN_POINT('',(5.8318447632722,0.500000000000002,4.71588662470745));
#607=CARTESIAN_POINT('',(0.,0.500000000000002,0.));
#608=CARTESIAN_POINT('',(7.5,0.500000000000001,0.));
#609=CARTESIAN_POINT('',(0.,0.5,0.));
#610=CARTESIAN_POINT('',(0.,0.5,-3.9));
#611=CARTESIAN_POINT('',(-7.,0.500000000000001,0.));
#612=CARTESIAN_POINT('',(2.125,0.500000000000001,-9.30977309068272));
#613=CARTESIAN_POINT('',(9.125,0.500000000000001,-2.81458256229943));
#614=CARTESIAN_POINT('',(7.,0.500000000000001,0.));
#615=CARTESIAN_POINT('',(9.125,0.500000000000001,2.81458256229943));
#616=CARTESIAN_POINT('',(2.125,0.500000000000001,9.30977309068271));
#617=CARTESIAN_POINT('',(0.,-3.,0.));
#618=CARTESIAN_POINT('',(0.,0.,0.));
#619=CARTESIAN_POINT('',(0.,0.,-3.9));
#620=CARTESIAN_POINT('',(3.9,0.,0.));
#621=CARTESIAN_POINT('',(0.,0.,0.));
#622=CARTESIAN_POINT('',(0.,0.,-2.5));
#623=CARTESIAN_POINT('',(0.,-3.,0.));
#624=CARTESIAN_POINT('',(0.,-2.5095,0.));
#625=CARTESIAN_POINT('',(0.,-2.5095,-2.5));
#626=CARTESIAN_POINT('',(0.,-2.5095,0.));
#627=CARTESIAN_POINT('',(0.,-3.,0.));
#628=CARTESIAN_POINT('',(0.,-3.,-2.0095));
#629=CARTESIAN_POINT('',(2.0095,-3.,0.));
#630=CARTESIAN_POINT('',(0.,-3.,0.));
#631=CARTESIAN_POINT('',(0.,-3.,-1.));
#632=CARTESIAN_POINT('',(0.,-3.,0.));
#633=CARTESIAN_POINT('',(0.,-5.,0.));
#634=CARTESIAN_POINT('',(0.,-5.,-1.));
#635=CARTESIAN_POINT('',(1.,-5.,0.));
#636=CARTESIAN_POINT('',(0.,-5.,0.));
#637=CARTESIAN_POINT('',(0.,-5.,-0.75));
#638=CARTESIAN_POINT('',(0.,-3.,0.));
#639=CARTESIAN_POINT('',(0.,0.,0.));
#640=CARTESIAN_POINT('',(0.,0.,-0.75));
#641=CARTESIAN_POINT('',(0.75,0.,0.));
#642=CARTESIAN_POINT('',(-7.,5.5,4.04145188432738));
#643=CARTESIAN_POINT('',(-7.,5.5,4.04145188432738));
#644=CARTESIAN_POINT('',(0.,5.5,0.));
#645=CARTESIAN_POINT('',(0.,5.5,8.08290376865476));
#646=CARTESIAN_POINT('',(0.,5.5,8.08290376865476));
#647=CARTESIAN_POINT('',(0.,5.5,0.));
#648=CARTESIAN_POINT('',(7.,5.5,4.04145188432738));
#649=CARTESIAN_POINT('',(7.,5.5,4.04145188432738));
#650=CARTESIAN_POINT('',(0.,5.5,0.));
#651=CARTESIAN_POINT('',(7.,5.5,-4.04145188432738));
#652=CARTESIAN_POINT('',(7.,5.5,-4.04145188432738));
#653=CARTESIAN_POINT('',(0.,5.5,0.));
#654=CARTESIAN_POINT('',(0.,5.5,-8.08290376865476));
#655=CARTESIAN_POINT('',(0.,5.5,-8.08290376865476));
#656=CARTESIAN_POINT('',(0.,5.5,0.));
#657=CARTESIAN_POINT('',(0.,5.5,0.));
#658=CARTESIAN_POINT('',(-7.,5.5,-4.04145188432738));
#659=CARTESIAN_POINT('',(-7.,5.5,-4.04145188432738));
#660=MECHANICAL_DESIGN_GEOMETRIC_PRESENTATION_REPRESENTATION('',(#379),
#661);
#661=(
GEOMETRIC_REPRESENTATION_CONTEXT(3)
GLOBAL_UNCERTAINTY_ASSIGNED_CONTEXT((#662))
GLOBAL_UNIT_ASSIGNED_CONTEXT((#665,#664,#663))
REPRESENTATION_CONTEXT('132340 MA-15-10-M5','TOP_LEVEL_ASSEMBLY_PART')
);
#662=UNCERTAINTY_MEASURE_WITH_UNIT(LENGTH_MEASURE(0.005),#665,
'DISTANCE_ACCURACY_VALUE','Maximum Tolerance applied to model');
#663=(
NAMED_UNIT(*)
SI_UNIT($,.STERADIAN.)
SOLID_ANGLE_UNIT()
);
#664=(
NAMED_UNIT(*)
PLANE_ANGLE_UNIT()
SI_UNIT($,.RADIAN.)
);
#665=(
LENGTH_UNIT()
NAMED_UNIT(*)
SI_UNIT(.MILLI.,.METRE.)
);
#666=PRODUCT_DEFINITION_SHAPE('','',#667);
#667=PRODUCT_DEFINITION('','',#669,#668);
#668=PRODUCT_DEFINITION_CONTEXT('',#675,'design');
#669=PRODUCT_DEFINITION_FORMATION_WITH_SPECIFIED_SOURCE('','',#671,
 .NOT_KNOWN.);
#670=PRODUCT_RELATED_PRODUCT_CATEGORY('','',(#671));
#671=PRODUCT('132340 MA-15-10-M5','132340 MA-15-10-M5',
'132340 MA-15-10-M5',(#673));
#672=PRODUCT_CATEGORY('','');
#673=PRODUCT_CONTEXT('',#675,'mechanical');
#674=APPLICATION_PROTOCOL_DEFINITION('international standard',
'automotive_design',2010,#675);
#675=APPLICATION_CONTEXT(
'core data for automotive mechanical design processes');
ENDSEC;
END-ISO-10303-21;
