ISO-10303-21;
HEADER;
/* Generated by software containing ST-Developer
 * from STEP Tools, Inc. (www.steptools.com) 
 */
/* OPTION: using custom renumber hook */

FILE_DESCRIPTION(
/* description */ ('STEP AP214'),
/* implementation_level */ '2;1');

FILE_NAME(
/* name */ '133035_QSM-3H-2',
/* time_stamp */ '2024-09-14T12:16:02+02:00',
/* author */ ('License CC BY-ND 4.0'),
/* organization */ ('CADENAS'),
/* preprocessor_version */ 'ST-DEVELOPER v19.3',
/* originating_system */ 'PARTsolutions',
/* authorisation */ '  ');

FILE_SCHEMA (('AUTOMOTIVE_DESIGN {1 0 10303 214 3 1 1}'));
ENDSEC;

DATA;
#10=PROPERTY_DEFINITION_REPRESENTATION(#14,#12);
#11=PROPERTY_DEFINITION_REPRESENTATION(#15,#13);
#12=REPRESENTATION('',(#16),#626);
#13=REPRESENTATION('',(#17),#626);
#14=PROPERTY_DEFINITION('pmi validation property','',#631);
#15=PROPERTY_DEFINITION('pmi validation property','',#631);
#16=VALUE_REPRESENTATION_ITEM('number of annotations',COUNT_MEASURE(0.));
#17=VALUE_REPRESENTATION_ITEM('number of views',COUNT_MEASURE(0.));
#18=SHAPE_REPRESENTATION_RELATIONSHIP('','',#422,#19);
#19=ADVANCED_BREP_SHAPE_REPRESENTATION('',(#420),#626);
#20=PLANE('',#431);
#21=PLANE('',#437);
#22=PLANE('',#441);
#23=PLANE('',#453);
#24=PLANE('',#459);
#25=PLANE('',#465);
#26=CYLINDRICAL_SURFACE('',#429,2.4);
#27=CYLINDRICAL_SURFACE('',#435,1.7);
#28=CYLINDRICAL_SURFACE('',#439,2.8);
#29=CYLINDRICAL_SURFACE('',#445,3.);
#30=CYLINDRICAL_SURFACE('',#451,3.);
#31=CYLINDRICAL_SURFACE('',#455,1.5);
#32=CYLINDRICAL_SURFACE('',#463,1.);
#33=CYLINDRICAL_SURFACE('',#467,0.55);
#34=TOROIDAL_SURFACE('',#427,2.20000000000001,0.199999999999995);
#35=TOROIDAL_SURFACE('',#433,2.,0.300000000000002);
#36=TOROIDAL_SURFACE('',#457,1.2,0.3);
#37=TOROIDAL_SURFACE('',#461,1.3,0.299999999999995);
#38=ORIENTED_EDGE('',*,*,#82,.F.);
#39=ORIENTED_EDGE('',*,*,#83,.T.);
#40=ORIENTED_EDGE('',*,*,#82,.T.);
#41=ORIENTED_EDGE('',*,*,#84,.F.);
#42=ORIENTED_EDGE('',*,*,#85,.F.);
#43=ORIENTED_EDGE('',*,*,#84,.T.);
#44=ORIENTED_EDGE('',*,*,#86,.F.);
#45=ORIENTED_EDGE('',*,*,#85,.T.);
#46=ORIENTED_EDGE('',*,*,#87,.F.);
#47=ORIENTED_EDGE('',*,*,#86,.T.);
#48=ORIENTED_EDGE('',*,*,#88,.F.);
#49=ORIENTED_EDGE('',*,*,#87,.T.);
#50=ORIENTED_EDGE('',*,*,#89,.F.);
#51=ORIENTED_EDGE('',*,*,#88,.T.);
#52=ORIENTED_EDGE('',*,*,#90,.F.);
#53=ORIENTED_EDGE('',*,*,#89,.T.);
#54=ORIENTED_EDGE('',*,*,#91,.F.);
#55=ORIENTED_EDGE('',*,*,#90,.T.);
#56=ORIENTED_EDGE('',*,*,#92,.F.);
#57=ORIENTED_EDGE('',*,*,#91,.T.);
#58=ORIENTED_EDGE('',*,*,#93,.F.);
#59=ORIENTED_EDGE('',*,*,#92,.T.);
#60=ORIENTED_EDGE('',*,*,#94,.F.);
#61=ORIENTED_EDGE('',*,*,#93,.T.);
#62=ORIENTED_EDGE('',*,*,#95,.F.);
#63=ORIENTED_EDGE('',*,*,#94,.T.);
#64=ORIENTED_EDGE('',*,*,#96,.F.);
#65=ORIENTED_EDGE('',*,*,#95,.T.);
#66=ORIENTED_EDGE('',*,*,#97,.F.);
#67=ORIENTED_EDGE('',*,*,#96,.T.);
#68=ORIENTED_EDGE('',*,*,#98,.F.);
#69=ORIENTED_EDGE('',*,*,#97,.T.);
#70=ORIENTED_EDGE('',*,*,#98,.T.);
#71=ORIENTED_EDGE('',*,*,#99,.F.);
#72=ORIENTED_EDGE('',*,*,#100,.F.);
#73=ORIENTED_EDGE('',*,*,#99,.T.);
#74=ORIENTED_EDGE('',*,*,#101,.T.);
#75=ORIENTED_EDGE('',*,*,#83,.F.);
#76=ORIENTED_EDGE('',*,*,#102,.T.);
#77=ORIENTED_EDGE('',*,*,#101,.F.);
#78=ORIENTED_EDGE('',*,*,#103,.T.);
#79=ORIENTED_EDGE('',*,*,#102,.F.);
#80=ORIENTED_EDGE('',*,*,#100,.T.);
#81=ORIENTED_EDGE('',*,*,#103,.F.);
#82=EDGE_CURVE('',#104,#104,#126,.T.);
#83=EDGE_CURVE('',#105,#105,#127,.T.);
#84=EDGE_CURVE('',#106,#106,#128,.T.);
#85=EDGE_CURVE('',#107,#107,#129,.T.);
#86=EDGE_CURVE('',#108,#108,#130,.T.);
#87=EDGE_CURVE('',#109,#109,#131,.T.);
#88=EDGE_CURVE('',#110,#110,#132,.T.);
#89=EDGE_CURVE('',#111,#111,#133,.T.);
#90=EDGE_CURVE('',#112,#112,#134,.T.);
#91=EDGE_CURVE('',#113,#113,#135,.T.);
#92=EDGE_CURVE('',#114,#114,#136,.T.);
#93=EDGE_CURVE('',#115,#115,#137,.T.);
#94=EDGE_CURVE('',#116,#116,#138,.T.);
#95=EDGE_CURVE('',#117,#117,#139,.T.);
#96=EDGE_CURVE('',#118,#118,#140,.T.);
#97=EDGE_CURVE('',#119,#119,#141,.T.);
#98=EDGE_CURVE('',#120,#120,#142,.T.);
#99=EDGE_CURVE('',#121,#121,#143,.T.);
#100=EDGE_CURVE('',#122,#122,#144,.T.);
#101=EDGE_CURVE('',#123,#123,#145,.T.);
#102=EDGE_CURVE('',#124,#124,#146,.T.);
#103=EDGE_CURVE('',#125,#125,#147,.T.);
#104=VERTEX_POINT('',#561);
#105=VERTEX_POINT('',#563);
#106=VERTEX_POINT('',#566);
#107=VERTEX_POINT('',#569);
#108=VERTEX_POINT('',#572);
#109=VERTEX_POINT('',#575);
#110=VERTEX_POINT('',#578);
#111=VERTEX_POINT('',#581);
#112=VERTEX_POINT('',#584);
#113=VERTEX_POINT('',#587);
#114=VERTEX_POINT('',#590);
#115=VERTEX_POINT('',#593);
#116=VERTEX_POINT('',#596);
#117=VERTEX_POINT('',#599);
#118=VERTEX_POINT('',#602);
#119=VERTEX_POINT('',#605);
#120=VERTEX_POINT('',#608);
#121=VERTEX_POINT('',#611);
#122=VERTEX_POINT('',#614);
#123=VERTEX_POINT('',#617);
#124=VERTEX_POINT('',#620);
#125=VERTEX_POINT('',#623);
#126=CIRCLE('',#425,2.23472963553339);
#127=CIRCLE('',#426,1.3);
#128=CIRCLE('',#428,2.4);
#129=CIRCLE('',#430,2.4);
#130=CIRCLE('',#432,2.);
#131=CIRCLE('',#434,1.7);
#132=CIRCLE('',#436,1.7);
#133=CIRCLE('',#438,2.8);
#134=CIRCLE('',#440,2.8);
#135=CIRCLE('',#442,2.93007318805649);
#136=CIRCLE('',#444,3.);
#137=CIRCLE('',#446,3.);
#138=CIRCLE('',#448,2.8);
#139=CIRCLE('',#450,3.);
#140=CIRCLE('',#452,3.);
#141=CIRCLE('',#454,1.5);
#142=CIRCLE('',#456,1.5);
#143=CIRCLE('',#458,1.2);
#144=CIRCLE('',#460,0.55);
#145=CIRCLE('',#462,1.);
#146=CIRCLE('',#464,1.);
#147=CIRCLE('',#466,0.55);
#148=EDGE_LOOP('',(#38));
#149=EDGE_LOOP('',(#39));
#150=EDGE_LOOP('',(#40));
#151=EDGE_LOOP('',(#41));
#152=EDGE_LOOP('',(#42));
#153=EDGE_LOOP('',(#43));
#154=EDGE_LOOP('',(#44));
#155=EDGE_LOOP('',(#45));
#156=EDGE_LOOP('',(#46));
#157=EDGE_LOOP('',(#47));
#158=EDGE_LOOP('',(#48));
#159=EDGE_LOOP('',(#49));
#160=EDGE_LOOP('',(#50));
#161=EDGE_LOOP('',(#51));
#162=EDGE_LOOP('',(#52));
#163=EDGE_LOOP('',(#53));
#164=EDGE_LOOP('',(#54));
#165=EDGE_LOOP('',(#55));
#166=EDGE_LOOP('',(#56));
#167=EDGE_LOOP('',(#57));
#168=EDGE_LOOP('',(#58));
#169=EDGE_LOOP('',(#59));
#170=EDGE_LOOP('',(#60));
#171=EDGE_LOOP('',(#61));
#172=EDGE_LOOP('',(#62));
#173=EDGE_LOOP('',(#63));
#174=EDGE_LOOP('',(#64));
#175=EDGE_LOOP('',(#65));
#176=EDGE_LOOP('',(#66));
#177=EDGE_LOOP('',(#67));
#178=EDGE_LOOP('',(#68));
#179=EDGE_LOOP('',(#69));
#180=EDGE_LOOP('',(#70));
#181=EDGE_LOOP('',(#71));
#182=EDGE_LOOP('',(#72));
#183=EDGE_LOOP('',(#73));
#184=EDGE_LOOP('',(#74));
#185=EDGE_LOOP('',(#75));
#186=EDGE_LOOP('',(#76));
#187=EDGE_LOOP('',(#77));
#188=EDGE_LOOP('',(#78));
#189=EDGE_LOOP('',(#79));
#190=EDGE_LOOP('',(#80));
#191=EDGE_LOOP('',(#81));
#192=FACE_BOUND('',#148,.T.);
#193=FACE_BOUND('',#149,.T.);
#194=FACE_BOUND('',#150,.T.);
#195=FACE_BOUND('',#151,.T.);
#196=FACE_BOUND('',#152,.T.);
#197=FACE_BOUND('',#153,.T.);
#198=FACE_BOUND('',#154,.T.);
#199=FACE_BOUND('',#155,.T.);
#200=FACE_BOUND('',#156,.T.);
#201=FACE_BOUND('',#157,.T.);
#202=FACE_BOUND('',#158,.T.);
#203=FACE_BOUND('',#159,.T.);
#204=FACE_BOUND('',#160,.T.);
#205=FACE_BOUND('',#161,.T.);
#206=FACE_BOUND('',#162,.T.);
#207=FACE_BOUND('',#163,.T.);
#208=FACE_BOUND('',#164,.T.);
#209=FACE_BOUND('',#165,.T.);
#210=FACE_BOUND('',#166,.T.);
#211=FACE_BOUND('',#167,.T.);
#212=FACE_BOUND('',#168,.T.);
#213=FACE_BOUND('',#169,.T.);
#214=FACE_BOUND('',#170,.T.);
#215=FACE_BOUND('',#171,.T.);
#216=FACE_BOUND('',#172,.T.);
#217=FACE_BOUND('',#173,.T.);
#218=FACE_BOUND('',#174,.T.);
#219=FACE_BOUND('',#175,.T.);
#220=FACE_BOUND('',#176,.T.);
#221=FACE_BOUND('',#177,.T.);
#222=FACE_BOUND('',#178,.T.);
#223=FACE_BOUND('',#179,.T.);
#224=FACE_BOUND('',#180,.T.);
#225=FACE_BOUND('',#181,.T.);
#226=FACE_BOUND('',#182,.T.);
#227=FACE_BOUND('',#183,.T.);
#228=FACE_BOUND('',#184,.T.);
#229=FACE_BOUND('',#185,.T.);
#230=FACE_BOUND('',#186,.T.);
#231=FACE_BOUND('',#187,.T.);
#232=FACE_BOUND('',#188,.T.);
#233=FACE_BOUND('',#189,.T.);
#234=FACE_BOUND('',#190,.T.);
#235=FACE_BOUND('',#191,.T.);
#236=CONICAL_SURFACE('',#424,1.3,1.39626340159546);
#237=CONICAL_SURFACE('',#443,2.93007318805649,0.0698131700797733);
#238=CONICAL_SURFACE('',#447,3.,0.785398163397444);
#239=CONICAL_SURFACE('',#449,2.8,0.785398163397453);
#240=STYLED_ITEM('',(#262),#397);
#241=STYLED_ITEM('',(#263),#398);
#242=STYLED_ITEM('',(#264),#399);
#243=STYLED_ITEM('',(#265),#400);
#244=STYLED_ITEM('',(#266),#401);
#245=STYLED_ITEM('',(#267),#402);
#246=STYLED_ITEM('',(#268),#403);
#247=STYLED_ITEM('',(#269),#404);
#248=STYLED_ITEM('',(#270),#405);
#249=STYLED_ITEM('',(#271),#406);
#250=STYLED_ITEM('',(#272),#407);
#251=STYLED_ITEM('',(#273),#408);
#252=STYLED_ITEM('',(#274),#409);
#253=STYLED_ITEM('',(#275),#410);
#254=STYLED_ITEM('',(#276),#411);
#255=STYLED_ITEM('',(#277),#412);
#256=STYLED_ITEM('',(#278),#413);
#257=STYLED_ITEM('',(#279),#414);
#258=STYLED_ITEM('',(#280),#415);
#259=STYLED_ITEM('',(#281),#416);
#260=STYLED_ITEM('',(#282),#417);
#261=STYLED_ITEM('',(#283),#418);
#262=PRESENTATION_STYLE_ASSIGNMENT((#284));
#263=PRESENTATION_STYLE_ASSIGNMENT((#285));
#264=PRESENTATION_STYLE_ASSIGNMENT((#286));
#265=PRESENTATION_STYLE_ASSIGNMENT((#287));
#266=PRESENTATION_STYLE_ASSIGNMENT((#288));
#267=PRESENTATION_STYLE_ASSIGNMENT((#289));
#268=PRESENTATION_STYLE_ASSIGNMENT((#290));
#269=PRESENTATION_STYLE_ASSIGNMENT((#291));
#270=PRESENTATION_STYLE_ASSIGNMENT((#292));
#271=PRESENTATION_STYLE_ASSIGNMENT((#293));
#272=PRESENTATION_STYLE_ASSIGNMENT((#294));
#273=PRESENTATION_STYLE_ASSIGNMENT((#295));
#274=PRESENTATION_STYLE_ASSIGNMENT((#296));
#275=PRESENTATION_STYLE_ASSIGNMENT((#297));
#276=PRESENTATION_STYLE_ASSIGNMENT((#298));
#277=PRESENTATION_STYLE_ASSIGNMENT((#299));
#278=PRESENTATION_STYLE_ASSIGNMENT((#300));
#279=PRESENTATION_STYLE_ASSIGNMENT((#301));
#280=PRESENTATION_STYLE_ASSIGNMENT((#302));
#281=PRESENTATION_STYLE_ASSIGNMENT((#303));
#282=PRESENTATION_STYLE_ASSIGNMENT((#304));
#283=PRESENTATION_STYLE_ASSIGNMENT((#305));
#284=SURFACE_STYLE_USAGE(.BOTH.,#306);
#285=SURFACE_STYLE_USAGE(.BOTH.,#307);
#286=SURFACE_STYLE_USAGE(.BOTH.,#308);
#287=SURFACE_STYLE_USAGE(.BOTH.,#309);
#288=SURFACE_STYLE_USAGE(.BOTH.,#310);
#289=SURFACE_STYLE_USAGE(.BOTH.,#311);
#290=SURFACE_STYLE_USAGE(.BOTH.,#312);
#291=SURFACE_STYLE_USAGE(.BOTH.,#313);
#292=SURFACE_STYLE_USAGE(.BOTH.,#314);
#293=SURFACE_STYLE_USAGE(.BOTH.,#315);
#294=SURFACE_STYLE_USAGE(.BOTH.,#316);
#295=SURFACE_STYLE_USAGE(.BOTH.,#317);
#296=SURFACE_STYLE_USAGE(.BOTH.,#318);
#297=SURFACE_STYLE_USAGE(.BOTH.,#319);
#298=SURFACE_STYLE_USAGE(.BOTH.,#320);
#299=SURFACE_STYLE_USAGE(.BOTH.,#321);
#300=SURFACE_STYLE_USAGE(.BOTH.,#322);
#301=SURFACE_STYLE_USAGE(.BOTH.,#323);
#302=SURFACE_STYLE_USAGE(.BOTH.,#324);
#303=SURFACE_STYLE_USAGE(.BOTH.,#325);
#304=SURFACE_STYLE_USAGE(.BOTH.,#326);
#305=SURFACE_STYLE_USAGE(.BOTH.,#327);
#306=SURFACE_SIDE_STYLE('',(#328));
#307=SURFACE_SIDE_STYLE('',(#329));
#308=SURFACE_SIDE_STYLE('',(#330));
#309=SURFACE_SIDE_STYLE('',(#331));
#310=SURFACE_SIDE_STYLE('',(#332));
#311=SURFACE_SIDE_STYLE('',(#333));
#312=SURFACE_SIDE_STYLE('',(#334));
#313=SURFACE_SIDE_STYLE('',(#335));
#314=SURFACE_SIDE_STYLE('',(#336));
#315=SURFACE_SIDE_STYLE('',(#337));
#316=SURFACE_SIDE_STYLE('',(#338));
#317=SURFACE_SIDE_STYLE('',(#339));
#318=SURFACE_SIDE_STYLE('',(#340));
#319=SURFACE_SIDE_STYLE('',(#341));
#320=SURFACE_SIDE_STYLE('',(#342));
#321=SURFACE_SIDE_STYLE('',(#343));
#322=SURFACE_SIDE_STYLE('',(#344));
#323=SURFACE_SIDE_STYLE('',(#345));
#324=SURFACE_SIDE_STYLE('',(#346));
#325=SURFACE_SIDE_STYLE('',(#347));
#326=SURFACE_SIDE_STYLE('',(#348));
#327=SURFACE_SIDE_STYLE('',(#349));
#328=SURFACE_STYLE_FILL_AREA(#350);
#329=SURFACE_STYLE_FILL_AREA(#351);
#330=SURFACE_STYLE_FILL_AREA(#352);
#331=SURFACE_STYLE_FILL_AREA(#353);
#332=SURFACE_STYLE_FILL_AREA(#354);
#333=SURFACE_STYLE_FILL_AREA(#355);
#334=SURFACE_STYLE_FILL_AREA(#356);
#335=SURFACE_STYLE_FILL_AREA(#357);
#336=SURFACE_STYLE_FILL_AREA(#358);
#337=SURFACE_STYLE_FILL_AREA(#359);
#338=SURFACE_STYLE_FILL_AREA(#360);
#339=SURFACE_STYLE_FILL_AREA(#361);
#340=SURFACE_STYLE_FILL_AREA(#362);
#341=SURFACE_STYLE_FILL_AREA(#363);
#342=SURFACE_STYLE_FILL_AREA(#364);
#343=SURFACE_STYLE_FILL_AREA(#365);
#344=SURFACE_STYLE_FILL_AREA(#366);
#345=SURFACE_STYLE_FILL_AREA(#367);
#346=SURFACE_STYLE_FILL_AREA(#368);
#347=SURFACE_STYLE_FILL_AREA(#369);
#348=SURFACE_STYLE_FILL_AREA(#370);
#349=SURFACE_STYLE_FILL_AREA(#371);
#350=FILL_AREA_STYLE('',(#372));
#351=FILL_AREA_STYLE('',(#373));
#352=FILL_AREA_STYLE('',(#374));
#353=FILL_AREA_STYLE('',(#375));
#354=FILL_AREA_STYLE('',(#376));
#355=FILL_AREA_STYLE('',(#377));
#356=FILL_AREA_STYLE('',(#378));
#357=FILL_AREA_STYLE('',(#379));
#358=FILL_AREA_STYLE('',(#380));
#359=FILL_AREA_STYLE('',(#381));
#360=FILL_AREA_STYLE('',(#382));
#361=FILL_AREA_STYLE('',(#383));
#362=FILL_AREA_STYLE('',(#384));
#363=FILL_AREA_STYLE('',(#385));
#364=FILL_AREA_STYLE('',(#386));
#365=FILL_AREA_STYLE('',(#387));
#366=FILL_AREA_STYLE('',(#388));
#367=FILL_AREA_STYLE('',(#389));
#368=FILL_AREA_STYLE('',(#390));
#369=FILL_AREA_STYLE('',(#391));
#370=FILL_AREA_STYLE('',(#392));
#371=FILL_AREA_STYLE('',(#393));
#372=FILL_AREA_STYLE_COLOUR('',#394);
#373=FILL_AREA_STYLE_COLOUR('',#394);
#374=FILL_AREA_STYLE_COLOUR('',#394);
#375=FILL_AREA_STYLE_COLOUR('',#394);
#376=FILL_AREA_STYLE_COLOUR('',#394);
#377=FILL_AREA_STYLE_COLOUR('',#394);
#378=FILL_AREA_STYLE_COLOUR('',#395);
#379=FILL_AREA_STYLE_COLOUR('',#395);
#380=FILL_AREA_STYLE_COLOUR('',#396);
#381=FILL_AREA_STYLE_COLOUR('',#396);
#382=FILL_AREA_STYLE_COLOUR('',#396);
#383=FILL_AREA_STYLE_COLOUR('',#396);
#384=FILL_AREA_STYLE_COLOUR('',#396);
#385=FILL_AREA_STYLE_COLOUR('',#396);
#386=FILL_AREA_STYLE_COLOUR('',#396);
#387=FILL_AREA_STYLE_COLOUR('',#396);
#388=FILL_AREA_STYLE_COLOUR('',#396);
#389=FILL_AREA_STYLE_COLOUR('',#396);
#390=FILL_AREA_STYLE_COLOUR('',#394);
#391=FILL_AREA_STYLE_COLOUR('',#395);
#392=FILL_AREA_STYLE_COLOUR('',#395);
#393=FILL_AREA_STYLE_COLOUR('',#396);
#394=COLOUR_RGB('',0.,0.60000002384186,1.);
#395=COLOUR_RGB('',0.689999997615814,0.689999997615814,0.689999997615814);
#396=COLOUR_RGB('',0.31400001049042,0.31400001049042,0.31400001049042);
#397=ADVANCED_FACE('',(#192,#193),#236,.T.);
#398=ADVANCED_FACE('',(#194,#195),#34,.T.);
#399=ADVANCED_FACE('',(#196,#197),#26,.T.);
#400=ADVANCED_FACE('',(#198,#199),#20,.F.);
#401=ADVANCED_FACE('',(#200,#201),#35,.F.);
#402=ADVANCED_FACE('',(#202,#203),#27,.T.);
#403=ADVANCED_FACE('',(#204,#205),#21,.F.);
#404=ADVANCED_FACE('',(#206,#207),#28,.T.);
#405=ADVANCED_FACE('',(#208,#209),#22,.F.);
#406=ADVANCED_FACE('',(#210,#211),#237,.T.);
#407=ADVANCED_FACE('',(#212,#213),#29,.T.);
#408=ADVANCED_FACE('',(#214,#215),#238,.T.);
#409=ADVANCED_FACE('',(#216,#217),#239,.T.);
#410=ADVANCED_FACE('',(#218,#219),#30,.T.);
#411=ADVANCED_FACE('',(#220,#221),#23,.F.);
#412=ADVANCED_FACE('',(#222,#223),#31,.T.);
#413=ADVANCED_FACE('',(#224,#225),#36,.T.);
#414=ADVANCED_FACE('',(#226,#227),#24,.F.);
#415=ADVANCED_FACE('',(#228,#229),#37,.T.);
#416=ADVANCED_FACE('',(#230,#231),#32,.F.);
#417=ADVANCED_FACE('',(#232,#233),#25,.T.);
#418=ADVANCED_FACE('',(#234,#235),#33,.F.);
#419=CLOSED_SHELL('',(#397,#398,#399,#400,#401,#402,#403,#404,#405,#406,
#407,#408,#409,#410,#411,#412,#413,#414,#415,#416,#417,#418));
#420=MANIFOLD_SOLID_BREP('133035 QSM-3H-2',#419);
#421=SHAPE_DEFINITION_REPRESENTATION(#631,#422);
#422=SHAPE_REPRESENTATION('133035 QSM-3H-2',(#423),#626);
#423=AXIS2_PLACEMENT_3D('',#558,#468,#469);
#424=AXIS2_PLACEMENT_3D('',#559,#470,#471);
#425=AXIS2_PLACEMENT_3D('',#560,#472,#473);
#426=AXIS2_PLACEMENT_3D('',#562,#474,#475);
#427=AXIS2_PLACEMENT_3D('',#564,#476,#477);
#428=AXIS2_PLACEMENT_3D('',#565,#478,#479);
#429=AXIS2_PLACEMENT_3D('',#567,#480,#481);
#430=AXIS2_PLACEMENT_3D('',#568,#482,#483);
#431=AXIS2_PLACEMENT_3D('',#570,#484,#485);
#432=AXIS2_PLACEMENT_3D('',#571,#486,#487);
#433=AXIS2_PLACEMENT_3D('',#573,#488,#489);
#434=AXIS2_PLACEMENT_3D('',#574,#490,#491);
#435=AXIS2_PLACEMENT_3D('',#576,#492,#493);
#436=AXIS2_PLACEMENT_3D('',#577,#494,#495);
#437=AXIS2_PLACEMENT_3D('',#579,#496,#497);
#438=AXIS2_PLACEMENT_3D('',#580,#498,#499);
#439=AXIS2_PLACEMENT_3D('',#582,#500,#501);
#440=AXIS2_PLACEMENT_3D('',#583,#502,#503);
#441=AXIS2_PLACEMENT_3D('',#585,#504,#505);
#442=AXIS2_PLACEMENT_3D('',#586,#506,#507);
#443=AXIS2_PLACEMENT_3D('',#588,#508,#509);
#444=AXIS2_PLACEMENT_3D('',#589,#510,#511);
#445=AXIS2_PLACEMENT_3D('',#591,#512,#513);
#446=AXIS2_PLACEMENT_3D('',#592,#514,#515);
#447=AXIS2_PLACEMENT_3D('',#594,#516,#517);
#448=AXIS2_PLACEMENT_3D('',#595,#518,#519);
#449=AXIS2_PLACEMENT_3D('',#597,#520,#521);
#450=AXIS2_PLACEMENT_3D('',#598,#522,#523);
#451=AXIS2_PLACEMENT_3D('',#600,#524,#525);
#452=AXIS2_PLACEMENT_3D('',#601,#526,#527);
#453=AXIS2_PLACEMENT_3D('',#603,#528,#529);
#454=AXIS2_PLACEMENT_3D('',#604,#530,#531);
#455=AXIS2_PLACEMENT_3D('',#606,#532,#533);
#456=AXIS2_PLACEMENT_3D('',#607,#534,#535);
#457=AXIS2_PLACEMENT_3D('',#609,#536,#537);
#458=AXIS2_PLACEMENT_3D('',#610,#538,#539);
#459=AXIS2_PLACEMENT_3D('',#612,#540,#541);
#460=AXIS2_PLACEMENT_3D('',#613,#542,#543);
#461=AXIS2_PLACEMENT_3D('',#615,#544,#545);
#462=AXIS2_PLACEMENT_3D('',#616,#546,#547);
#463=AXIS2_PLACEMENT_3D('',#618,#548,#549);
#464=AXIS2_PLACEMENT_3D('',#619,#550,#551);
#465=AXIS2_PLACEMENT_3D('',#621,#552,#553);
#466=AXIS2_PLACEMENT_3D('',#622,#554,#555);
#467=AXIS2_PLACEMENT_3D('',#624,#556,#557);
#468=DIRECTION('',(0.,0.,1.));
#469=DIRECTION('',(1.,0.,0.));
#470=DIRECTION('',(0.,0.,-1.));
#471=DIRECTION('',(-1.,0.,0.));
#472=DIRECTION('',(0.,0.,-1.));
#473=DIRECTION('',(-1.,0.,0.));
#474=DIRECTION('',(0.,0.,-1.));
#475=DIRECTION('',(-1.,0.,0.));
#476=DIRECTION('',(0.,0.,-1.));
#477=DIRECTION('',(-1.,0.,0.));
#478=DIRECTION('',(0.,0.,-1.));
#479=DIRECTION('',(-1.,0.,0.));
#480=DIRECTION('',(0.,0.,-1.));
#481=DIRECTION('',(-1.,0.,0.));
#482=DIRECTION('',(0.,0.,-1.));
#483=DIRECTION('',(-1.,0.,0.));
#484=DIRECTION('',(0.,0.,1.));
#485=DIRECTION('',(1.,0.,0.));
#486=DIRECTION('',(0.,0.,-1.));
#487=DIRECTION('',(-1.,0.,0.));
#488=DIRECTION('',(0.,0.,-1.));
#489=DIRECTION('',(-1.,0.,0.));
#490=DIRECTION('',(0.,0.,-1.));
#491=DIRECTION('',(-1.,0.,0.));
#492=DIRECTION('',(0.,0.,-1.));
#493=DIRECTION('',(-1.,0.,0.));
#494=DIRECTION('',(0.,0.,-1.));
#495=DIRECTION('',(-1.,0.,0.));
#496=DIRECTION('',(0.,0.,-1.));
#497=DIRECTION('',(-1.,0.,0.));
#498=DIRECTION('',(0.,0.,-1.));
#499=DIRECTION('',(-1.,0.,0.));
#500=DIRECTION('',(0.,0.,-1.));
#501=DIRECTION('',(-1.,0.,0.));
#502=DIRECTION('',(0.,0.,-1.));
#503=DIRECTION('',(-1.,0.,0.));
#504=DIRECTION('',(0.,0.,-1.));
#505=DIRECTION('',(-1.,0.,0.));
#506=DIRECTION('',(0.,0.,-1.));
#507=DIRECTION('',(-1.,0.,0.));
#508=DIRECTION('',(0.,0.,-1.));
#509=DIRECTION('',(-1.,0.,0.));
#510=DIRECTION('',(0.,0.,-1.));
#511=DIRECTION('',(-1.,0.,0.));
#512=DIRECTION('',(0.,0.,-1.));
#513=DIRECTION('',(-1.,0.,0.));
#514=DIRECTION('',(0.,0.,-1.));
#515=DIRECTION('',(-1.,0.,0.));
#516=DIRECTION('',(0.,0.,1.));
#517=DIRECTION('',(1.,0.,0.));
#518=DIRECTION('',(0.,0.,-1.));
#519=DIRECTION('',(-1.,0.,0.));
#520=DIRECTION('',(0.,0.,-1.));
#521=DIRECTION('',(-1.,0.,0.));
#522=DIRECTION('',(0.,0.,-1.));
#523=DIRECTION('',(-1.,0.,0.));
#524=DIRECTION('',(0.,0.,-1.));
#525=DIRECTION('',(-1.,0.,0.));
#526=DIRECTION('',(0.,0.,-1.));
#527=DIRECTION('',(-1.,0.,0.));
#528=DIRECTION('',(0.,0.,1.));
#529=DIRECTION('',(1.,0.,0.));
#530=DIRECTION('',(0.,0.,-1.));
#531=DIRECTION('',(-1.,0.,0.));
#532=DIRECTION('',(0.,0.,-1.));
#533=DIRECTION('',(-1.,0.,0.));
#534=DIRECTION('',(0.,0.,-1.));
#535=DIRECTION('',(-1.,0.,0.));
#536=DIRECTION('',(0.,0.,-1.));
#537=DIRECTION('',(-1.,0.,0.));
#538=DIRECTION('',(0.,0.,-1.));
#539=DIRECTION('',(-1.,0.,0.));
#540=DIRECTION('',(0.,0.,1.));
#541=DIRECTION('',(1.,0.,0.));
#542=DIRECTION('',(0.,0.,-1.));
#543=DIRECTION('',(-1.,0.,0.));
#544=DIRECTION('',(0.,0.,-1.));
#545=DIRECTION('',(-1.,0.,0.));
#546=DIRECTION('',(0.,0.,-1.));
#547=DIRECTION('',(-1.,0.,0.));
#548=DIRECTION('',(0.,0.,-1.));
#549=DIRECTION('',(-1.,0.,0.));
#550=DIRECTION('',(0.,0.,-1.));
#551=DIRECTION('',(-1.,0.,0.));
#552=DIRECTION('',(0.,0.,1.));
#553=DIRECTION('',(1.,0.,0.));
#554=DIRECTION('',(0.,0.,-1.));
#555=DIRECTION('',(-1.,0.,0.));
#556=DIRECTION('',(0.,0.,-1.));
#557=DIRECTION('',(-1.,0.,0.));
#558=CARTESIAN_POINT('',(0.,0.,0.));
#559=CARTESIAN_POINT('',(0.,0.,26.3));
#560=CARTESIAN_POINT('',(0.,0.,26.1351819455877));
#561=CARTESIAN_POINT('',(-2.23472963553339,0.,26.1351819455877));
#562=CARTESIAN_POINT('',(0.,0.,26.3));
#563=CARTESIAN_POINT('',(-1.3,0.,26.3));
#564=CARTESIAN_POINT('',(0.,0.,25.9382203949852));
#565=CARTESIAN_POINT('',(0.,0.,25.9382203949852));
#566=CARTESIAN_POINT('',(-2.4,0.,25.9382203949852));
#567=CARTESIAN_POINT('',(0.,0.,0.));
#568=CARTESIAN_POINT('',(0.,0.,24.8));
#569=CARTESIAN_POINT('',(-2.4,0.,24.8));
#570=CARTESIAN_POINT('',(0.,2.4,24.8));
#571=CARTESIAN_POINT('',(0.,0.,24.8));
#572=CARTESIAN_POINT('',(-2.,0.,24.8));
#573=CARTESIAN_POINT('',(0.,0.,24.5));
#574=CARTESIAN_POINT('',(0.,0.,24.5));
#575=CARTESIAN_POINT('',(-1.7,0.,24.5));
#576=CARTESIAN_POINT('',(0.,0.,0.));
#577=CARTESIAN_POINT('',(0.,0.,23.9));
#578=CARTESIAN_POINT('',(-1.7,0.,23.9));
#579=CARTESIAN_POINT('',(0.,1.7,23.9));
#580=CARTESIAN_POINT('',(0.,0.,23.9));
#581=CARTESIAN_POINT('',(-2.8,0.,23.9));
#582=CARTESIAN_POINT('',(0.,0.,0.));
#583=CARTESIAN_POINT('',(0.,0.,23.7));
#584=CARTESIAN_POINT('',(-2.8,0.,23.7));
#585=CARTESIAN_POINT('',(0.,2.8,23.7));
#586=CARTESIAN_POINT('',(0.,0.,23.7));
#587=CARTESIAN_POINT('',(-2.93007318805649,0.,23.7));
#588=CARTESIAN_POINT('',(0.,0.,23.7));
#589=CARTESIAN_POINT('',(0.,0.,22.7));
#590=CARTESIAN_POINT('',(-3.,0.,22.7));
#591=CARTESIAN_POINT('',(0.,0.,0.));
#592=CARTESIAN_POINT('',(0.,0.,19.05));
#593=CARTESIAN_POINT('',(-3.,0.,19.05));
#594=CARTESIAN_POINT('',(0.,0.,19.05));
#595=CARTESIAN_POINT('',(0.,0.,18.85));
#596=CARTESIAN_POINT('',(-2.8,0.,18.85));
#597=CARTESIAN_POINT('',(0.,0.,18.85));
#598=CARTESIAN_POINT('',(0.,0.,18.65));
#599=CARTESIAN_POINT('',(-3.,0.,18.65));
#600=CARTESIAN_POINT('',(0.,0.,0.));
#601=CARTESIAN_POINT('',(0.,0.,15.));
#602=CARTESIAN_POINT('',(-3.,0.,15.));
#603=CARTESIAN_POINT('',(0.,3.,15.));
#604=CARTESIAN_POINT('',(0.,0.,15.));
#605=CARTESIAN_POINT('',(-1.5,0.,15.));
#606=CARTESIAN_POINT('',(0.,0.,0.));
#607=CARTESIAN_POINT('',(0.,0.,0.299999999999998));
#608=CARTESIAN_POINT('',(-1.5,0.,0.299999999999998));
#609=CARTESIAN_POINT('',(0.,0.,0.3));
#610=CARTESIAN_POINT('',(0.,0.,-1.0842021724855E-16));
#611=CARTESIAN_POINT('',(-1.2,0.,-1.0842021724855E-16));
#612=CARTESIAN_POINT('',(0.,1.2,-5.42101086242752E-17));
#613=CARTESIAN_POINT('',(0.,0.,3.46944695195361E-15));
#614=CARTESIAN_POINT('',(-0.55,0.,3.46944695195361E-15));
#615=CARTESIAN_POINT('',(0.,0.,26.));
#616=CARTESIAN_POINT('',(0.,0.,26.));
#617=CARTESIAN_POINT('',(-1.,0.,26.));
#618=CARTESIAN_POINT('',(0.,0.,0.));
#619=CARTESIAN_POINT('',(0.,0.,17.9));
#620=CARTESIAN_POINT('',(-1.,0.,17.9));
#621=CARTESIAN_POINT('',(0.,1.,17.9));
#622=CARTESIAN_POINT('',(0.,0.,17.9));
#623=CARTESIAN_POINT('',(-0.55,0.,17.9));
#624=CARTESIAN_POINT('',(0.,0.,0.));
#625=MECHANICAL_DESIGN_GEOMETRIC_PRESENTATION_REPRESENTATION('',(#240,#241,
#242,#243,#244,#245,#246,#247,#248,#249,#250,#251,#252,#253,#254,#255,#256,
#257,#258,#259,#260,#261),#626);
#626=(
GEOMETRIC_REPRESENTATION_CONTEXT(3)
GLOBAL_UNCERTAINTY_ASSIGNED_CONTEXT((#627))
GLOBAL_UNIT_ASSIGNED_CONTEXT((#630,#629,#628))
REPRESENTATION_CONTEXT('133035 QSM-3H-2','TOP_LEVEL_ASSEMBLY_PART')
);
#627=UNCERTAINTY_MEASURE_WITH_UNIT(LENGTH_MEASURE(0.005),#630,
'DISTANCE_ACCURACY_VALUE','Maximum Tolerance applied to model');
#628=(
NAMED_UNIT(*)
SI_UNIT($,.STERADIAN.)
SOLID_ANGLE_UNIT()
);
#629=(
NAMED_UNIT(*)
PLANE_ANGLE_UNIT()
SI_UNIT($,.RADIAN.)
);
#630=(
LENGTH_UNIT()
NAMED_UNIT(*)
SI_UNIT(.MILLI.,.METRE.)
);
#631=PRODUCT_DEFINITION_SHAPE('','',#632);
#632=PRODUCT_DEFINITION('','',#634,#633);
#633=PRODUCT_DEFINITION_CONTEXT('',#640,'design');
#634=PRODUCT_DEFINITION_FORMATION_WITH_SPECIFIED_SOURCE('','',#636,
 .NOT_KNOWN.);
#635=PRODUCT_RELATED_PRODUCT_CATEGORY('','',(#636));
#636=PRODUCT('133035 QSM-3H-2','133035 QSM-3H-2','133035 QSM-3H-2',(#638));
#637=PRODUCT_CATEGORY('','');
#638=PRODUCT_CONTEXT('',#640,'mechanical');
#639=APPLICATION_PROTOCOL_DEFINITION('international standard',
'automotive_design',2010,#640);
#640=APPLICATION_CONTEXT(
'core data for automotive mechanical design processes');
ENDSEC;
END-ISO-10303-21;
