ISO-10303-21;
HEADER;
/* Generated by software containing ST-Developer
 * from STEP Tools, Inc. (www.steptools.com) 
 */
/* OPTION: using custom renumber hook */

FILE_DESCRIPTION(
/* description */ ('STEP AP214'),
/* implementation_level */ '2;1');

FILE_NAME(
/* name */ '1355026_DAMD-PS-M10-16-R1',
/* time_stamp */ '2024-08-13T14:32:04+02:00',
/* author */ ('License CC BY-ND 4.0'),
/* organization */ ('CADENAS'),
/* preprocessor_version */ 'ST-DEVELOPER v19.3',
/* originating_system */ 'PARTsolutions',
/* authorisation */ '  ');

FILE_SCHEMA (('AUTOMOTIVE_DESIGN {1 0 10303 214 3 1 1}'));
ENDSEC;

DATA;
#10=PROPERTY_DEFINITION_REPRESENTATION(#14,#12);
#11=PROPERTY_DEFINITION_REPRESENTATION(#15,#13);
#12=REPRESENTATION('',(#16),#397);
#13=REPRESENTATION('',(#17),#397);
#14=PROPERTY_DEFINITION('pmi validation property','',#404);
#15=PROPERTY_DEFINITION('pmi validation property','',#404);
#16=VALUE_REPRESENTATION_ITEM('number of annotations',COUNT_MEASURE(0.));
#17=VALUE_REPRESENTATION_ITEM('number of views',COUNT_MEASURE(0.));
#18=CONTEXT_DEPENDENT_SHAPE_REPRESENTATION(#26,#406);
#19=CONTEXT_DEPENDENT_SHAPE_REPRESENTATION(#27,#407);
#20=CONTEXT_DEPENDENT_SHAPE_REPRESENTATION(#28,#408);
#21=CONTEXT_DEPENDENT_SHAPE_REPRESENTATION(#29,#409);
#22=NEXT_ASSEMBLY_USAGE_OCCURRENCE('NAUO1',
'1355026 DAMD-PS-M10-16-R1---(part)',
'1355026 DAMD-PS-M10-16-R1---(part)',#410,#411,'');
#23=NEXT_ASSEMBLY_USAGE_OCCURRENCE('NAUO2',
'1355026 DAMD-PS-M10-16-R1---(part)',
'1355026 DAMD-PS-M10-16-R1---(part)',#410,#411,'');
#24=NEXT_ASSEMBLY_USAGE_OCCURRENCE('NAUO3',
'1355026 DAMD-PS-M10-16-R1---(part)',
'1355026 DAMD-PS-M10-16-R1---(part)',#410,#411,'');
#25=NEXT_ASSEMBLY_USAGE_OCCURRENCE('NAUO4',
'1355026 DAMD-PS-M10-16-R1---(part)',
'1355026 DAMD-PS-M10-16-R1---(part)',#410,#411,'');
#26=(
REPRESENTATION_RELATIONSHIP(' ',' ',#232,#231)
REPRESENTATION_RELATIONSHIP_WITH_TRANSFORMATION(#30)
SHAPE_REPRESENTATION_RELATIONSHIP()
);
#27=(
REPRESENTATION_RELATIONSHIP(' ',' ',#232,#231)
REPRESENTATION_RELATIONSHIP_WITH_TRANSFORMATION(#31)
SHAPE_REPRESENTATION_RELATIONSHIP()
);
#28=(
REPRESENTATION_RELATIONSHIP(' ',' ',#232,#231)
REPRESENTATION_RELATIONSHIP_WITH_TRANSFORMATION(#32)
SHAPE_REPRESENTATION_RELATIONSHIP()
);
#29=(
REPRESENTATION_RELATIONSHIP(' ',' ',#232,#231)
REPRESENTATION_RELATIONSHIP_WITH_TRANSFORMATION(#33)
SHAPE_REPRESENTATION_RELATIONSHIP()
);
#30=ITEM_DEFINED_TRANSFORMATION(' ',' ',#233,#252);
#31=ITEM_DEFINED_TRANSFORMATION(' ',' ',#233,#253);
#32=ITEM_DEFINED_TRANSFORMATION(' ',' ',#233,#254);
#33=ITEM_DEFINED_TRANSFORMATION(' ',' ',#233,#255);
#34=SHAPE_REPRESENTATION_RELATIONSHIP('','',#232,#35);
#35=ADVANCED_BREP_SHAPE_REPRESENTATION('',(#228),#398);
#36=LINE('',#368,#48);
#37=LINE('',#370,#49);
#38=LINE('',#372,#50);
#39=LINE('',#374,#51);
#40=LINE('',#376,#52);
#41=LINE('',#378,#53);
#42=LINE('',#380,#54);
#43=LINE('',#382,#55);
#44=LINE('',#384,#56);
#45=LINE('',#386,#57);
#46=LINE('',#388,#58);
#47=LINE('',#390,#59);
#48=VECTOR('',#282,1000.);
#49=VECTOR('',#283,1000.);
#50=VECTOR('',#284,1000.);
#51=VECTOR('',#287,1000.);
#52=VECTOR('',#288,1000.);
#53=VECTOR('',#291,1000.);
#54=VECTOR('',#292,1000.);
#55=VECTOR('',#295,1000.);
#56=VECTOR('',#296,1000.);
#57=VECTOR('',#299,1000.);
#58=VECTOR('',#300,1000.);
#59=VECTOR('',#303,1000.);
#60=PLANE('',#238);
#61=PLANE('',#244);
#62=PLANE('',#245);
#63=PLANE('',#246);
#64=PLANE('',#247);
#65=PLANE('',#248);
#66=PLANE('',#249);
#67=PLANE('',#250);
#68=PLANE('',#251);
#69=CYLINDRICAL_SURFACE('',#236,10.);
#70=CYLINDRICAL_SURFACE('',#240,5.);
#71=B_SPLINE_CURVE_WITH_KNOTS('',3,(#318,#319,#320,#321,#322),
 .UNSPECIFIED.,.F.,.F.,(4,1,4),(2.30940107675961E-7,0.00433035795902987,
0.00866048497795206),.UNSPECIFIED.);
#72=B_SPLINE_CURVE_WITH_KNOTS('',3,(#325,#326,#327,#328,#329),
 .UNSPECIFIED.,.F.,.F.,(4,1,4),(0.00972378395481614,0.0140728404532956,
0.0184218969517751),.UNSPECIFIED.);
#73=B_SPLINE_CURVE_WITH_KNOTS('',3,(#331,#332,#333,#334,#335),
 .UNSPECIFIED.,.F.,.F.,(4,1,4),(2.30940107675202E-7,0.00433035795902987,
0.00866048497795206),.UNSPECIFIED.);
#74=B_SPLINE_CURVE_WITH_KNOTS('',3,(#337,#338,#339,#340,#341),
 .UNSPECIFIED.,.F.,.F.,(4,1,4),(2.30940107675961E-7,0.00433035795902987,
0.00866048497795206),.UNSPECIFIED.);
#75=B_SPLINE_CURVE_WITH_KNOTS('',3,(#343,#344,#345,#346,#347),
 .UNSPECIFIED.,.F.,.F.,(4,1,4),(0.00972378395481614,0.0140728404532956,
0.0184218969517751),.UNSPECIFIED.);
#76=B_SPLINE_CURVE_WITH_KNOTS('',3,(#349,#350,#351,#352,#353),
 .UNSPECIFIED.,.F.,.F.,(4,1,4),(2.30940107675202E-7,0.00433035795902987,
0.00866048497795206),.UNSPECIFIED.);
#77=ORIENTED_EDGE('',*,*,#123,.F.);
#78=ORIENTED_EDGE('',*,*,#124,.T.);
#79=ORIENTED_EDGE('',*,*,#125,.T.);
#80=ORIENTED_EDGE('',*,*,#126,.T.);
#81=ORIENTED_EDGE('',*,*,#127,.T.);
#82=ORIENTED_EDGE('',*,*,#128,.T.);
#83=ORIENTED_EDGE('',*,*,#129,.T.);
#84=ORIENTED_EDGE('',*,*,#130,.F.);
#85=ORIENTED_EDGE('',*,*,#123,.T.);
#86=ORIENTED_EDGE('',*,*,#131,.F.);
#87=ORIENTED_EDGE('',*,*,#130,.T.);
#88=ORIENTED_EDGE('',*,*,#132,.F.);
#89=ORIENTED_EDGE('',*,*,#131,.T.);
#90=ORIENTED_EDGE('',*,*,#133,.F.);
#91=ORIENTED_EDGE('',*,*,#132,.T.);
#92=ORIENTED_EDGE('',*,*,#133,.T.);
#93=ORIENTED_EDGE('',*,*,#125,.F.);
#94=ORIENTED_EDGE('',*,*,#134,.T.);
#95=ORIENTED_EDGE('',*,*,#135,.F.);
#96=ORIENTED_EDGE('',*,*,#136,.F.);
#97=ORIENTED_EDGE('',*,*,#124,.F.);
#98=ORIENTED_EDGE('',*,*,#137,.T.);
#99=ORIENTED_EDGE('',*,*,#138,.F.);
#100=ORIENTED_EDGE('',*,*,#134,.F.);
#101=ORIENTED_EDGE('',*,*,#129,.F.);
#102=ORIENTED_EDGE('',*,*,#139,.T.);
#103=ORIENTED_EDGE('',*,*,#140,.F.);
#104=ORIENTED_EDGE('',*,*,#137,.F.);
#105=ORIENTED_EDGE('',*,*,#128,.F.);
#106=ORIENTED_EDGE('',*,*,#141,.T.);
#107=ORIENTED_EDGE('',*,*,#142,.F.);
#108=ORIENTED_EDGE('',*,*,#139,.F.);
#109=ORIENTED_EDGE('',*,*,#127,.F.);
#110=ORIENTED_EDGE('',*,*,#143,.T.);
#111=ORIENTED_EDGE('',*,*,#144,.F.);
#112=ORIENTED_EDGE('',*,*,#141,.F.);
#113=ORIENTED_EDGE('',*,*,#126,.F.);
#114=ORIENTED_EDGE('',*,*,#136,.T.);
#115=ORIENTED_EDGE('',*,*,#145,.F.);
#116=ORIENTED_EDGE('',*,*,#143,.F.);
#117=ORIENTED_EDGE('',*,*,#135,.T.);
#118=ORIENTED_EDGE('',*,*,#138,.T.);
#119=ORIENTED_EDGE('',*,*,#140,.T.);
#120=ORIENTED_EDGE('',*,*,#142,.T.);
#121=ORIENTED_EDGE('',*,*,#144,.T.);
#122=ORIENTED_EDGE('',*,*,#145,.T.);
#123=EDGE_CURVE('',#146,#146,#163,.T.);
#124=EDGE_CURVE('',#147,#148,#71,.T.);
#125=EDGE_CURVE('',#148,#149,#72,.T.);
#126=EDGE_CURVE('',#149,#150,#73,.T.);
#127=EDGE_CURVE('',#150,#151,#74,.T.);
#128=EDGE_CURVE('',#151,#152,#75,.T.);
#129=EDGE_CURVE('',#152,#147,#76,.T.);
#130=EDGE_CURVE('',#153,#153,#164,.T.);
#131=EDGE_CURVE('',#154,#154,#165,.T.);
#132=EDGE_CURVE('',#155,#155,#166,.T.);
#133=EDGE_CURVE('',#156,#156,#167,.T.);
#134=EDGE_CURVE('',#148,#157,#36,.T.);
#135=EDGE_CURVE('',#158,#157,#37,.T.);
#136=EDGE_CURVE('',#149,#158,#38,.T.);
#137=EDGE_CURVE('',#147,#159,#39,.T.);
#138=EDGE_CURVE('',#157,#159,#40,.T.);
#139=EDGE_CURVE('',#152,#160,#41,.T.);
#140=EDGE_CURVE('',#159,#160,#42,.T.);
#141=EDGE_CURVE('',#151,#161,#43,.T.);
#142=EDGE_CURVE('',#160,#161,#44,.T.);
#143=EDGE_CURVE('',#150,#162,#45,.T.);
#144=EDGE_CURVE('',#161,#162,#46,.T.);
#145=EDGE_CURVE('',#162,#158,#47,.T.);
#146=VERTEX_POINT('',#317);
#147=VERTEX_POINT('',#323);
#148=VERTEX_POINT('',#324);
#149=VERTEX_POINT('',#330);
#150=VERTEX_POINT('',#336);
#151=VERTEX_POINT('',#342);
#152=VERTEX_POINT('',#348);
#153=VERTEX_POINT('',#356);
#154=VERTEX_POINT('',#359);
#155=VERTEX_POINT('',#362);
#156=VERTEX_POINT('',#365);
#157=VERTEX_POINT('',#369);
#158=VERTEX_POINT('',#371);
#159=VERTEX_POINT('',#375);
#160=VERTEX_POINT('',#379);
#161=VERTEX_POINT('',#383);
#162=VERTEX_POINT('',#387);
#163=CIRCLE('',#235,10.);
#164=CIRCLE('',#237,10.);
#165=CIRCLE('',#239,5.);
#166=CIRCLE('',#241,5.);
#167=CIRCLE('',#243,4.08);
#168=EDGE_LOOP('',(#77));
#169=EDGE_LOOP('',(#78,#79,#80,#81,#82,#83));
#170=EDGE_LOOP('',(#84));
#171=EDGE_LOOP('',(#85));
#172=EDGE_LOOP('',(#86));
#173=EDGE_LOOP('',(#87));
#174=EDGE_LOOP('',(#88));
#175=EDGE_LOOP('',(#89));
#176=EDGE_LOOP('',(#90));
#177=EDGE_LOOP('',(#91));
#178=EDGE_LOOP('',(#92));
#179=EDGE_LOOP('',(#93,#94,#95,#96));
#180=EDGE_LOOP('',(#97,#98,#99,#100));
#181=EDGE_LOOP('',(#101,#102,#103,#104));
#182=EDGE_LOOP('',(#105,#106,#107,#108));
#183=EDGE_LOOP('',(#109,#110,#111,#112));
#184=EDGE_LOOP('',(#113,#114,#115,#116));
#185=EDGE_LOOP('',(#117,#118,#119,#120,#121,#122));
#186=FACE_BOUND('',#168,.T.);
#187=FACE_BOUND('',#169,.T.);
#188=FACE_BOUND('',#170,.T.);
#189=FACE_BOUND('',#171,.T.);
#190=FACE_BOUND('',#172,.T.);
#191=FACE_BOUND('',#173,.T.);
#192=FACE_BOUND('',#174,.T.);
#193=FACE_BOUND('',#175,.T.);
#194=FACE_BOUND('',#176,.T.);
#195=FACE_BOUND('',#177,.T.);
#196=FACE_BOUND('',#178,.T.);
#197=FACE_BOUND('',#179,.T.);
#198=FACE_BOUND('',#180,.T.);
#199=FACE_BOUND('',#181,.T.);
#200=FACE_BOUND('',#182,.T.);
#201=FACE_BOUND('',#183,.T.);
#202=FACE_BOUND('',#184,.T.);
#203=FACE_BOUND('',#185,.T.);
#204=CONICAL_SURFACE('',#234,0.,1.22173047639603);
#205=CONICAL_SURFACE('',#242,5.,0.785398163397448);
#206=ADVANCED_FACE('',(#186,#187),#204,.T.);
#207=ADVANCED_FACE('',(#188,#189),#69,.T.);
#208=ADVANCED_FACE('',(#190,#191),#60,.F.);
#209=ADVANCED_FACE('',(#192,#193),#70,.T.);
#210=ADVANCED_FACE('',(#194,#195),#205,.T.);
#211=ADVANCED_FACE('',(#196),#61,.F.);
#212=ADVANCED_FACE('',(#197),#62,.T.);
#213=ADVANCED_FACE('',(#198),#63,.T.);
#214=ADVANCED_FACE('',(#199),#64,.T.);
#215=ADVANCED_FACE('',(#200),#65,.T.);
#216=ADVANCED_FACE('',(#201),#66,.T.);
#217=ADVANCED_FACE('',(#202),#67,.T.);
#218=ADVANCED_FACE('',(#203),#68,.T.);
#219=CLOSED_SHELL('',(#206,#207,#208,#209,#210,#211,#212,#213,#214,#215,
#216,#217,#218));
#220=STYLED_ITEM('',(#221),#228);
#221=PRESENTATION_STYLE_ASSIGNMENT((#222));
#222=SURFACE_STYLE_USAGE(.BOTH.,#223);
#223=SURFACE_SIDE_STYLE('',(#224));
#224=SURFACE_STYLE_FILL_AREA(#225);
#225=FILL_AREA_STYLE('',(#226));
#226=FILL_AREA_STYLE_COLOUR('',#227);
#227=COLOUR_RGB('',0.501960813999176,0.501960813999176,0.501960813999176);
#228=MANIFOLD_SOLID_BREP('1355026 DAMD-PS-M10-16-R1---(part)',#219);
#229=SHAPE_DEFINITION_REPRESENTATION(#404,#231);
#230=SHAPE_DEFINITION_REPRESENTATION(#405,#232);
#231=SHAPE_REPRESENTATION('1355026 DAMD-PS-M10-16-R1',(#233,#252,#253,#254,
#255),#397);
#232=SHAPE_REPRESENTATION('1355026 DAMD-PS-M10-16-R1---(part)',(#233),#398);
#233=AXIS2_PLACEMENT_3D('',#314,#256,#257);
#234=AXIS2_PLACEMENT_3D('',#315,#258,#259);
#235=AXIS2_PLACEMENT_3D('',#316,#260,#261);
#236=AXIS2_PLACEMENT_3D('',#354,#262,#263);
#237=AXIS2_PLACEMENT_3D('',#355,#264,#265);
#238=AXIS2_PLACEMENT_3D('',#357,#266,#267);
#239=AXIS2_PLACEMENT_3D('',#358,#268,#269);
#240=AXIS2_PLACEMENT_3D('',#360,#270,#271);
#241=AXIS2_PLACEMENT_3D('',#361,#272,#273);
#242=AXIS2_PLACEMENT_3D('',#363,#274,#275);
#243=AXIS2_PLACEMENT_3D('',#364,#276,#277);
#244=AXIS2_PLACEMENT_3D('',#366,#278,#279);
#245=AXIS2_PLACEMENT_3D('',#367,#280,#281);
#246=AXIS2_PLACEMENT_3D('',#373,#285,#286);
#247=AXIS2_PLACEMENT_3D('',#377,#289,#290);
#248=AXIS2_PLACEMENT_3D('',#381,#293,#294);
#249=AXIS2_PLACEMENT_3D('',#385,#297,#298);
#250=AXIS2_PLACEMENT_3D('',#389,#301,#302);
#251=AXIS2_PLACEMENT_3D('',#391,#304,#305);
#252=AXIS2_PLACEMENT_3D('',#392,#306,#307);
#253=AXIS2_PLACEMENT_3D('',#393,#308,#309);
#254=AXIS2_PLACEMENT_3D('',#394,#310,#311);
#255=AXIS2_PLACEMENT_3D('',#395,#312,#313);
#256=DIRECTION('',(0.,0.,1.));
#257=DIRECTION('',(1.,0.,0.));
#258=DIRECTION('',(0.,-5.25183849152226E-18,-1.));
#259=DIRECTION('',(0.,1.,-5.25183849152226E-18));
#260=DIRECTION('',(0.,-5.25183849152226E-18,-1.));
#261=DIRECTION('',(0.,1.,-5.25183849152226E-18));
#262=DIRECTION('',(0.,-5.25183849152226E-18,-1.));
#263=DIRECTION('',(0.,1.,-5.25183849152226E-18));
#264=DIRECTION('',(0.,-5.25183849152226E-18,-1.));
#265=DIRECTION('',(0.,1.,-5.25183849152226E-18));
#266=DIRECTION('',(0.,5.25183849152226E-18,1.));
#267=DIRECTION('',(0.,-1.,5.25183849152226E-18));
#268=DIRECTION('',(0.,-5.25183849152226E-18,-1.));
#269=DIRECTION('',(0.,1.,-5.25183849152226E-18));
#270=DIRECTION('',(0.,-5.25183849152226E-18,-1.));
#271=DIRECTION('',(0.,1.,-5.25183849152226E-18));
#272=DIRECTION('',(0.,-5.25183849152226E-18,-1.));
#273=DIRECTION('',(0.,1.,-5.25183849152226E-18));
#274=DIRECTION('',(0.,5.25183849152226E-18,1.));
#275=DIRECTION('',(0.,-1.,5.25183849152226E-18));
#276=DIRECTION('',(0.,-5.25183849152226E-18,-1.));
#277=DIRECTION('',(0.,1.,-5.25183849152226E-18));
#278=DIRECTION('',(0.,5.25183849152226E-18,1.));
#279=DIRECTION('',(0.,-1.,5.25183849152226E-18));
#280=DIRECTION('',(-1.,0.,0.));
#281=DIRECTION('',(0.,0.,1.));
#282=DIRECTION('',(0.,0.,1.));
#283=DIRECTION('',(0.,-1.,0.));
#284=DIRECTION('',(0.,0.,1.));
#285=DIRECTION('',(-0.5,-0.866025403784439,0.));
#286=DIRECTION('',(0.866025403784439,-0.5,0.));
#287=DIRECTION('',(0.,0.,1.));
#288=DIRECTION('',(0.866025403784439,-0.5,0.));
#289=DIRECTION('',(0.5,-0.866025403784439,0.));
#290=DIRECTION('',(0.866025403784439,0.5,0.));
#291=DIRECTION('',(0.,0.,1.));
#292=DIRECTION('',(0.866025403784439,0.5,0.));
#293=DIRECTION('',(1.,0.,0.));
#294=DIRECTION('',(0.,0.,-1.));
#295=DIRECTION('',(0.,0.,1.));
#296=DIRECTION('',(0.,1.,0.));
#297=DIRECTION('',(0.5,0.866025403784439,0.));
#298=DIRECTION('',(-0.866025403784439,0.5,0.));
#299=DIRECTION('',(0.,0.,1.));
#300=DIRECTION('',(-0.866025403784439,0.5,0.));
#301=DIRECTION('',(-0.5,0.866025403784439,0.));
#302=DIRECTION('',(-0.866025403784439,-0.5,0.));
#303=DIRECTION('',(-0.866025403784439,-0.5,0.));
#304=DIRECTION('',(0.,0.,1.));
#305=DIRECTION('',(1.,0.,0.));
#306=DIRECTION('',(0.,0.,1.));
#307=DIRECTION('',(1.,0.,0.));
#308=DIRECTION('',(0.,0.,1.));
#309=DIRECTION('',(1.,0.,0.));
#310=DIRECTION('',(0.,0.,1.));
#311=DIRECTION('',(1.,0.,0.));
#312=DIRECTION('',(0.,0.,1.));
#313=DIRECTION('',(1.,0.,0.));
#314=CARTESIAN_POINT('',(0.,0.,0.));
#315=CARTESIAN_POINT('',(0.,1.11022302462516E-16,21.139702342662));
#316=CARTESIAN_POINT('',(0.,9.19071736016395E-17,17.5));
#317=CARTESIAN_POINT('',(0.,10.,17.5));
#318=CARTESIAN_POINT('',(-8.04693707600774E-17,-8.66025403784439,17.987627651703));
#319=CARTESIAN_POINT('',(-1.25,-7.93856620135735,18.2503005426162));
#320=CARTESIAN_POINT('',(-3.75,-6.49519052838329,18.5695506287148));
#321=CARTESIAN_POINT('',(-6.25,-5.05181485540923,18.2503005426162));
#322=CARTESIAN_POINT('',(-7.5,-4.3301270189222,17.987627651703));
#323=CARTESIAN_POINT('',(0.,-8.66025403784439,17.987627651703));
#324=CARTESIAN_POINT('',(-7.5,-4.33012701892219,17.987627651703));
#325=CARTESIAN_POINT('',(-7.5,-4.3301270189222,17.987627651703));
#326=CARTESIAN_POINT('',(-7.5,-2.90249103073909,18.2474361542359));
#327=CARTESIAN_POINT('',(-7.5,0.0461408313764025,18.5739194710894));
#328=CARTESIAN_POINT('',(-7.5,2.91942242600179,18.2443548922858));
#329=CARTESIAN_POINT('',(-7.5,4.33012701892219,17.987627651703));
#330=CARTESIAN_POINT('',(-7.5,4.33012701892219,17.987627651703));
#331=CARTESIAN_POINT('',(-7.5,4.33012701892219,17.987627651703));
#332=CARTESIAN_POINT('',(-6.25,5.05181485540923,18.2503005426162));
#333=CARTESIAN_POINT('',(-3.75,6.49519052838329,18.5695506287148));
#334=CARTESIAN_POINT('',(-1.25,7.93856620135735,18.2503005426162));
#335=CARTESIAN_POINT('',(1.30104260698261E-15,8.66025403784439,17.987627651703));
#336=CARTESIAN_POINT('',(0.,8.66025403784439,17.987627651703));
#337=CARTESIAN_POINT('',(8.04693707600774E-17,8.66025403784439,17.987627651703));
#338=CARTESIAN_POINT('',(1.25,7.93856620135735,18.2503005426162));
#339=CARTESIAN_POINT('',(3.75,6.49519052838329,18.5695506287148));
#340=CARTESIAN_POINT('',(6.25,5.05181485540923,18.2503005426162));
#341=CARTESIAN_POINT('',(7.5,4.3301270189222,17.987627651703));
#342=CARTESIAN_POINT('',(7.5,4.33012701892219,17.987627651703));
#343=CARTESIAN_POINT('',(7.5,4.3301270189222,17.987627651703));
#344=CARTESIAN_POINT('',(7.5,2.90249103073909,18.2474361542359));
#345=CARTESIAN_POINT('',(7.5,-0.0461408313764025,18.5739194710894));
#346=CARTESIAN_POINT('',(7.5,-2.91942242600179,18.2443548922858));
#347=CARTESIAN_POINT('',(7.5,-4.33012701892219,17.987627651703));
#348=CARTESIAN_POINT('',(7.5,-4.33012701892219,17.987627651703));
#349=CARTESIAN_POINT('',(7.5,-4.33012701892219,17.987627651703));
#350=CARTESIAN_POINT('',(6.25,-5.05181485540923,18.2503005426162));
#351=CARTESIAN_POINT('',(3.75,-6.49519052838329,18.5695506287148));
#352=CARTESIAN_POINT('',(1.25,-7.93856620135735,18.2503005426162));
#353=CARTESIAN_POINT('',(-1.30104260698261E-15,-8.66025403784439,17.987627651703));
#354=CARTESIAN_POINT('',(0.,0.,0.));
#355=CARTESIAN_POINT('',(0.,8.40294158643561E-17,16.));
#356=CARTESIAN_POINT('',(0.,10.,16.));
#357=CARTESIAN_POINT('',(0.,10.,16.));
#358=CARTESIAN_POINT('',(0.,8.40294158643561E-17,16.));
#359=CARTESIAN_POINT('',(0.,5.,16.));
#360=CARTESIAN_POINT('',(0.,0.,0.));
#361=CARTESIAN_POINT('',(0.,4.83169141220048E-18,0.920000000000001));
#362=CARTESIAN_POINT('',(0.,5.,0.920000000000001));
#363=CARTESIAN_POINT('',(0.,4.83169141220048E-18,0.920000000000001));
#364=CARTESIAN_POINT('',(0.,6.81939244972565E-34,1.29847718293961E-16));
#365=CARTESIAN_POINT('',(0.,4.08,1.0842021724855E-16));
#366=CARTESIAN_POINT('',(0.,4.08,4.34963581015698E-17));
#367=CARTESIAN_POINT('',(-7.5,4.33012701892219,17.5));
#368=CARTESIAN_POINT('',(-7.5,-4.33012701892219,17.5));
#369=CARTESIAN_POINT('',(-7.5,-4.33012701892219,24.));
#370=CARTESIAN_POINT('',(-7.5,4.33012701892219,24.));
#371=CARTESIAN_POINT('',(-7.5,4.33012701892219,24.));
#372=CARTESIAN_POINT('',(-7.5,4.33012701892219,17.5));
#373=CARTESIAN_POINT('',(-7.5,-4.33012701892219,17.5));
#374=CARTESIAN_POINT('',(0.,-8.66025403784439,17.5));
#375=CARTESIAN_POINT('',(0.,-8.66025403784439,24.));
#376=CARTESIAN_POINT('',(-7.5,-4.33012701892219,24.));
#377=CARTESIAN_POINT('',(0.,-8.66025403784439,17.5));
#378=CARTESIAN_POINT('',(7.5,-4.33012701892219,17.5));
#379=CARTESIAN_POINT('',(7.5,-4.33012701892219,24.));
#380=CARTESIAN_POINT('',(0.,-8.66025403784439,24.));
#381=CARTESIAN_POINT('',(7.5,-4.33012701892219,17.5));
#382=CARTESIAN_POINT('',(7.5,4.33012701892219,17.5));
#383=CARTESIAN_POINT('',(7.5,4.33012701892219,24.));
#384=CARTESIAN_POINT('',(7.5,-4.33012701892219,24.));
#385=CARTESIAN_POINT('',(7.5,4.33012701892219,17.5));
#386=CARTESIAN_POINT('',(0.,8.66025403784439,17.5));
#387=CARTESIAN_POINT('',(0.,8.66025403784439,24.));
#388=CARTESIAN_POINT('',(7.5,4.33012701892219,24.));
#389=CARTESIAN_POINT('',(0.,8.66025403784439,17.5));
#390=CARTESIAN_POINT('',(0.,8.66025403784439,24.));
#391=CARTESIAN_POINT('',(0.,0.,24.));
#392=CARTESIAN_POINT('',(-41.,1.95943487863577E-15,-16.));
#393=CARTESIAN_POINT('',(-18.,1.95943487863577E-15,-16.));
#394=CARTESIAN_POINT('',(5.,1.95943487863577E-15,-16.));
#395=CARTESIAN_POINT('',(28.,1.95943487863577E-15,-16.));
#396=MECHANICAL_DESIGN_GEOMETRIC_PRESENTATION_REPRESENTATION('',(#220),
#397);
#397=(
GEOMETRIC_REPRESENTATION_CONTEXT(3)
GLOBAL_UNCERTAINTY_ASSIGNED_CONTEXT((#399))
GLOBAL_UNIT_ASSIGNED_CONTEXT((#403,#402,#401))
REPRESENTATION_CONTEXT('1355026 DAMD-PS-M10-16-R1',
'TOP_LEVEL_ASSEMBLY_PART')
);
#398=(
GEOMETRIC_REPRESENTATION_CONTEXT(3)
GLOBAL_UNCERTAINTY_ASSIGNED_CONTEXT((#400))
GLOBAL_UNIT_ASSIGNED_CONTEXT((#403,#402,#401))
REPRESENTATION_CONTEXT('1355026 DAMD-PS-M10-16-R1---(part)',
'COMPONENT_PART')
);
#399=UNCERTAINTY_MEASURE_WITH_UNIT(LENGTH_MEASURE(0.005),#403,
'DISTANCE_ACCURACY_VALUE','Maximum Tolerance applied to model');
#400=UNCERTAINTY_MEASURE_WITH_UNIT(LENGTH_MEASURE(0.005),#403,
'DISTANCE_ACCURACY_VALUE','Maximum Tolerance applied to model');
#401=(
NAMED_UNIT(*)
SI_UNIT($,.STERADIAN.)
SOLID_ANGLE_UNIT()
);
#402=(
NAMED_UNIT(*)
PLANE_ANGLE_UNIT()
SI_UNIT($,.RADIAN.)
);
#403=(
LENGTH_UNIT()
NAMED_UNIT(*)
SI_UNIT(.MILLI.,.METRE.)
);
#404=PRODUCT_DEFINITION_SHAPE('','',#410);
#405=PRODUCT_DEFINITION_SHAPE('','',#411);
#406=PRODUCT_DEFINITION_SHAPE(' ','NAUO PRDDFN',#22);
#407=PRODUCT_DEFINITION_SHAPE(' ','NAUO PRDDFN',#23);
#408=PRODUCT_DEFINITION_SHAPE(' ','NAUO PRDDFN',#24);
#409=PRODUCT_DEFINITION_SHAPE(' ','NAUO PRDDFN',#25);
#410=PRODUCT_DEFINITION('','',#414,#412);
#411=PRODUCT_DEFINITION('','',#415,#413);
#412=PRODUCT_DEFINITION_CONTEXT('',#425,'design');
#413=PRODUCT_DEFINITION_CONTEXT('',#425,'design');
#414=PRODUCT_DEFINITION_FORMATION_WITH_SPECIFIED_SOURCE('','',#418,
 .NOT_KNOWN.);
#415=PRODUCT_DEFINITION_FORMATION_WITH_SPECIFIED_SOURCE('','',#419,
 .NOT_KNOWN.);
#416=PRODUCT_RELATED_PRODUCT_CATEGORY('','',(#418));
#417=PRODUCT_RELATED_PRODUCT_CATEGORY('','',(#419));
#418=PRODUCT('1355026 DAMD-PS-M10-16-R1','1355026 DAMD-PS-M10-16-R1',
'1355026 DAMD-PS-M10-16-R1',(#422));
#419=PRODUCT('1355026 DAMD-PS-M10-16-R1---(part)',
'1355026 DAMD-PS-M10-16-R1---(part)',
'1355026 DAMD-PS-M10-16-R1---(part)',(#423));
#420=PRODUCT_CATEGORY('','');
#421=PRODUCT_CATEGORY('','');
#422=PRODUCT_CONTEXT('',#425,'mechanical');
#423=PRODUCT_CONTEXT('',#425,'mechanical');
#424=APPLICATION_PROTOCOL_DEFINITION('international standard',
'automotive_design',2010,#425);
#425=APPLICATION_CONTEXT(
'core data for automotive mechanical design processes');
ENDSEC;
END-ISO-10303-21;
