ISO-10303-21;
HEADER;
/* Generated by software containing ST-Developer
 * from STEP Tools, Inc. (www.steptools.com) 
 */
/* OPTION: using custom renumber hook */

FILE_DESCRIPTION(
/* description */ ('STEP AP214'),
/* implementation_level */ '2;1');

FILE_NAME(
/* name */ '13783_EV-15_40-DP',
/* time_stamp */ '2024-08-23T08:32:56+02:00',
/* author */ ('License CC BY-ND 4.0'),
/* organization */ ('CADENAS'),
/* preprocessor_version */ 'ST-DEVELOPER v19.3',
/* originating_system */ 'PARTsolutions',
/* authorisation */ '  ');

FILE_SCHEMA (('AUTOMOTIVE_DESIGN {1 0 10303 214 3 1 1}'));
ENDSEC;

DATA;
#10=PROPERTY_DEFINITION_REPRESENTATION(#14,#12);
#11=PROPERTY_DEFINITION_REPRESENTATION(#15,#13);
#12=REPRESENTATION('',(#16),#389);
#13=REPRESENTATION('',(#17),#389);
#14=PROPERTY_DEFINITION('pmi validation property','',#394);
#15=PROPERTY_DEFINITION('pmi validation property','',#394);
#16=VALUE_REPRESENTATION_ITEM('number of annotations',COUNT_MEASURE(0.));
#17=VALUE_REPRESENTATION_ITEM('number of views',COUNT_MEASURE(0.));
#18=SHAPE_REPRESENTATION_RELATIONSHIP('','',#229,#19);
#19=ADVANCED_BREP_SHAPE_REPRESENTATION('',(#227),#389);
#20=TOROIDAL_SURFACE('',#243,1.125,0.374999999999999);
#21=TOROIDAL_SURFACE('',#249,0.949999999999999,0.750000000000002);
#22=TOROIDAL_SURFACE('',#252,1.125,0.375);
#23=TOROIDAL_SURFACE('',#258,0.949999999999996,0.750000000000002);
#24=CIRCLE('',#233,2.25);
#25=CIRCLE('',#234,2.25);
#26=CIRCLE('',#237,2.25);
#27=CIRCLE('',#238,2.25);
#28=CIRCLE('',#240,1.125);
#29=CIRCLE('',#241,1.125);
#30=CIRCLE('',#244,0.749999999999999);
#31=CIRCLE('',#246,0.75);
#32=CIRCLE('',#248,0.95);
#33=CIRCLE('',#250,0.95);
#34=CIRCLE('',#253,0.749999999999999);
#35=CIRCLE('',#255,0.750000000000001);
#36=CIRCLE('',#257,0.95);
#37=CIRCLE('',#259,0.95);
#38=CYLINDRICAL_SURFACE('',#232,2.25);
#39=CYLINDRICAL_SURFACE('',#236,2.25);
#40=CYLINDRICAL_SURFACE('',#245,0.749999999999999);
#41=CYLINDRICAL_SURFACE('',#254,0.75);
#42=ORIENTED_EDGE('',*,*,#86,.T.);
#43=ORIENTED_EDGE('',*,*,#87,.F.);
#44=ORIENTED_EDGE('',*,*,#88,.F.);
#45=ORIENTED_EDGE('',*,*,#89,.T.);
#46=ORIENTED_EDGE('',*,*,#90,.T.);
#47=ORIENTED_EDGE('',*,*,#91,.F.);
#48=ORIENTED_EDGE('',*,*,#92,.F.);
#49=ORIENTED_EDGE('',*,*,#87,.T.);
#50=ORIENTED_EDGE('',*,*,#93,.T.);
#51=ORIENTED_EDGE('',*,*,#94,.F.);
#52=ORIENTED_EDGE('',*,*,#95,.F.);
#53=ORIENTED_EDGE('',*,*,#91,.T.);
#54=ORIENTED_EDGE('',*,*,#96,.T.);
#55=ORIENTED_EDGE('',*,*,#89,.F.);
#56=ORIENTED_EDGE('',*,*,#97,.F.);
#57=ORIENTED_EDGE('',*,*,#94,.T.);
#58=ORIENTED_EDGE('',*,*,#98,.F.);
#59=ORIENTED_EDGE('',*,*,#99,.F.);
#60=ORIENTED_EDGE('',*,*,#88,.T.);
#61=ORIENTED_EDGE('',*,*,#92,.T.);
#62=ORIENTED_EDGE('',*,*,#95,.T.);
#63=ORIENTED_EDGE('',*,*,#97,.T.);
#64=ORIENTED_EDGE('',*,*,#86,.F.);
#65=ORIENTED_EDGE('',*,*,#96,.F.);
#66=ORIENTED_EDGE('',*,*,#93,.F.);
#67=ORIENTED_EDGE('',*,*,#90,.F.);
#68=ORIENTED_EDGE('',*,*,#100,.F.);
#69=ORIENTED_EDGE('',*,*,#99,.T.);
#70=ORIENTED_EDGE('',*,*,#101,.F.);
#71=ORIENTED_EDGE('',*,*,#100,.T.);
#72=ORIENTED_EDGE('',*,*,#102,.F.);
#73=ORIENTED_EDGE('',*,*,#101,.T.);
#74=ORIENTED_EDGE('',*,*,#102,.T.);
#75=ORIENTED_EDGE('',*,*,#103,.F.);
#76=ORIENTED_EDGE('',*,*,#103,.T.);
#77=ORIENTED_EDGE('',*,*,#104,.F.);
#78=ORIENTED_EDGE('',*,*,#98,.T.);
#79=ORIENTED_EDGE('',*,*,#105,.F.);
#80=ORIENTED_EDGE('',*,*,#104,.T.);
#81=ORIENTED_EDGE('',*,*,#106,.F.);
#82=ORIENTED_EDGE('',*,*,#105,.T.);
#83=ORIENTED_EDGE('',*,*,#106,.T.);
#84=ORIENTED_EDGE('',*,*,#107,.F.);
#85=ORIENTED_EDGE('',*,*,#107,.T.);
#86=EDGE_CURVE('',#108,#109,#126,.T.);
#87=EDGE_CURVE('',#110,#109,#127,.T.);
#88=EDGE_CURVE('',#111,#110,#128,.T.);
#89=EDGE_CURVE('',#111,#108,#129,.T.);
#90=EDGE_CURVE('',#109,#112,#24,.T.);
#91=EDGE_CURVE('',#113,#112,#130,.T.);
#92=EDGE_CURVE('',#110,#113,#25,.T.);
#93=EDGE_CURVE('',#112,#114,#131,.T.);
#94=EDGE_CURVE('',#115,#114,#132,.T.);
#95=EDGE_CURVE('',#113,#115,#133,.T.);
#96=EDGE_CURVE('',#114,#108,#26,.T.);
#97=EDGE_CURVE('',#115,#111,#27,.T.);
#98=EDGE_CURVE('',#116,#116,#28,.T.);
#99=EDGE_CURVE('',#117,#117,#29,.T.);
#100=EDGE_CURVE('',#118,#118,#30,.T.);
#101=EDGE_CURVE('',#119,#119,#31,.T.);
#102=EDGE_CURVE('',#120,#120,#32,.T.);
#103=EDGE_CURVE('',#121,#121,#33,.T.);
#104=EDGE_CURVE('',#122,#122,#34,.T.);
#105=EDGE_CURVE('',#123,#123,#35,.T.);
#106=EDGE_CURVE('',#124,#124,#36,.T.);
#107=EDGE_CURVE('',#125,#125,#37,.T.);
#108=VERTEX_POINT('',#334);
#109=VERTEX_POINT('',#335);
#110=VERTEX_POINT('',#337);
#111=VERTEX_POINT('',#339);
#112=VERTEX_POINT('',#343);
#113=VERTEX_POINT('',#345);
#114=VERTEX_POINT('',#349);
#115=VERTEX_POINT('',#351);
#116=VERTEX_POINT('',#358);
#117=VERTEX_POINT('',#360);
#118=VERTEX_POINT('',#364);
#119=VERTEX_POINT('',#367);
#120=VERTEX_POINT('',#370);
#121=VERTEX_POINT('',#373);
#122=VERTEX_POINT('',#377);
#123=VERTEX_POINT('',#380);
#124=VERTEX_POINT('',#383);
#125=VERTEX_POINT('',#386);
#126=LINE('',#333,#134);
#127=LINE('',#336,#135);
#128=LINE('',#338,#136);
#129=LINE('',#340,#137);
#130=LINE('',#344,#138);
#131=LINE('',#348,#139);
#132=LINE('',#350,#140);
#133=LINE('',#352,#141);
#134=VECTOR('',#265,1000.);
#135=VECTOR('',#266,1000.);
#136=VECTOR('',#267,1000.);
#137=VECTOR('',#268,1000.);
#138=VECTOR('',#273,1000.);
#139=VECTOR('',#278,1000.);
#140=VECTOR('',#279,1000.);
#141=VECTOR('',#280,1000.);
#142=EDGE_LOOP('',(#42,#43,#44,#45));
#143=EDGE_LOOP('',(#46,#47,#48,#49));
#144=EDGE_LOOP('',(#50,#51,#52,#53));
#145=EDGE_LOOP('',(#54,#55,#56,#57));
#146=EDGE_LOOP('',(#58));
#147=EDGE_LOOP('',(#59));
#148=EDGE_LOOP('',(#60,#61,#62,#63));
#149=EDGE_LOOP('',(#64,#65,#66,#67));
#150=EDGE_LOOP('',(#68));
#151=EDGE_LOOP('',(#69));
#152=EDGE_LOOP('',(#70));
#153=EDGE_LOOP('',(#71));
#154=EDGE_LOOP('',(#72));
#155=EDGE_LOOP('',(#73));
#156=EDGE_LOOP('',(#74));
#157=EDGE_LOOP('',(#75));
#158=EDGE_LOOP('',(#76));
#159=EDGE_LOOP('',(#77));
#160=EDGE_LOOP('',(#78));
#161=EDGE_LOOP('',(#79));
#162=EDGE_LOOP('',(#80));
#163=EDGE_LOOP('',(#81));
#164=EDGE_LOOP('',(#82));
#165=EDGE_LOOP('',(#83));
#166=EDGE_LOOP('',(#84));
#167=EDGE_LOOP('',(#85));
#168=FACE_BOUND('',#142,.T.);
#169=FACE_BOUND('',#143,.T.);
#170=FACE_BOUND('',#144,.T.);
#171=FACE_BOUND('',#145,.T.);
#172=FACE_BOUND('',#146,.T.);
#173=FACE_BOUND('',#147,.T.);
#174=FACE_BOUND('',#148,.T.);
#175=FACE_BOUND('',#149,.T.);
#176=FACE_BOUND('',#150,.T.);
#177=FACE_BOUND('',#151,.T.);
#178=FACE_BOUND('',#152,.T.);
#179=FACE_BOUND('',#153,.T.);
#180=FACE_BOUND('',#154,.T.);
#181=FACE_BOUND('',#155,.T.);
#182=FACE_BOUND('',#156,.T.);
#183=FACE_BOUND('',#157,.T.);
#184=FACE_BOUND('',#158,.T.);
#185=FACE_BOUND('',#159,.T.);
#186=FACE_BOUND('',#160,.T.);
#187=FACE_BOUND('',#161,.T.);
#188=FACE_BOUND('',#162,.T.);
#189=FACE_BOUND('',#163,.T.);
#190=FACE_BOUND('',#164,.T.);
#191=FACE_BOUND('',#165,.T.);
#192=FACE_BOUND('',#166,.T.);
#193=FACE_BOUND('',#167,.T.);
#194=PLANE('',#231);
#195=PLANE('',#235);
#196=PLANE('',#239);
#197=PLANE('',#242);
#198=PLANE('',#247);
#199=PLANE('',#251);
#200=PLANE('',#256);
#201=PLANE('',#260);
#202=ADVANCED_FACE('',(#168),#194,.F.);
#203=ADVANCED_FACE('',(#169),#38,.T.);
#204=ADVANCED_FACE('',(#170),#195,.F.);
#205=ADVANCED_FACE('',(#171),#39,.T.);
#206=ADVANCED_FACE('',(#172,#173,#174),#196,.T.);
#207=ADVANCED_FACE('',(#175),#197,.F.);
#208=ADVANCED_FACE('',(#176,#177),#20,.F.);
#209=ADVANCED_FACE('',(#178,#179),#40,.T.);
#210=ADVANCED_FACE('',(#180,#181),#198,.F.);
#211=ADVANCED_FACE('',(#182,#183),#21,.T.);
#212=ADVANCED_FACE('',(#184),#199,.F.);
#213=ADVANCED_FACE('',(#185,#186),#22,.F.);
#214=ADVANCED_FACE('',(#187,#188),#41,.T.);
#215=ADVANCED_FACE('',(#189,#190),#200,.F.);
#216=ADVANCED_FACE('',(#191,#192),#23,.T.);
#217=ADVANCED_FACE('',(#193),#201,.F.);
#218=CLOSED_SHELL('',(#202,#203,#204,#205,#206,#207,#208,#209,#210,#211,
#212,#213,#214,#215,#216,#217));
#219=STYLED_ITEM('',(#220),#227);
#220=PRESENTATION_STYLE_ASSIGNMENT((#221));
#221=SURFACE_STYLE_USAGE(.BOTH.,#222);
#222=SURFACE_SIDE_STYLE('',(#223));
#223=SURFACE_STYLE_FILL_AREA(#224);
#224=FILL_AREA_STYLE('',(#225));
#225=FILL_AREA_STYLE_COLOUR('',#226);
#226=COLOUR_RGB('',0.689999997615814,0.689999997615814,0.689999997615814);
#227=MANIFOLD_SOLID_BREP('13783 EV-15/40-DP---(DP)',#218);
#228=SHAPE_DEFINITION_REPRESENTATION(#394,#229);
#229=SHAPE_REPRESENTATION('13783 EV-15/40-DP---(DP)',(#230),#389);
#230=AXIS2_PLACEMENT_3D('',#331,#261,#262);
#231=AXIS2_PLACEMENT_3D('',#332,#263,#264);
#232=AXIS2_PLACEMENT_3D('',#341,#269,#270);
#233=AXIS2_PLACEMENT_3D('',#342,#271,#272);
#234=AXIS2_PLACEMENT_3D('',#346,#274,#275);
#235=AXIS2_PLACEMENT_3D('',#347,#276,#277);
#236=AXIS2_PLACEMENT_3D('',#353,#281,#282);
#237=AXIS2_PLACEMENT_3D('',#354,#283,#284);
#238=AXIS2_PLACEMENT_3D('',#355,#285,#286);
#239=AXIS2_PLACEMENT_3D('',#356,#287,#288);
#240=AXIS2_PLACEMENT_3D('',#357,#289,#290);
#241=AXIS2_PLACEMENT_3D('',#359,#291,#292);
#242=AXIS2_PLACEMENT_3D('',#361,#293,#294);
#243=AXIS2_PLACEMENT_3D('',#362,#295,#296);
#244=AXIS2_PLACEMENT_3D('',#363,#297,#298);
#245=AXIS2_PLACEMENT_3D('',#365,#299,#300);
#246=AXIS2_PLACEMENT_3D('',#366,#301,#302);
#247=AXIS2_PLACEMENT_3D('',#368,#303,#304);
#248=AXIS2_PLACEMENT_3D('',#369,#305,#306);
#249=AXIS2_PLACEMENT_3D('',#371,#307,#308);
#250=AXIS2_PLACEMENT_3D('',#372,#309,#310);
#251=AXIS2_PLACEMENT_3D('',#374,#311,#312);
#252=AXIS2_PLACEMENT_3D('',#375,#313,#314);
#253=AXIS2_PLACEMENT_3D('',#376,#315,#316);
#254=AXIS2_PLACEMENT_3D('',#378,#317,#318);
#255=AXIS2_PLACEMENT_3D('',#379,#319,#320);
#256=AXIS2_PLACEMENT_3D('',#381,#321,#322);
#257=AXIS2_PLACEMENT_3D('',#382,#323,#324);
#258=AXIS2_PLACEMENT_3D('',#384,#325,#326);
#259=AXIS2_PLACEMENT_3D('',#385,#327,#328);
#260=AXIS2_PLACEMENT_3D('',#387,#329,#330);
#261=DIRECTION('',(0.,0.,1.));
#262=DIRECTION('',(1.,0.,0.));
#263=DIRECTION('',(0.,-1.,0.));
#264=DIRECTION('',(0.,0.,-1.));
#265=DIRECTION('',(0.,0.,1.));
#266=DIRECTION('',(-1.,0.,0.));
#267=DIRECTION('',(0.,0.,1.));
#268=DIRECTION('',(-1.,0.,0.));
#269=DIRECTION('',(-1.,0.,0.));
#270=DIRECTION('',(0.,0.,1.));
#271=DIRECTION('',(1.,0.,0.));
#272=DIRECTION('',(0.,0.,-1.));
#273=DIRECTION('',(-1.,0.,0.));
#274=DIRECTION('',(1.,0.,0.));
#275=DIRECTION('',(0.,0.,-1.));
#276=DIRECTION('',(0.,1.,0.));
#277=DIRECTION('',(0.,0.,1.));
#278=DIRECTION('',(0.,0.,-1.));
#279=DIRECTION('',(-1.,0.,0.));
#280=DIRECTION('',(0.,0.,-1.));
#281=DIRECTION('',(-1.,0.,0.));
#282=DIRECTION('',(0.,0.,1.));
#283=DIRECTION('',(1.,0.,0.));
#284=DIRECTION('',(0.,0.,-1.));
#285=DIRECTION('',(1.,0.,0.));
#286=DIRECTION('',(0.,0.,-1.));
#287=DIRECTION('',(1.,0.,0.));
#288=DIRECTION('',(0.,0.,-1.));
#289=DIRECTION('',(1.,0.,0.));
#290=DIRECTION('',(0.,0.,-1.));
#291=DIRECTION('',(1.,0.,0.));
#292=DIRECTION('',(0.,0.,-1.));
#293=DIRECTION('',(1.,0.,0.));
#294=DIRECTION('',(0.,0.,-1.));
#295=DIRECTION('',(1.,0.,0.));
#296=DIRECTION('',(0.,0.,-1.));
#297=DIRECTION('',(1.,0.,0.));
#298=DIRECTION('',(0.,0.,-1.));
#299=DIRECTION('',(1.,0.,0.));
#300=DIRECTION('',(0.,0.,-1.));
#301=DIRECTION('',(1.,0.,0.));
#302=DIRECTION('',(0.,0.,-1.));
#303=DIRECTION('',(1.,0.,0.));
#304=DIRECTION('',(0.,0.,-1.));
#305=DIRECTION('',(1.,0.,0.));
#306=DIRECTION('',(0.,0.,-1.));
#307=DIRECTION('',(1.,0.,0.));
#308=DIRECTION('',(0.,0.,-1.));
#309=DIRECTION('',(1.,0.,0.));
#310=DIRECTION('',(0.,0.,-1.));
#311=DIRECTION('',(-1.,0.,0.));
#312=DIRECTION('',(0.,0.,1.));
#313=DIRECTION('',(1.,0.,0.));
#314=DIRECTION('',(0.,0.,-1.));
#315=DIRECTION('',(1.,0.,0.));
#316=DIRECTION('',(0.,0.,-1.));
#317=DIRECTION('',(1.,0.,0.));
#318=DIRECTION('',(0.,0.,-1.));
#319=DIRECTION('',(1.,0.,0.));
#320=DIRECTION('',(0.,0.,-1.));
#321=DIRECTION('',(1.,0.,0.));
#322=DIRECTION('',(0.,0.,-1.));
#323=DIRECTION('',(1.,0.,0.));
#324=DIRECTION('',(0.,0.,-1.));
#325=DIRECTION('',(1.,0.,0.));
#326=DIRECTION('',(0.,0.,-1.));
#327=DIRECTION('',(1.,0.,0.));
#328=DIRECTION('',(0.,0.,-1.));
#329=DIRECTION('',(-1.,0.,0.));
#330=DIRECTION('',(0.,0.,1.));
#331=CARTESIAN_POINT('',(0.,0.,0.));
#332=CARTESIAN_POINT('',(2.5,2.25,-12.25));
#333=CARTESIAN_POINT('',(0.,2.25,-12.25));
#334=CARTESIAN_POINT('',(0.,2.25,-12.25));
#335=CARTESIAN_POINT('',(0.,2.25,12.25));
#336=CARTESIAN_POINT('',(2.5,2.25,12.25));
#337=CARTESIAN_POINT('',(2.5,2.25,12.25));
#338=CARTESIAN_POINT('',(2.5,2.25,-12.25));
#339=CARTESIAN_POINT('',(2.5,2.25,-12.25));
#340=CARTESIAN_POINT('',(2.5,2.25,-12.25));
#341=CARTESIAN_POINT('',(2.5,-2.16840434497101E-16,12.25));
#342=CARTESIAN_POINT('',(0.,-2.16840434497101E-16,12.25));
#343=CARTESIAN_POINT('',(0.,-2.25,12.25));
#344=CARTESIAN_POINT('',(2.5,-2.25,12.25));
#345=CARTESIAN_POINT('',(2.5,-2.25,12.25));
#346=CARTESIAN_POINT('',(2.5,-2.16840434497101E-16,12.25));
#347=CARTESIAN_POINT('',(2.5,-2.25,12.25));
#348=CARTESIAN_POINT('',(0.,-2.25,12.25));
#349=CARTESIAN_POINT('',(0.,-2.25,-12.25));
#350=CARTESIAN_POINT('',(2.5,-2.25,-12.25));
#351=CARTESIAN_POINT('',(2.5,-2.25,-12.25));
#352=CARTESIAN_POINT('',(2.5,-2.25,12.25));
#353=CARTESIAN_POINT('',(2.5,2.16840434497101E-16,-12.25));
#354=CARTESIAN_POINT('',(0.,2.16840434497101E-16,-12.25));
#355=CARTESIAN_POINT('',(2.5,2.16840434497101E-16,-12.25));
#356=CARTESIAN_POINT('',(2.5,-2.16840434497101E-16,12.25));
#357=CARTESIAN_POINT('',(2.5,0.,-8.));
#358=CARTESIAN_POINT('',(2.5,0.,-9.125));
#359=CARTESIAN_POINT('',(2.5,0.,8.));
#360=CARTESIAN_POINT('',(2.5,0.,6.875));
#361=CARTESIAN_POINT('',(0.,-2.16840434497101E-16,12.25));
#362=CARTESIAN_POINT('',(2.875,0.,8.));
#363=CARTESIAN_POINT('',(2.875,0.,8.));
#364=CARTESIAN_POINT('',(2.875,0.,7.25));
#365=CARTESIAN_POINT('',(5.6,0.,8.));
#366=CARTESIAN_POINT('',(4.1,0.,8.));
#367=CARTESIAN_POINT('',(4.1,0.,7.25));
#368=CARTESIAN_POINT('',(4.1,0.,7.25));
#369=CARTESIAN_POINT('',(4.1,0.,8.));
#370=CARTESIAN_POINT('',(4.1,0.,7.05));
#371=CARTESIAN_POINT('',(4.85,0.,8.));
#372=CARTESIAN_POINT('',(5.6,0.,8.));
#373=CARTESIAN_POINT('',(5.6,0.,7.05));
#374=CARTESIAN_POINT('',(5.6,0.,7.05));
#375=CARTESIAN_POINT('',(2.875,0.,-8.));
#376=CARTESIAN_POINT('',(2.875,0.,-8.));
#377=CARTESIAN_POINT('',(2.875,0.,-8.75));
#378=CARTESIAN_POINT('',(5.6,0.,-8.));
#379=CARTESIAN_POINT('',(4.1,0.,-8.));
#380=CARTESIAN_POINT('',(4.1,0.,-8.75));
#381=CARTESIAN_POINT('',(4.1,0.,-8.75));
#382=CARTESIAN_POINT('',(4.1,0.,-8.));
#383=CARTESIAN_POINT('',(4.1,0.,-8.95));
#384=CARTESIAN_POINT('',(4.85,0.,-8.));
#385=CARTESIAN_POINT('',(5.6,0.,-8.));
#386=CARTESIAN_POINT('',(5.6,0.,-8.95));
#387=CARTESIAN_POINT('',(5.6,0.,-8.95));
#388=MECHANICAL_DESIGN_GEOMETRIC_PRESENTATION_REPRESENTATION('',(#219),
#389);
#389=(
GEOMETRIC_REPRESENTATION_CONTEXT(3)
GLOBAL_UNCERTAINTY_ASSIGNED_CONTEXT((#390))
GLOBAL_UNIT_ASSIGNED_CONTEXT((#393,#392,#391))
REPRESENTATION_CONTEXT('13783 EV-15/40-DP---(DP)',
'TOP_LEVEL_ASSEMBLY_PART')
);
#390=UNCERTAINTY_MEASURE_WITH_UNIT(LENGTH_MEASURE(0.005),#393,
'DISTANCE_ACCURACY_VALUE','Maximum Tolerance applied to model');
#391=(
NAMED_UNIT(*)
SI_UNIT($,.STERADIAN.)
SOLID_ANGLE_UNIT()
);
#392=(
NAMED_UNIT(*)
PLANE_ANGLE_UNIT()
SI_UNIT($,.RADIAN.)
);
#393=(
LENGTH_UNIT()
NAMED_UNIT(*)
SI_UNIT(.MILLI.,.METRE.)
);
#394=PRODUCT_DEFINITION_SHAPE('','',#395);
#395=PRODUCT_DEFINITION('','',#397,#396);
#396=PRODUCT_DEFINITION_CONTEXT('',#403,'design');
#397=PRODUCT_DEFINITION_FORMATION_WITH_SPECIFIED_SOURCE('','',#399,
 .NOT_KNOWN.);
#398=PRODUCT_RELATED_PRODUCT_CATEGORY('','',(#399));
#399=PRODUCT('13783 EV-15/40-DP---(DP)','13783 EV-15/40-DP---(DP)',
'13783 EV-15/40-DP---(DP)',(#401));
#400=PRODUCT_CATEGORY('','');
#401=PRODUCT_CONTEXT('',#403,'mechanical');
#402=APPLICATION_PROTOCOL_DEFINITION('international standard',
'automotive_design',2010,#403);
#403=APPLICATION_CONTEXT(
'core data for automotive mechanical design processes');
ENDSEC;
END-ISO-10303-21;
