ISO-10303-21;
HEADER;
/* Generated by software containing ST-Developer
 * from STEP Tools, Inc. (www.steptools.com) 
 */
/* OPTION: using custom renumber hook */

FILE_DESCRIPTION(
/* description */ ('STEP AP214'),
/* implementation_level */ '2;1');

FILE_NAME(
/* name */ '13787_EV-20_180-DP',
/* time_stamp */ '2024-08-23T15:04:37+02:00',
/* author */ ('License CC BY-ND 4.0'),
/* organization */ ('CADENAS'),
/* preprocessor_version */ 'ST-DEVELOPER v19.3',
/* originating_system */ 'PARTsolutions',
/* authorisation */ '  ');

FILE_SCHEMA (('AUTOMOTIVE_DESIGN {1 0 10303 214 3 1 1}'));
ENDSEC;

DATA;
#10=PROPERTY_DEFINITION_REPRESENTATION(#14,#12);
#11=PROPERTY_DEFINITION_REPRESENTATION(#15,#13);
#12=REPRESENTATION('',(#16),#489);
#13=REPRESENTATION('',(#17),#489);
#14=PROPERTY_DEFINITION('pmi validation property','',#494);
#15=PROPERTY_DEFINITION('pmi validation property','',#494);
#16=VALUE_REPRESENTATION_ITEM('number of annotations',COUNT_MEASURE(0.));
#17=VALUE_REPRESENTATION_ITEM('number of views',COUNT_MEASURE(0.));
#18=SHAPE_REPRESENTATION_RELATIONSHIP('','',#284,#19);
#19=ADVANCED_BREP_SHAPE_REPRESENTATION('',(#282),#489);
#20=TOROIDAL_SURFACE('',#299,2.17500000000001,0.37500000000001);
#21=TOROIDAL_SURFACE('',#305,1.65000000000004,0.749999999999981);
#22=TOROIDAL_SURFACE('',#308,2.175,0.374999999999993);
#23=TOROIDAL_SURFACE('',#314,1.65,0.749999999999995);
#24=TOROIDAL_SURFACE('',#317,2.175,0.375000000000001);
#25=TOROIDAL_SURFACE('',#323,1.65,0.750000000000002);
#26=CIRCLE('',#288,4.5);
#27=CIRCLE('',#289,4.5);
#28=CIRCLE('',#292,4.5);
#29=CIRCLE('',#293,4.5);
#30=CIRCLE('',#295,2.175);
#31=CIRCLE('',#296,2.175);
#32=CIRCLE('',#297,2.17500000000001);
#33=CIRCLE('',#300,1.8);
#34=CIRCLE('',#302,1.8);
#35=CIRCLE('',#304,1.65000000000001);
#36=CIRCLE('',#306,1.65000000000001);
#37=CIRCLE('',#309,1.8);
#38=CIRCLE('',#311,1.8);
#39=CIRCLE('',#313,1.65);
#40=CIRCLE('',#315,1.65);
#41=CIRCLE('',#318,1.8);
#42=CIRCLE('',#320,1.8);
#43=CIRCLE('',#322,1.65000000000001);
#44=CIRCLE('',#324,1.65000000000001);
#45=CYLINDRICAL_SURFACE('',#287,4.5);
#46=CYLINDRICAL_SURFACE('',#291,4.5);
#47=CYLINDRICAL_SURFACE('',#301,1.8);
#48=CYLINDRICAL_SURFACE('',#310,1.8);
#49=CYLINDRICAL_SURFACE('',#319,1.8);
#50=ORIENTED_EDGE('',*,*,#104,.T.);
#51=ORIENTED_EDGE('',*,*,#105,.F.);
#52=ORIENTED_EDGE('',*,*,#106,.F.);
#53=ORIENTED_EDGE('',*,*,#107,.T.);
#54=ORIENTED_EDGE('',*,*,#108,.T.);
#55=ORIENTED_EDGE('',*,*,#109,.F.);
#56=ORIENTED_EDGE('',*,*,#110,.F.);
#57=ORIENTED_EDGE('',*,*,#105,.T.);
#58=ORIENTED_EDGE('',*,*,#111,.T.);
#59=ORIENTED_EDGE('',*,*,#112,.F.);
#60=ORIENTED_EDGE('',*,*,#113,.F.);
#61=ORIENTED_EDGE('',*,*,#109,.T.);
#62=ORIENTED_EDGE('',*,*,#114,.T.);
#63=ORIENTED_EDGE('',*,*,#107,.F.);
#64=ORIENTED_EDGE('',*,*,#115,.F.);
#65=ORIENTED_EDGE('',*,*,#112,.T.);
#66=ORIENTED_EDGE('',*,*,#116,.F.);
#67=ORIENTED_EDGE('',*,*,#117,.F.);
#68=ORIENTED_EDGE('',*,*,#118,.F.);
#69=ORIENTED_EDGE('',*,*,#106,.T.);
#70=ORIENTED_EDGE('',*,*,#110,.T.);
#71=ORIENTED_EDGE('',*,*,#113,.T.);
#72=ORIENTED_EDGE('',*,*,#115,.T.);
#73=ORIENTED_EDGE('',*,*,#104,.F.);
#74=ORIENTED_EDGE('',*,*,#114,.F.);
#75=ORIENTED_EDGE('',*,*,#111,.F.);
#76=ORIENTED_EDGE('',*,*,#108,.F.);
#77=ORIENTED_EDGE('',*,*,#119,.F.);
#78=ORIENTED_EDGE('',*,*,#118,.T.);
#79=ORIENTED_EDGE('',*,*,#120,.F.);
#80=ORIENTED_EDGE('',*,*,#119,.T.);
#81=ORIENTED_EDGE('',*,*,#121,.F.);
#82=ORIENTED_EDGE('',*,*,#120,.T.);
#83=ORIENTED_EDGE('',*,*,#121,.T.);
#84=ORIENTED_EDGE('',*,*,#122,.F.);
#85=ORIENTED_EDGE('',*,*,#122,.T.);
#86=ORIENTED_EDGE('',*,*,#123,.F.);
#87=ORIENTED_EDGE('',*,*,#117,.T.);
#88=ORIENTED_EDGE('',*,*,#124,.F.);
#89=ORIENTED_EDGE('',*,*,#123,.T.);
#90=ORIENTED_EDGE('',*,*,#125,.F.);
#91=ORIENTED_EDGE('',*,*,#124,.T.);
#92=ORIENTED_EDGE('',*,*,#125,.T.);
#93=ORIENTED_EDGE('',*,*,#126,.F.);
#94=ORIENTED_EDGE('',*,*,#126,.T.);
#95=ORIENTED_EDGE('',*,*,#127,.F.);
#96=ORIENTED_EDGE('',*,*,#116,.T.);
#97=ORIENTED_EDGE('',*,*,#128,.F.);
#98=ORIENTED_EDGE('',*,*,#127,.T.);
#99=ORIENTED_EDGE('',*,*,#129,.F.);
#100=ORIENTED_EDGE('',*,*,#128,.T.);
#101=ORIENTED_EDGE('',*,*,#129,.T.);
#102=ORIENTED_EDGE('',*,*,#130,.F.);
#103=ORIENTED_EDGE('',*,*,#130,.T.);
#104=EDGE_CURVE('',#131,#132,#154,.T.);
#105=EDGE_CURVE('',#133,#132,#155,.T.);
#106=EDGE_CURVE('',#134,#133,#156,.T.);
#107=EDGE_CURVE('',#134,#131,#157,.T.);
#108=EDGE_CURVE('',#132,#135,#26,.T.);
#109=EDGE_CURVE('',#136,#135,#158,.T.);
#110=EDGE_CURVE('',#133,#136,#27,.T.);
#111=EDGE_CURVE('',#135,#137,#159,.T.);
#112=EDGE_CURVE('',#138,#137,#160,.T.);
#113=EDGE_CURVE('',#136,#138,#161,.T.);
#114=EDGE_CURVE('',#137,#131,#28,.T.);
#115=EDGE_CURVE('',#138,#134,#29,.T.);
#116=EDGE_CURVE('',#139,#139,#30,.T.);
#117=EDGE_CURVE('',#140,#140,#31,.T.);
#118=EDGE_CURVE('',#141,#141,#32,.T.);
#119=EDGE_CURVE('',#142,#142,#33,.T.);
#120=EDGE_CURVE('',#143,#143,#34,.T.);
#121=EDGE_CURVE('',#144,#144,#35,.T.);
#122=EDGE_CURVE('',#145,#145,#36,.T.);
#123=EDGE_CURVE('',#146,#146,#37,.T.);
#124=EDGE_CURVE('',#147,#147,#38,.T.);
#125=EDGE_CURVE('',#148,#148,#39,.T.);
#126=EDGE_CURVE('',#149,#149,#40,.T.);
#127=EDGE_CURVE('',#150,#150,#41,.T.);
#128=EDGE_CURVE('',#151,#151,#42,.T.);
#129=EDGE_CURVE('',#152,#152,#43,.T.);
#130=EDGE_CURVE('',#153,#153,#44,.T.);
#131=VERTEX_POINT('',#419);
#132=VERTEX_POINT('',#420);
#133=VERTEX_POINT('',#422);
#134=VERTEX_POINT('',#424);
#135=VERTEX_POINT('',#428);
#136=VERTEX_POINT('',#430);
#137=VERTEX_POINT('',#434);
#138=VERTEX_POINT('',#436);
#139=VERTEX_POINT('',#443);
#140=VERTEX_POINT('',#445);
#141=VERTEX_POINT('',#447);
#142=VERTEX_POINT('',#451);
#143=VERTEX_POINT('',#454);
#144=VERTEX_POINT('',#457);
#145=VERTEX_POINT('',#460);
#146=VERTEX_POINT('',#464);
#147=VERTEX_POINT('',#467);
#148=VERTEX_POINT('',#470);
#149=VERTEX_POINT('',#473);
#150=VERTEX_POINT('',#477);
#151=VERTEX_POINT('',#480);
#152=VERTEX_POINT('',#483);
#153=VERTEX_POINT('',#486);
#154=LINE('',#418,#162);
#155=LINE('',#421,#163);
#156=LINE('',#423,#164);
#157=LINE('',#425,#165);
#158=LINE('',#429,#166);
#159=LINE('',#433,#167);
#160=LINE('',#435,#168);
#161=LINE('',#437,#169);
#162=VECTOR('',#330,1000.);
#163=VECTOR('',#331,1000.);
#164=VECTOR('',#332,1000.);
#165=VECTOR('',#333,1000.);
#166=VECTOR('',#338,1000.);
#167=VECTOR('',#343,1000.);
#168=VECTOR('',#344,1000.);
#169=VECTOR('',#345,1000.);
#170=EDGE_LOOP('',(#50,#51,#52,#53));
#171=EDGE_LOOP('',(#54,#55,#56,#57));
#172=EDGE_LOOP('',(#58,#59,#60,#61));
#173=EDGE_LOOP('',(#62,#63,#64,#65));
#174=EDGE_LOOP('',(#66));
#175=EDGE_LOOP('',(#67));
#176=EDGE_LOOP('',(#68));
#177=EDGE_LOOP('',(#69,#70,#71,#72));
#178=EDGE_LOOP('',(#73,#74,#75,#76));
#179=EDGE_LOOP('',(#77));
#180=EDGE_LOOP('',(#78));
#181=EDGE_LOOP('',(#79));
#182=EDGE_LOOP('',(#80));
#183=EDGE_LOOP('',(#81));
#184=EDGE_LOOP('',(#82));
#185=EDGE_LOOP('',(#83));
#186=EDGE_LOOP('',(#84));
#187=EDGE_LOOP('',(#85));
#188=EDGE_LOOP('',(#86));
#189=EDGE_LOOP('',(#87));
#190=EDGE_LOOP('',(#88));
#191=EDGE_LOOP('',(#89));
#192=EDGE_LOOP('',(#90));
#193=EDGE_LOOP('',(#91));
#194=EDGE_LOOP('',(#92));
#195=EDGE_LOOP('',(#93));
#196=EDGE_LOOP('',(#94));
#197=EDGE_LOOP('',(#95));
#198=EDGE_LOOP('',(#96));
#199=EDGE_LOOP('',(#97));
#200=EDGE_LOOP('',(#98));
#201=EDGE_LOOP('',(#99));
#202=EDGE_LOOP('',(#100));
#203=EDGE_LOOP('',(#101));
#204=EDGE_LOOP('',(#102));
#205=EDGE_LOOP('',(#103));
#206=FACE_BOUND('',#170,.T.);
#207=FACE_BOUND('',#171,.T.);
#208=FACE_BOUND('',#172,.T.);
#209=FACE_BOUND('',#173,.T.);
#210=FACE_BOUND('',#174,.T.);
#211=FACE_BOUND('',#175,.T.);
#212=FACE_BOUND('',#176,.T.);
#213=FACE_BOUND('',#177,.T.);
#214=FACE_BOUND('',#178,.T.);
#215=FACE_BOUND('',#179,.T.);
#216=FACE_BOUND('',#180,.T.);
#217=FACE_BOUND('',#181,.T.);
#218=FACE_BOUND('',#182,.T.);
#219=FACE_BOUND('',#183,.T.);
#220=FACE_BOUND('',#184,.T.);
#221=FACE_BOUND('',#185,.T.);
#222=FACE_BOUND('',#186,.T.);
#223=FACE_BOUND('',#187,.T.);
#224=FACE_BOUND('',#188,.T.);
#225=FACE_BOUND('',#189,.T.);
#226=FACE_BOUND('',#190,.T.);
#227=FACE_BOUND('',#191,.T.);
#228=FACE_BOUND('',#192,.T.);
#229=FACE_BOUND('',#193,.T.);
#230=FACE_BOUND('',#194,.T.);
#231=FACE_BOUND('',#195,.T.);
#232=FACE_BOUND('',#196,.T.);
#233=FACE_BOUND('',#197,.T.);
#234=FACE_BOUND('',#198,.T.);
#235=FACE_BOUND('',#199,.T.);
#236=FACE_BOUND('',#200,.T.);
#237=FACE_BOUND('',#201,.T.);
#238=FACE_BOUND('',#202,.T.);
#239=FACE_BOUND('',#203,.T.);
#240=FACE_BOUND('',#204,.T.);
#241=FACE_BOUND('',#205,.T.);
#242=PLANE('',#286);
#243=PLANE('',#290);
#244=PLANE('',#294);
#245=PLANE('',#298);
#246=PLANE('',#303);
#247=PLANE('',#307);
#248=PLANE('',#312);
#249=PLANE('',#316);
#250=PLANE('',#321);
#251=PLANE('',#325);
#252=ADVANCED_FACE('',(#206),#242,.F.);
#253=ADVANCED_FACE('',(#207),#45,.T.);
#254=ADVANCED_FACE('',(#208),#243,.F.);
#255=ADVANCED_FACE('',(#209),#46,.T.);
#256=ADVANCED_FACE('',(#210,#211,#212,#213),#244,.T.);
#257=ADVANCED_FACE('',(#214),#245,.F.);
#258=ADVANCED_FACE('',(#215,#216),#20,.F.);
#259=ADVANCED_FACE('',(#217,#218),#47,.T.);
#260=ADVANCED_FACE('',(#219,#220),#246,.F.);
#261=ADVANCED_FACE('',(#221,#222),#21,.T.);
#262=ADVANCED_FACE('',(#223),#247,.F.);
#263=ADVANCED_FACE('',(#224,#225),#22,.F.);
#264=ADVANCED_FACE('',(#226,#227),#48,.T.);
#265=ADVANCED_FACE('',(#228,#229),#248,.F.);
#266=ADVANCED_FACE('',(#230,#231),#23,.T.);
#267=ADVANCED_FACE('',(#232),#249,.F.);
#268=ADVANCED_FACE('',(#233,#234),#24,.F.);
#269=ADVANCED_FACE('',(#235,#236),#49,.T.);
#270=ADVANCED_FACE('',(#237,#238),#250,.F.);
#271=ADVANCED_FACE('',(#239,#240),#25,.T.);
#272=ADVANCED_FACE('',(#241),#251,.F.);
#273=CLOSED_SHELL('',(#252,#253,#254,#255,#256,#257,#258,#259,#260,#261,
#262,#263,#264,#265,#266,#267,#268,#269,#270,#271,#272));
#274=STYLED_ITEM('',(#275),#282);
#275=PRESENTATION_STYLE_ASSIGNMENT((#276));
#276=SURFACE_STYLE_USAGE(.BOTH.,#277);
#277=SURFACE_SIDE_STYLE('',(#278));
#278=SURFACE_STYLE_FILL_AREA(#279);
#279=FILL_AREA_STYLE('',(#280));
#280=FILL_AREA_STYLE_COLOUR('',#281);
#281=COLOUR_RGB('',0.689999997615814,0.689999997615814,0.689999997615814);
#282=MANIFOLD_SOLID_BREP('13787 EV-20/180-DP---(DP)',#273);
#283=SHAPE_DEFINITION_REPRESENTATION(#494,#284);
#284=SHAPE_REPRESENTATION('13787 EV-20/180-DP---(DP)',(#285),#489);
#285=AXIS2_PLACEMENT_3D('',#416,#326,#327);
#286=AXIS2_PLACEMENT_3D('',#417,#328,#329);
#287=AXIS2_PLACEMENT_3D('',#426,#334,#335);
#288=AXIS2_PLACEMENT_3D('',#427,#336,#337);
#289=AXIS2_PLACEMENT_3D('',#431,#339,#340);
#290=AXIS2_PLACEMENT_3D('',#432,#341,#342);
#291=AXIS2_PLACEMENT_3D('',#438,#346,#347);
#292=AXIS2_PLACEMENT_3D('',#439,#348,#349);
#293=AXIS2_PLACEMENT_3D('',#440,#350,#351);
#294=AXIS2_PLACEMENT_3D('',#441,#352,#353);
#295=AXIS2_PLACEMENT_3D('',#442,#354,#355);
#296=AXIS2_PLACEMENT_3D('',#444,#356,#357);
#297=AXIS2_PLACEMENT_3D('',#446,#358,#359);
#298=AXIS2_PLACEMENT_3D('',#448,#360,#361);
#299=AXIS2_PLACEMENT_3D('',#449,#362,#363);
#300=AXIS2_PLACEMENT_3D('',#450,#364,#365);
#301=AXIS2_PLACEMENT_3D('',#452,#366,#367);
#302=AXIS2_PLACEMENT_3D('',#453,#368,#369);
#303=AXIS2_PLACEMENT_3D('',#455,#370,#371);
#304=AXIS2_PLACEMENT_3D('',#456,#372,#373);
#305=AXIS2_PLACEMENT_3D('',#458,#374,#375);
#306=AXIS2_PLACEMENT_3D('',#459,#376,#377);
#307=AXIS2_PLACEMENT_3D('',#461,#378,#379);
#308=AXIS2_PLACEMENT_3D('',#462,#380,#381);
#309=AXIS2_PLACEMENT_3D('',#463,#382,#383);
#310=AXIS2_PLACEMENT_3D('',#465,#384,#385);
#311=AXIS2_PLACEMENT_3D('',#466,#386,#387);
#312=AXIS2_PLACEMENT_3D('',#468,#388,#389);
#313=AXIS2_PLACEMENT_3D('',#469,#390,#391);
#314=AXIS2_PLACEMENT_3D('',#471,#392,#393);
#315=AXIS2_PLACEMENT_3D('',#472,#394,#395);
#316=AXIS2_PLACEMENT_3D('',#474,#396,#397);
#317=AXIS2_PLACEMENT_3D('',#475,#398,#399);
#318=AXIS2_PLACEMENT_3D('',#476,#400,#401);
#319=AXIS2_PLACEMENT_3D('',#478,#402,#403);
#320=AXIS2_PLACEMENT_3D('',#479,#404,#405);
#321=AXIS2_PLACEMENT_3D('',#481,#406,#407);
#322=AXIS2_PLACEMENT_3D('',#482,#408,#409);
#323=AXIS2_PLACEMENT_3D('',#484,#410,#411);
#324=AXIS2_PLACEMENT_3D('',#485,#412,#413);
#325=AXIS2_PLACEMENT_3D('',#487,#414,#415);
#326=DIRECTION('',(0.,0.,1.));
#327=DIRECTION('',(1.,0.,0.));
#328=DIRECTION('',(0.,-1.,0.));
#329=DIRECTION('',(0.,0.,-1.));
#330=DIRECTION('',(0.,0.,1.));
#331=DIRECTION('',(-1.,0.,0.));
#332=DIRECTION('',(0.,0.,1.));
#333=DIRECTION('',(-1.,0.,0.));
#334=DIRECTION('',(-1.,0.,0.));
#335=DIRECTION('',(0.,0.,1.));
#336=DIRECTION('',(1.,0.,0.));
#337=DIRECTION('',(0.,0.,-1.));
#338=DIRECTION('',(-1.,0.,0.));
#339=DIRECTION('',(1.,0.,0.));
#340=DIRECTION('',(0.,0.,-1.));
#341=DIRECTION('',(0.,1.,0.));
#342=DIRECTION('',(0.,0.,1.));
#343=DIRECTION('',(0.,0.,-1.));
#344=DIRECTION('',(-1.,0.,0.));
#345=DIRECTION('',(0.,0.,-1.));
#346=DIRECTION('',(-1.,0.,0.));
#347=DIRECTION('',(0.,0.,1.));
#348=DIRECTION('',(1.,0.,0.));
#349=DIRECTION('',(0.,0.,-1.));
#350=DIRECTION('',(1.,0.,0.));
#351=DIRECTION('',(0.,0.,-1.));
#352=DIRECTION('',(1.,0.,0.));
#353=DIRECTION('',(0.,0.,-1.));
#354=DIRECTION('',(1.,0.,0.));
#355=DIRECTION('',(0.,0.,-1.));
#356=DIRECTION('',(1.,0.,0.));
#357=DIRECTION('',(0.,0.,-1.));
#358=DIRECTION('',(1.,0.,0.));
#359=DIRECTION('',(0.,0.,-1.));
#360=DIRECTION('',(1.,0.,0.));
#361=DIRECTION('',(0.,0.,-1.));
#362=DIRECTION('',(1.,0.,0.));
#363=DIRECTION('',(0.,0.,-1.));
#364=DIRECTION('',(1.,0.,0.));
#365=DIRECTION('',(0.,0.,-1.));
#366=DIRECTION('',(1.,0.,0.));
#367=DIRECTION('',(0.,0.,-1.));
#368=DIRECTION('',(1.,0.,0.));
#369=DIRECTION('',(0.,0.,-1.));
#370=DIRECTION('',(-1.,0.,0.));
#371=DIRECTION('',(0.,0.,1.));
#372=DIRECTION('',(1.,0.,0.));
#373=DIRECTION('',(0.,0.,-1.));
#374=DIRECTION('',(1.,0.,0.));
#375=DIRECTION('',(0.,0.,-1.));
#376=DIRECTION('',(1.,0.,0.));
#377=DIRECTION('',(0.,0.,-1.));
#378=DIRECTION('',(-1.,0.,0.));
#379=DIRECTION('',(0.,0.,1.));
#380=DIRECTION('',(1.,0.,0.));
#381=DIRECTION('',(0.,0.,-1.));
#382=DIRECTION('',(1.,0.,0.));
#383=DIRECTION('',(0.,0.,-1.));
#384=DIRECTION('',(1.,0.,0.));
#385=DIRECTION('',(0.,0.,-1.));
#386=DIRECTION('',(1.,0.,0.));
#387=DIRECTION('',(0.,0.,-1.));
#388=DIRECTION('',(-1.,0.,0.));
#389=DIRECTION('',(0.,0.,1.));
#390=DIRECTION('',(1.,0.,0.));
#391=DIRECTION('',(0.,0.,-1.));
#392=DIRECTION('',(1.,0.,0.));
#393=DIRECTION('',(0.,0.,-1.));
#394=DIRECTION('',(1.,0.,0.));
#395=DIRECTION('',(0.,0.,-1.));
#396=DIRECTION('',(-1.,0.,0.));
#397=DIRECTION('',(0.,0.,1.));
#398=DIRECTION('',(1.,0.,0.));
#399=DIRECTION('',(0.,0.,-1.));
#400=DIRECTION('',(1.,0.,0.));
#401=DIRECTION('',(0.,0.,-1.));
#402=DIRECTION('',(1.,0.,0.));
#403=DIRECTION('',(0.,0.,-1.));
#404=DIRECTION('',(1.,0.,0.));
#405=DIRECTION('',(0.,0.,-1.));
#406=DIRECTION('',(-1.,0.,0.));
#407=DIRECTION('',(0.,0.,1.));
#408=DIRECTION('',(1.,0.,0.));
#409=DIRECTION('',(0.,0.,-1.));
#410=DIRECTION('',(1.,0.,0.));
#411=DIRECTION('',(0.,0.,-1.));
#412=DIRECTION('',(1.,0.,0.));
#413=DIRECTION('',(0.,0.,-1.));
#414=DIRECTION('',(-1.,0.,0.));
#415=DIRECTION('',(0.,0.,1.));
#416=CARTESIAN_POINT('',(0.,0.,0.));
#417=CARTESIAN_POINT('',(3.,4.5,-80.));
#418=CARTESIAN_POINT('',(0.,4.5,-80.));
#419=CARTESIAN_POINT('',(0.,4.5,-80.));
#420=CARTESIAN_POINT('',(0.,4.5,80.));
#421=CARTESIAN_POINT('',(3.,4.5,80.));
#422=CARTESIAN_POINT('',(3.,4.5,80.));
#423=CARTESIAN_POINT('',(3.,4.5,-80.));
#424=CARTESIAN_POINT('',(3.,4.5,-80.));
#425=CARTESIAN_POINT('',(3.,4.5,-80.));
#426=CARTESIAN_POINT('',(3.,0.,80.));
#427=CARTESIAN_POINT('',(0.,0.,80.));
#428=CARTESIAN_POINT('',(0.,-4.5,80.));
#429=CARTESIAN_POINT('',(3.,-4.5,80.));
#430=CARTESIAN_POINT('',(3.,-4.5,80.));
#431=CARTESIAN_POINT('',(3.,0.,80.));
#432=CARTESIAN_POINT('',(3.,-4.5,80.));
#433=CARTESIAN_POINT('',(0.,-4.5,80.));
#434=CARTESIAN_POINT('',(0.,-4.5,-80.));
#435=CARTESIAN_POINT('',(3.,-4.5,-80.));
#436=CARTESIAN_POINT('',(3.,-4.5,-80.));
#437=CARTESIAN_POINT('',(3.,-4.5,80.));
#438=CARTESIAN_POINT('',(3.,0.,-80.));
#439=CARTESIAN_POINT('',(0.,0.,-80.));
#440=CARTESIAN_POINT('',(3.,0.,-80.));
#441=CARTESIAN_POINT('',(3.,0.,80.));
#442=CARTESIAN_POINT('',(3.,0.,0.));
#443=CARTESIAN_POINT('',(3.,0.,-2.175));
#444=CARTESIAN_POINT('',(3.,0.,-70.));
#445=CARTESIAN_POINT('',(3.,0.,-72.175));
#446=CARTESIAN_POINT('',(3.,0.,70.));
#447=CARTESIAN_POINT('',(3.,0.,67.825));
#448=CARTESIAN_POINT('',(0.,0.,80.));
#449=CARTESIAN_POINT('',(3.37500000000001,0.,70.));
#450=CARTESIAN_POINT('',(3.375,0.,70.));
#451=CARTESIAN_POINT('',(3.375,0.,68.2));
#452=CARTESIAN_POINT('',(6.6,0.,70.));
#453=CARTESIAN_POINT('',(5.1,0.,70.));
#454=CARTESIAN_POINT('',(5.1,0.,68.2));
#455=CARTESIAN_POINT('',(5.1,0.,68.2));
#456=CARTESIAN_POINT('',(5.1,0.,70.));
#457=CARTESIAN_POINT('',(5.1,0.,68.35));
#458=CARTESIAN_POINT('',(5.84999999999998,0.,70.));
#459=CARTESIAN_POINT('',(6.59999999999999,0.,70.));
#460=CARTESIAN_POINT('',(6.59999999999999,0.,68.35));
#461=CARTESIAN_POINT('',(6.6,0.,68.35));
#462=CARTESIAN_POINT('',(3.37499999999999,0.,-70.));
#463=CARTESIAN_POINT('',(3.375,0.,-70.));
#464=CARTESIAN_POINT('',(3.375,0.,-71.8));
#465=CARTESIAN_POINT('',(6.6,0.,-70.));
#466=CARTESIAN_POINT('',(5.1,0.,-70.));
#467=CARTESIAN_POINT('',(5.1,0.,-71.8));
#468=CARTESIAN_POINT('',(5.1,0.,-71.8));
#469=CARTESIAN_POINT('',(5.1,0.,-70.));
#470=CARTESIAN_POINT('',(5.1,0.,-71.65));
#471=CARTESIAN_POINT('',(5.84999999999999,0.,-70.));
#472=CARTESIAN_POINT('',(6.60000000000001,0.,-70.));
#473=CARTESIAN_POINT('',(6.60000000000001,0.,-71.65));
#474=CARTESIAN_POINT('',(6.6,0.,-71.65));
#475=CARTESIAN_POINT('',(3.375,0.,0.));
#476=CARTESIAN_POINT('',(3.375,0.,0.));
#477=CARTESIAN_POINT('',(3.375,0.,-1.8));
#478=CARTESIAN_POINT('',(6.6,0.,0.));
#479=CARTESIAN_POINT('',(5.1,0.,0.));
#480=CARTESIAN_POINT('',(5.1,0.,-1.8));
#481=CARTESIAN_POINT('',(5.1,0.,-1.8));
#482=CARTESIAN_POINT('',(5.1,0.,0.));
#483=CARTESIAN_POINT('',(5.1,0.,-1.65000000000001));
#484=CARTESIAN_POINT('',(5.85,0.,0.));
#485=CARTESIAN_POINT('',(6.6,0.,0.));
#486=CARTESIAN_POINT('',(6.6,0.,-1.65000000000001));
#487=CARTESIAN_POINT('',(6.6,0.,-1.65000000000001));
#488=MECHANICAL_DESIGN_GEOMETRIC_PRESENTATION_REPRESENTATION('',(#274),
#489);
#489=(
GEOMETRIC_REPRESENTATION_CONTEXT(3)
GLOBAL_UNCERTAINTY_ASSIGNED_CONTEXT((#490))
GLOBAL_UNIT_ASSIGNED_CONTEXT((#493,#492,#491))
REPRESENTATION_CONTEXT('13787 EV-20/180-DP---(DP)',
'TOP_LEVEL_ASSEMBLY_PART')
);
#490=UNCERTAINTY_MEASURE_WITH_UNIT(LENGTH_MEASURE(0.005),#493,
'DISTANCE_ACCURACY_VALUE','Maximum Tolerance applied to model');
#491=(
NAMED_UNIT(*)
SI_UNIT($,.STERADIAN.)
SOLID_ANGLE_UNIT()
);
#492=(
NAMED_UNIT(*)
PLANE_ANGLE_UNIT()
SI_UNIT($,.RADIAN.)
);
#493=(
LENGTH_UNIT()
NAMED_UNIT(*)
SI_UNIT(.MILLI.,.METRE.)
);
#494=PRODUCT_DEFINITION_SHAPE('','',#495);
#495=PRODUCT_DEFINITION('','',#497,#496);
#496=PRODUCT_DEFINITION_CONTEXT('',#503,'design');
#497=PRODUCT_DEFINITION_FORMATION_WITH_SPECIFIED_SOURCE('','',#499,
 .NOT_KNOWN.);
#498=PRODUCT_RELATED_PRODUCT_CATEGORY('','',(#499));
#499=PRODUCT('13787 EV-20/180-DP---(DP)','13787 EV-20/180-DP---(DP)',
'13787 EV-20/180-DP---(DP)',(#501));
#500=PRODUCT_CATEGORY('','');
#501=PRODUCT_CONTEXT('',#503,'mechanical');
#502=APPLICATION_PROTOCOL_DEFINITION('international standard',
'automotive_design',2010,#503);
#503=APPLICATION_CONTEXT(
'core data for automotive mechanical design processes');
ENDSEC;
END-ISO-10303-21;
