ISO-10303-21;
HEADER;
/* Generated by software containing ST-Developer
 * from STEP Tools, Inc. (www.steptools.com) 
 */
/* OPTION: using custom renumber hook */

FILE_DESCRIPTION(
/* description */ ('STEP AP214'),
/* implementation_level */ '2;1');

FILE_NAME(
/* name */ '1434912_LNZG-16',
/* time_stamp */ '2024-09-04T18:51:20+02:00',
/* author */ ('License CC BY-ND 4.0'),
/* organization */ ('CADENAS'),
/* preprocessor_version */ 'ST-DEVELOPER v19.3',
/* originating_system */ 'PARTsolutions',
/* authorisation */ '  ');

FILE_SCHEMA (('AUTOMOTIVE_DESIGN {1 0 10303 214 3 1 1}'));
ENDSEC;

DATA;
#10=PROPERTY_DEFINITION_REPRESENTATION(#14,#12);
#11=PROPERTY_DEFINITION_REPRESENTATION(#15,#13);
#12=REPRESENTATION('',(#16),#505);
#13=REPRESENTATION('',(#17),#505);
#14=PROPERTY_DEFINITION('pmi validation property','',#512);
#15=PROPERTY_DEFINITION('pmi validation property','',#512);
#16=VALUE_REPRESENTATION_ITEM('number of annotations',COUNT_MEASURE(0.));
#17=VALUE_REPRESENTATION_ITEM('number of views',COUNT_MEASURE(0.));
#18=CONTEXT_DEPENDENT_SHAPE_REPRESENTATION(#22,#514);
#19=CONTEXT_DEPENDENT_SHAPE_REPRESENTATION(#23,#515);
#20=NEXT_ASSEMBLY_USAGE_OCCURRENCE('NAUO1','1434912 LNZG-16---(16SP)',
'1434912 LNZG-16---(16SP)',#516,#517,'');
#21=NEXT_ASSEMBLY_USAGE_OCCURRENCE('NAUO2','1434912 LNZG-16---(16SP)',
'1434912 LNZG-16---(16SP)',#516,#517,'');
#22=(
REPRESENTATION_RELATIONSHIP(' ',' ',#303,#302)
REPRESENTATION_RELATIONSHIP_WITH_TRANSFORMATION(#24)
SHAPE_REPRESENTATION_RELATIONSHIP()
);
#23=(
REPRESENTATION_RELATIONSHIP(' ',' ',#303,#302)
REPRESENTATION_RELATIONSHIP_WITH_TRANSFORMATION(#25)
SHAPE_REPRESENTATION_RELATIONSHIP()
);
#24=ITEM_DEFINED_TRANSFORMATION(' ',' ',#304,#340);
#25=ITEM_DEFINED_TRANSFORMATION(' ',' ',#304,#341);
#26=SHAPE_REPRESENTATION_RELATIONSHIP('','',#303,#27);
#27=ADVANCED_BREP_SHAPE_REPRESENTATION('',(#299),#506);
#28=CONICAL_SURFACE('',#323,4.,1.0471975511966);
#29=CONICAL_SURFACE('',#324,4.3,1.0471975511966);
#30=CONICAL_SURFACE('',#333,8.,0.785398163397453);
#31=CONICAL_SURFACE('',#339,4.,0.785398163397448);
#32=CYLINDRICAL_SURFACE('',#317,2.25);
#33=CYLINDRICAL_SURFACE('',#321,4.);
#34=CYLINDRICAL_SURFACE('',#326,4.);
#35=CYLINDRICAL_SURFACE('',#330,2.25);
#36=CYLINDRICAL_SURFACE('',#331,8.);
#37=CYLINDRICAL_SURFACE('',#337,4.);
#38=CIRCLE('',#307,2.25);
#39=CIRCLE('',#308,2.25);
#40=CIRCLE('',#311,4.3);
#41=CIRCLE('',#312,4.3);
#42=CIRCLE('',#314,4.);
#43=CIRCLE('',#316,8.);
#44=CIRCLE('',#318,2.25);
#45=CIRCLE('',#320,4.);
#46=CIRCLE('',#322,4.);
#47=CIRCLE('',#325,4.);
#48=CIRCLE('',#327,4.);
#49=CIRCLE('',#329,2.25);
#50=CIRCLE('',#332,8.);
#51=CIRCLE('',#334,7.7);
#52=CIRCLE('',#336,4.05);
#53=CIRCLE('',#338,4.);
#54=ORIENTED_EDGE('',*,*,#110,.T.);
#55=ORIENTED_EDGE('',*,*,#111,.F.);
#56=ORIENTED_EDGE('',*,*,#112,.F.);
#57=ORIENTED_EDGE('',*,*,#113,.T.);
#58=ORIENTED_EDGE('',*,*,#114,.F.);
#59=ORIENTED_EDGE('',*,*,#115,.T.);
#60=ORIENTED_EDGE('',*,*,#116,.T.);
#61=ORIENTED_EDGE('',*,*,#117,.F.);
#62=ORIENTED_EDGE('',*,*,#118,.F.);
#63=ORIENTED_EDGE('',*,*,#111,.T.);
#64=ORIENTED_EDGE('',*,*,#119,.T.);
#65=ORIENTED_EDGE('',*,*,#120,.F.);
#66=ORIENTED_EDGE('',*,*,#121,.F.);
#67=ORIENTED_EDGE('',*,*,#117,.T.);
#68=ORIENTED_EDGE('',*,*,#122,.T.);
#69=ORIENTED_EDGE('',*,*,#123,.F.);
#70=ORIENTED_EDGE('',*,*,#124,.T.);
#71=ORIENTED_EDGE('',*,*,#113,.F.);
#72=ORIENTED_EDGE('',*,*,#125,.F.);
#73=ORIENTED_EDGE('',*,*,#120,.T.);
#74=ORIENTED_EDGE('',*,*,#126,.T.);
#75=ORIENTED_EDGE('',*,*,#112,.T.);
#76=ORIENTED_EDGE('',*,*,#118,.T.);
#77=ORIENTED_EDGE('',*,*,#121,.T.);
#78=ORIENTED_EDGE('',*,*,#125,.T.);
#79=ORIENTED_EDGE('',*,*,#127,.F.);
#80=ORIENTED_EDGE('',*,*,#110,.F.);
#81=ORIENTED_EDGE('',*,*,#124,.F.);
#82=ORIENTED_EDGE('',*,*,#119,.F.);
#83=ORIENTED_EDGE('',*,*,#116,.F.);
#84=ORIENTED_EDGE('',*,*,#128,.T.);
#85=ORIENTED_EDGE('',*,*,#115,.F.);
#86=ORIENTED_EDGE('',*,*,#129,.T.);
#87=ORIENTED_EDGE('',*,*,#128,.F.);
#88=ORIENTED_EDGE('',*,*,#130,.T.);
#89=ORIENTED_EDGE('',*,*,#129,.F.);
#90=ORIENTED_EDGE('',*,*,#123,.T.);
#91=ORIENTED_EDGE('',*,*,#130,.F.);
#92=ORIENTED_EDGE('',*,*,#131,.T.);
#93=ORIENTED_EDGE('',*,*,#122,.F.);
#94=ORIENTED_EDGE('',*,*,#132,.T.);
#95=ORIENTED_EDGE('',*,*,#131,.F.);
#96=ORIENTED_EDGE('',*,*,#133,.T.);
#97=ORIENTED_EDGE('',*,*,#132,.F.);
#98=ORIENTED_EDGE('',*,*,#114,.T.);
#99=ORIENTED_EDGE('',*,*,#133,.F.);
#100=ORIENTED_EDGE('',*,*,#134,.F.);
#101=ORIENTED_EDGE('',*,*,#127,.T.);
#102=ORIENTED_EDGE('',*,*,#135,.F.);
#103=ORIENTED_EDGE('',*,*,#134,.T.);
#104=ORIENTED_EDGE('',*,*,#136,.F.);
#105=ORIENTED_EDGE('',*,*,#135,.T.);
#106=ORIENTED_EDGE('',*,*,#137,.T.);
#107=ORIENTED_EDGE('',*,*,#126,.F.);
#108=ORIENTED_EDGE('',*,*,#136,.T.);
#109=ORIENTED_EDGE('',*,*,#137,.F.);
#110=EDGE_CURVE('',#138,#139,#162,.T.);
#111=EDGE_CURVE('',#140,#139,#163,.T.);
#112=EDGE_CURVE('',#141,#140,#164,.T.);
#113=EDGE_CURVE('',#141,#138,#165,.T.);
#114=EDGE_CURVE('',#142,#142,#38,.T.);
#115=EDGE_CURVE('',#143,#143,#39,.T.);
#116=EDGE_CURVE('',#139,#144,#166,.T.);
#117=EDGE_CURVE('',#145,#144,#167,.T.);
#118=EDGE_CURVE('',#140,#145,#168,.T.);
#119=EDGE_CURVE('',#144,#146,#169,.T.);
#120=EDGE_CURVE('',#147,#146,#170,.T.);
#121=EDGE_CURVE('',#145,#147,#171,.T.);
#122=EDGE_CURVE('',#148,#148,#40,.T.);
#123=EDGE_CURVE('',#149,#149,#41,.T.);
#124=EDGE_CURVE('',#146,#138,#172,.T.);
#125=EDGE_CURVE('',#147,#141,#173,.T.);
#126=EDGE_CURVE('',#150,#150,#42,.T.);
#127=EDGE_CURVE('',#151,#151,#43,.F.);
#128=EDGE_CURVE('',#152,#152,#44,.T.);
#129=EDGE_CURVE('',#153,#153,#45,.T.);
#130=EDGE_CURVE('',#154,#154,#46,.T.);
#131=EDGE_CURVE('',#155,#155,#47,.T.);
#132=EDGE_CURVE('',#156,#156,#48,.T.);
#133=EDGE_CURVE('',#157,#157,#49,.T.);
#134=EDGE_CURVE('',#158,#158,#50,.T.);
#135=EDGE_CURVE('',#159,#159,#51,.T.);
#136=EDGE_CURVE('',#160,#160,#52,.T.);
#137=EDGE_CURVE('',#161,#161,#53,.T.);
#138=VERTEX_POINT('',#433);
#139=VERTEX_POINT('',#434);
#140=VERTEX_POINT('',#436);
#141=VERTEX_POINT('',#438);
#142=VERTEX_POINT('',#442);
#143=VERTEX_POINT('',#444);
#144=VERTEX_POINT('',#446);
#145=VERTEX_POINT('',#448);
#146=VERTEX_POINT('',#452);
#147=VERTEX_POINT('',#454);
#148=VERTEX_POINT('',#458);
#149=VERTEX_POINT('',#460);
#150=VERTEX_POINT('',#465);
#151=VERTEX_POINT('',#468);
#152=VERTEX_POINT('',#471);
#153=VERTEX_POINT('',#474);
#154=VERTEX_POINT('',#477);
#155=VERTEX_POINT('',#481);
#156=VERTEX_POINT('',#484);
#157=VERTEX_POINT('',#487);
#158=VERTEX_POINT('',#491);
#159=VERTEX_POINT('',#494);
#160=VERTEX_POINT('',#497);
#161=VERTEX_POINT('',#500);
#162=LINE('',#432,#174);
#163=LINE('',#435,#175);
#164=LINE('',#437,#176);
#165=LINE('',#439,#177);
#166=LINE('',#445,#178);
#167=LINE('',#447,#179);
#168=LINE('',#449,#180);
#169=LINE('',#451,#181);
#170=LINE('',#453,#182);
#171=LINE('',#455,#183);
#172=LINE('',#461,#184);
#173=LINE('',#462,#185);
#174=VECTOR('',#346,1000.);
#175=VECTOR('',#347,1000.);
#176=VECTOR('',#348,1000.);
#177=VECTOR('',#349,1000.);
#178=VECTOR('',#356,1000.);
#179=VECTOR('',#357,1000.);
#180=VECTOR('',#358,1000.);
#181=VECTOR('',#361,1000.);
#182=VECTOR('',#362,1000.);
#183=VECTOR('',#363,1000.);
#184=VECTOR('',#370,1000.);
#185=VECTOR('',#371,1000.);
#186=EDGE_LOOP('',(#54,#55,#56,#57));
#187=EDGE_LOOP('',(#58));
#188=EDGE_LOOP('',(#59));
#189=EDGE_LOOP('',(#60,#61,#62,#63));
#190=EDGE_LOOP('',(#64,#65,#66,#67));
#191=EDGE_LOOP('',(#68));
#192=EDGE_LOOP('',(#69));
#193=EDGE_LOOP('',(#70,#71,#72,#73));
#194=EDGE_LOOP('',(#74));
#195=EDGE_LOOP('',(#75,#76,#77,#78));
#196=EDGE_LOOP('',(#79));
#197=EDGE_LOOP('',(#80,#81,#82,#83));
#198=EDGE_LOOP('',(#84));
#199=EDGE_LOOP('',(#85));
#200=EDGE_LOOP('',(#86));
#201=EDGE_LOOP('',(#87));
#202=EDGE_LOOP('',(#88));
#203=EDGE_LOOP('',(#89));
#204=EDGE_LOOP('',(#90));
#205=EDGE_LOOP('',(#91));
#206=EDGE_LOOP('',(#92));
#207=EDGE_LOOP('',(#93));
#208=EDGE_LOOP('',(#94));
#209=EDGE_LOOP('',(#95));
#210=EDGE_LOOP('',(#96));
#211=EDGE_LOOP('',(#97));
#212=EDGE_LOOP('',(#98));
#213=EDGE_LOOP('',(#99));
#214=EDGE_LOOP('',(#100));
#215=EDGE_LOOP('',(#101));
#216=EDGE_LOOP('',(#102));
#217=EDGE_LOOP('',(#103));
#218=EDGE_LOOP('',(#104));
#219=EDGE_LOOP('',(#105));
#220=EDGE_LOOP('',(#106));
#221=EDGE_LOOP('',(#107));
#222=EDGE_LOOP('',(#108));
#223=EDGE_LOOP('',(#109));
#224=FACE_BOUND('',#186,.T.);
#225=FACE_BOUND('',#187,.T.);
#226=FACE_BOUND('',#188,.T.);
#227=FACE_BOUND('',#189,.T.);
#228=FACE_BOUND('',#190,.T.);
#229=FACE_BOUND('',#191,.T.);
#230=FACE_BOUND('',#192,.T.);
#231=FACE_BOUND('',#193,.T.);
#232=FACE_BOUND('',#194,.T.);
#233=FACE_BOUND('',#195,.T.);
#234=FACE_BOUND('',#196,.T.);
#235=FACE_BOUND('',#197,.T.);
#236=FACE_BOUND('',#198,.T.);
#237=FACE_BOUND('',#199,.T.);
#238=FACE_BOUND('',#200,.T.);
#239=FACE_BOUND('',#201,.T.);
#240=FACE_BOUND('',#202,.T.);
#241=FACE_BOUND('',#203,.T.);
#242=FACE_BOUND('',#204,.T.);
#243=FACE_BOUND('',#205,.T.);
#244=FACE_BOUND('',#206,.T.);
#245=FACE_BOUND('',#207,.T.);
#246=FACE_BOUND('',#208,.T.);
#247=FACE_BOUND('',#209,.T.);
#248=FACE_BOUND('',#210,.T.);
#249=FACE_BOUND('',#211,.T.);
#250=FACE_BOUND('',#212,.T.);
#251=FACE_BOUND('',#213,.T.);
#252=FACE_BOUND('',#214,.T.);
#253=FACE_BOUND('',#215,.T.);
#254=FACE_BOUND('',#216,.T.);
#255=FACE_BOUND('',#217,.T.);
#256=FACE_BOUND('',#218,.T.);
#257=FACE_BOUND('',#219,.T.);
#258=FACE_BOUND('',#220,.T.);
#259=FACE_BOUND('',#221,.T.);
#260=FACE_BOUND('',#222,.T.);
#261=FACE_BOUND('',#223,.T.);
#262=PLANE('',#305);
#263=PLANE('',#306);
#264=PLANE('',#309);
#265=PLANE('',#310);
#266=PLANE('',#313);
#267=PLANE('',#315);
#268=PLANE('',#319);
#269=PLANE('',#328);
#270=PLANE('',#335);
#271=ADVANCED_FACE('',(#224),#262,.F.);
#272=ADVANCED_FACE('',(#225,#226,#227),#263,.F.);
#273=ADVANCED_FACE('',(#228),#264,.F.);
#274=ADVANCED_FACE('',(#229,#230,#231),#265,.F.);
#275=ADVANCED_FACE('',(#232,#233),#266,.T.);
#276=ADVANCED_FACE('',(#234,#235),#267,.F.);
#277=ADVANCED_FACE('',(#236,#237),#32,.F.);
#278=ADVANCED_FACE('',(#238,#239),#268,.T.);
#279=ADVANCED_FACE('',(#240,#241),#33,.F.);
#280=ADVANCED_FACE('',(#242,#243),#28,.F.);
#281=ADVANCED_FACE('',(#244,#245),#29,.F.);
#282=ADVANCED_FACE('',(#246,#247),#34,.F.);
#283=ADVANCED_FACE('',(#248,#249),#269,.T.);
#284=ADVANCED_FACE('',(#250,#251),#35,.F.);
#285=ADVANCED_FACE('',(#252,#253),#36,.T.);
#286=ADVANCED_FACE('',(#254,#255),#30,.T.);
#287=ADVANCED_FACE('',(#256,#257),#270,.F.);
#288=ADVANCED_FACE('',(#258,#259),#37,.F.);
#289=ADVANCED_FACE('',(#260,#261),#31,.F.);
#290=CLOSED_SHELL('',(#271,#272,#273,#274,#275,#276,#277,#278,#279,#280,
#281,#282,#283,#284,#285,#286,#287,#288,#289));
#291=STYLED_ITEM('',(#292),#299);
#292=PRESENTATION_STYLE_ASSIGNMENT((#293));
#293=SURFACE_STYLE_USAGE(.BOTH.,#294);
#294=SURFACE_SIDE_STYLE('',(#295));
#295=SURFACE_STYLE_FILL_AREA(#296);
#296=FILL_AREA_STYLE('',(#297));
#297=FILL_AREA_STYLE_COLOUR('',#298);
#298=COLOUR_RGB('',0.501960813999176,0.501960813999176,0.501960813999176);
#299=MANIFOLD_SOLID_BREP('1434912 LNZG-16---(16SP)',#290);
#300=SHAPE_DEFINITION_REPRESENTATION(#512,#302);
#301=SHAPE_DEFINITION_REPRESENTATION(#513,#303);
#302=SHAPE_REPRESENTATION('1434912 LNZG-16---(16)',(#304,#340,#341),#505);
#303=SHAPE_REPRESENTATION('1434912 LNZG-16---(16SP)',(#304),#506);
#304=AXIS2_PLACEMENT_3D('',#430,#342,#343);
#305=AXIS2_PLACEMENT_3D('',#431,#344,#345);
#306=AXIS2_PLACEMENT_3D('',#440,#350,#351);
#307=AXIS2_PLACEMENT_3D('',#441,#352,#353);
#308=AXIS2_PLACEMENT_3D('',#443,#354,#355);
#309=AXIS2_PLACEMENT_3D('',#450,#359,#360);
#310=AXIS2_PLACEMENT_3D('',#456,#364,#365);
#311=AXIS2_PLACEMENT_3D('',#457,#366,#367);
#312=AXIS2_PLACEMENT_3D('',#459,#368,#369);
#313=AXIS2_PLACEMENT_3D('',#463,#372,#373);
#314=AXIS2_PLACEMENT_3D('',#464,#374,#375);
#315=AXIS2_PLACEMENT_3D('',#466,#376,#377);
#316=AXIS2_PLACEMENT_3D('',#467,#378,#379);
#317=AXIS2_PLACEMENT_3D('',#469,#380,#381);
#318=AXIS2_PLACEMENT_3D('',#470,#382,#383);
#319=AXIS2_PLACEMENT_3D('',#472,#384,#385);
#320=AXIS2_PLACEMENT_3D('',#473,#386,#387);
#321=AXIS2_PLACEMENT_3D('',#475,#388,#389);
#322=AXIS2_PLACEMENT_3D('',#476,#390,#391);
#323=AXIS2_PLACEMENT_3D('',#478,#392,#393);
#324=AXIS2_PLACEMENT_3D('',#479,#394,#395);
#325=AXIS2_PLACEMENT_3D('',#480,#396,#397);
#326=AXIS2_PLACEMENT_3D('',#482,#398,#399);
#327=AXIS2_PLACEMENT_3D('',#483,#400,#401);
#328=AXIS2_PLACEMENT_3D('',#485,#402,#403);
#329=AXIS2_PLACEMENT_3D('',#486,#404,#405);
#330=AXIS2_PLACEMENT_3D('',#488,#406,#407);
#331=AXIS2_PLACEMENT_3D('',#489,#408,#409);
#332=AXIS2_PLACEMENT_3D('',#490,#410,#411);
#333=AXIS2_PLACEMENT_3D('',#492,#412,#413);
#334=AXIS2_PLACEMENT_3D('',#493,#414,#415);
#335=AXIS2_PLACEMENT_3D('',#495,#416,#417);
#336=AXIS2_PLACEMENT_3D('',#496,#418,#419);
#337=AXIS2_PLACEMENT_3D('',#498,#420,#421);
#338=AXIS2_PLACEMENT_3D('',#499,#422,#423);
#339=AXIS2_PLACEMENT_3D('',#501,#424,#425);
#340=AXIS2_PLACEMENT_3D('',#502,#426,#427);
#341=AXIS2_PLACEMENT_3D('',#503,#428,#429);
#342=DIRECTION('',(0.,0.,1.));
#343=DIRECTION('',(1.,0.,0.));
#344=DIRECTION('',(1.,0.,0.));
#345=DIRECTION('',(0.,0.,-1.));
#346=DIRECTION('',(0.,-1.,0.));
#347=DIRECTION('',(0.,0.,-1.));
#348=DIRECTION('',(0.,-1.,0.));
#349=DIRECTION('',(0.,0.,-1.));
#350=DIRECTION('',(0.,1.,0.));
#351=DIRECTION('',(0.,0.,1.));
#352=DIRECTION('',(0.,-1.,0.));
#353=DIRECTION('',(0.,0.,-1.));
#354=DIRECTION('',(0.,1.,0.));
#355=DIRECTION('',(0.,0.,1.));
#356=DIRECTION('',(1.,0.,0.));
#357=DIRECTION('',(0.,0.,-1.));
#358=DIRECTION('',(1.,0.,0.));
#359=DIRECTION('',(-1.,0.,0.));
#360=DIRECTION('',(0.,0.,1.));
#361=DIRECTION('',(0.,1.,0.));
#362=DIRECTION('',(0.,0.,-1.));
#363=DIRECTION('',(0.,1.,0.));
#364=DIRECTION('',(0.,-1.,0.));
#365=DIRECTION('',(0.,0.,-1.));
#366=DIRECTION('',(0.,-1.,0.));
#367=DIRECTION('',(0.,0.,-1.));
#368=DIRECTION('',(0.,1.,0.));
#369=DIRECTION('',(0.,0.,1.));
#370=DIRECTION('',(-1.,0.,0.));
#371=DIRECTION('',(-1.,0.,0.));
#372=DIRECTION('',(0.,0.,1.));
#373=DIRECTION('',(1.,0.,0.));
#374=DIRECTION('',(0.,0.,-1.));
#375=DIRECTION('',(-1.,0.,0.));
#376=DIRECTION('',(0.,0.,1.));
#377=DIRECTION('',(1.,0.,0.));
#378=DIRECTION('',(0.,0.,1.));
#379=DIRECTION('',(1.,0.,0.));
#380=DIRECTION('',(0.,1.,0.));
#381=DIRECTION('',(0.,0.,1.));
#382=DIRECTION('',(0.,1.,0.));
#383=DIRECTION('',(0.,0.,1.));
#384=DIRECTION('',(0.,1.,0.));
#385=DIRECTION('',(0.,0.,1.));
#386=DIRECTION('',(0.,1.,0.));
#387=DIRECTION('',(0.,0.,1.));
#388=DIRECTION('',(0.,1.,0.));
#389=DIRECTION('',(0.,0.,1.));
#390=DIRECTION('',(0.,1.,0.));
#391=DIRECTION('',(0.,0.,1.));
#392=DIRECTION('',(0.,1.,0.));
#393=DIRECTION('',(0.,0.,1.));
#394=DIRECTION('',(0.,1.,0.));
#395=DIRECTION('',(0.,0.,1.));
#396=DIRECTION('',(0.,-1.,0.));
#397=DIRECTION('',(0.,0.,-1.));
#398=DIRECTION('',(0.,-1.,0.));
#399=DIRECTION('',(0.,0.,-1.));
#400=DIRECTION('',(0.,-1.,0.));
#401=DIRECTION('',(0.,0.,-1.));
#402=DIRECTION('',(0.,1.,0.));
#403=DIRECTION('',(0.,0.,1.));
#404=DIRECTION('',(0.,-1.,0.));
#405=DIRECTION('',(0.,0.,-1.));
#406=DIRECTION('',(0.,-1.,0.));
#407=DIRECTION('',(0.,0.,-1.));
#408=DIRECTION('',(0.,0.,-1.));
#409=DIRECTION('',(-1.,0.,0.));
#410=DIRECTION('',(0.,0.,-1.));
#411=DIRECTION('',(-1.,0.,0.));
#412=DIRECTION('',(0.,0.,1.));
#413=DIRECTION('',(1.,0.,0.));
#414=DIRECTION('',(0.,0.,-1.));
#415=DIRECTION('',(-1.,0.,0.));
#416=DIRECTION('',(0.,0.,1.));
#417=DIRECTION('',(1.,0.,0.));
#418=DIRECTION('',(0.,0.,-1.));
#419=DIRECTION('',(-1.,0.,0.));
#420=DIRECTION('',(0.,0.,-1.));
#421=DIRECTION('',(-1.,0.,0.));
#422=DIRECTION('',(0.,0.,-1.));
#423=DIRECTION('',(-1.,0.,0.));
#424=DIRECTION('',(0.,0.,-1.));
#425=DIRECTION('',(-1.,0.,0.));
#426=DIRECTION('',(0.,0.,1.));
#427=DIRECTION('',(1.,0.,0.));
#428=DIRECTION('',(0.,0.,-1.));
#429=DIRECTION('',(-1.,0.,0.));
#430=CARTESIAN_POINT('',(0.,0.,0.));
#431=CARTESIAN_POINT('',(-15.,20.,5.5));
#432=CARTESIAN_POINT('',(-15.,20.,-5.5));
#433=CARTESIAN_POINT('',(-15.,20.,-5.5));
#434=CARTESIAN_POINT('',(-15.,0.,-5.5));
#435=CARTESIAN_POINT('',(-15.,0.,5.5));
#436=CARTESIAN_POINT('',(-15.,0.,5.5));
#437=CARTESIAN_POINT('',(-15.,20.,5.5));
#438=CARTESIAN_POINT('',(-15.,20.,5.5));
#439=CARTESIAN_POINT('',(-15.,20.,5.5));
#440=CARTESIAN_POINT('',(-15.,0.,5.5));
#441=CARTESIAN_POINT('',(-10.,0.,0.));
#442=CARTESIAN_POINT('',(-10.,0.,-2.25));
#443=CARTESIAN_POINT('',(10.,0.,0.));
#444=CARTESIAN_POINT('',(10.,0.,2.25));
#445=CARTESIAN_POINT('',(-15.,0.,-5.5));
#446=CARTESIAN_POINT('',(15.,0.,-5.5));
#447=CARTESIAN_POINT('',(15.,0.,5.5));
#448=CARTESIAN_POINT('',(15.,0.,5.5));
#449=CARTESIAN_POINT('',(-15.,0.,5.5));
#450=CARTESIAN_POINT('',(15.,0.,5.5));
#451=CARTESIAN_POINT('',(15.,0.,-5.5));
#452=CARTESIAN_POINT('',(15.,20.,-5.5));
#453=CARTESIAN_POINT('',(15.,20.,5.5));
#454=CARTESIAN_POINT('',(15.,20.,5.5));
#455=CARTESIAN_POINT('',(15.,0.,5.5));
#456=CARTESIAN_POINT('',(15.,20.,5.5));
#457=CARTESIAN_POINT('',(-10.,20.,0.));
#458=CARTESIAN_POINT('',(-10.,20.,-4.3));
#459=CARTESIAN_POINT('',(10.,20.,0.));
#460=CARTESIAN_POINT('',(10.,20.,4.3));
#461=CARTESIAN_POINT('',(15.,20.,-5.5));
#462=CARTESIAN_POINT('',(15.,20.,5.5));
#463=CARTESIAN_POINT('',(0.,0.,5.5));
#464=CARTESIAN_POINT('',(0.,10.,5.5));
#465=CARTESIAN_POINT('',(-4.,10.,5.5));
#466=CARTESIAN_POINT('',(0.,0.,-5.5));
#467=CARTESIAN_POINT('',(0.,10.,-5.5));
#468=CARTESIAN_POINT('',(8.,10.,-5.5));
#469=CARTESIAN_POINT('',(10.,20.,0.));
#470=CARTESIAN_POINT('',(10.,15.4,0.));
#471=CARTESIAN_POINT('',(10.,15.4,2.25));
#472=CARTESIAN_POINT('',(7.75,15.4,0.));
#473=CARTESIAN_POINT('',(10.,15.4,0.));
#474=CARTESIAN_POINT('',(10.,15.4,4.));
#475=CARTESIAN_POINT('',(10.,20.,0.));
#476=CARTESIAN_POINT('',(10.,19.8267949192431,0.));
#477=CARTESIAN_POINT('',(10.,19.8267949192431,4.));
#478=CARTESIAN_POINT('',(10.,19.8267949192431,0.));
#479=CARTESIAN_POINT('',(-10.,20.,0.));
#480=CARTESIAN_POINT('',(-10.,19.8267949192431,0.));
#481=CARTESIAN_POINT('',(-10.,19.8267949192431,-4.));
#482=CARTESIAN_POINT('',(-10.,0.,0.));
#483=CARTESIAN_POINT('',(-10.,15.4,0.));
#484=CARTESIAN_POINT('',(-10.,15.4,-4.));
#485=CARTESIAN_POINT('',(-6.,15.4,0.));
#486=CARTESIAN_POINT('',(-10.,15.4,0.));
#487=CARTESIAN_POINT('',(-10.,15.4,-2.25));
#488=CARTESIAN_POINT('',(-10.,0.,0.));
#489=CARTESIAN_POINT('',(0.,10.,-7.5));
#490=CARTESIAN_POINT('',(0.,10.,-7.2));
#491=CARTESIAN_POINT('',(-8.,10.,-7.2));
#492=CARTESIAN_POINT('',(0.,10.,-7.2));
#493=CARTESIAN_POINT('',(0.,10.,-7.5));
#494=CARTESIAN_POINT('',(-7.7,10.,-7.5));
#495=CARTESIAN_POINT('',(0.,17.7,-7.5));
#496=CARTESIAN_POINT('',(0.,10.,-7.5));
#497=CARTESIAN_POINT('',(-4.05,10.,-7.5));
#498=CARTESIAN_POINT('',(0.,10.,-7.5));
#499=CARTESIAN_POINT('',(0.,10.,-7.45));
#500=CARTESIAN_POINT('',(-4.,10.,-7.45));
#501=CARTESIAN_POINT('',(0.,10.,-7.45));
#502=CARTESIAN_POINT('',(0.,0.,0.));
#503=CARTESIAN_POINT('',(-1.22464679914735E-15,-1.77635683940025E-15,-60.));
#504=MECHANICAL_DESIGN_GEOMETRIC_PRESENTATION_REPRESENTATION('',(#291),
#505);
#505=(
GEOMETRIC_REPRESENTATION_CONTEXT(3)
GLOBAL_UNCERTAINTY_ASSIGNED_CONTEXT((#507))
GLOBAL_UNIT_ASSIGNED_CONTEXT((#511,#510,#509))
REPRESENTATION_CONTEXT('1434912 LNZG-16---(16)',
'TOP_LEVEL_ASSEMBLY_PART')
);
#506=(
GEOMETRIC_REPRESENTATION_CONTEXT(3)
GLOBAL_UNCERTAINTY_ASSIGNED_CONTEXT((#508))
GLOBAL_UNIT_ASSIGNED_CONTEXT((#511,#510,#509))
REPRESENTATION_CONTEXT('1434912 LNZG-16---(16SP)','COMPONENT_PART')
);
#507=UNCERTAINTY_MEASURE_WITH_UNIT(LENGTH_MEASURE(0.005),#511,
'DISTANCE_ACCURACY_VALUE','Maximum Tolerance applied to model');
#508=UNCERTAINTY_MEASURE_WITH_UNIT(LENGTH_MEASURE(0.005),#511,
'DISTANCE_ACCURACY_VALUE','Maximum Tolerance applied to model');
#509=(
NAMED_UNIT(*)
SI_UNIT($,.STERADIAN.)
SOLID_ANGLE_UNIT()
);
#510=(
NAMED_UNIT(*)
PLANE_ANGLE_UNIT()
SI_UNIT($,.RADIAN.)
);
#511=(
LENGTH_UNIT()
NAMED_UNIT(*)
SI_UNIT(.MILLI.,.METRE.)
);
#512=PRODUCT_DEFINITION_SHAPE('','',#516);
#513=PRODUCT_DEFINITION_SHAPE('','',#517);
#514=PRODUCT_DEFINITION_SHAPE(' ','NAUO PRDDFN',#20);
#515=PRODUCT_DEFINITION_SHAPE(' ','NAUO PRDDFN',#21);
#516=PRODUCT_DEFINITION('','',#520,#518);
#517=PRODUCT_DEFINITION('','',#521,#519);
#518=PRODUCT_DEFINITION_CONTEXT('',#531,'design');
#519=PRODUCT_DEFINITION_CONTEXT('',#531,'design');
#520=PRODUCT_DEFINITION_FORMATION_WITH_SPECIFIED_SOURCE('','',#524,
 .NOT_KNOWN.);
#521=PRODUCT_DEFINITION_FORMATION_WITH_SPECIFIED_SOURCE('','',#525,
 .NOT_KNOWN.);
#522=PRODUCT_RELATED_PRODUCT_CATEGORY('','',(#524));
#523=PRODUCT_RELATED_PRODUCT_CATEGORY('','',(#525));
#524=PRODUCT('1434912 LNZG-16---(16)','1434912 LNZG-16---(16)',
'1434912 LNZG-16---(16)',(#528));
#525=PRODUCT('1434912 LNZG-16---(16SP)','1434912 LNZG-16---(16SP)',
'1434912 LNZG-16---(16SP)',(#529));
#526=PRODUCT_CATEGORY('','');
#527=PRODUCT_CATEGORY('','');
#528=PRODUCT_CONTEXT('',#531,'mechanical');
#529=PRODUCT_CONTEXT('',#531,'mechanical');
#530=APPLICATION_PROTOCOL_DEFINITION('international standard',
'automotive_design',2010,#531);
#531=APPLICATION_CONTEXT(
'core data for automotive mechanical design processes');
ENDSEC;
END-ISO-10303-21;
