ISO-10303-21;
HEADER;
/* Generated by software containing ST-Developer
 * from STEP Tools, Inc. (www.steptools.com) 
 */
/* OPTION: using custom renumber hook */

FILE_DESCRIPTION(
/* description */ ('STEP AP214'),
/* implementation_level */ '2;1');

FILE_NAME(
/* name */ '150362_SIEN-4B-PS-K-L',
/* time_stamp */ '2024-09-15T05:19:59+02:00',
/* author */ ('License CC BY-ND 4.0'),
/* organization */ ('CADENAS'),
/* preprocessor_version */ 'ST-DEVELOPER v19.3',
/* originating_system */ 'PARTsolutions',
/* authorisation */ '  ');

FILE_SCHEMA (('AUTOMOTIVE_DESIGN {1 0 10303 214 3 1 1}'));
ENDSEC;

DATA;
#10=PROPERTY_DEFINITION_REPRESENTATION(#14,#12);
#11=PROPERTY_DEFINITION_REPRESENTATION(#15,#13);
#12=REPRESENTATION('',(#16),#223);
#13=REPRESENTATION('',(#17),#223);
#14=PROPERTY_DEFINITION('pmi validation property','',#230);
#15=PROPERTY_DEFINITION('pmi validation property','',#230);
#16=VALUE_REPRESENTATION_ITEM('number of annotations',COUNT_MEASURE(0.));
#17=VALUE_REPRESENTATION_ITEM('number of views',COUNT_MEASURE(0.));
#18=CONTEXT_DEPENDENT_SHAPE_REPRESENTATION(#20,#232);
#19=NEXT_ASSEMBLY_USAGE_OCCURRENCE('NAUO1',
'150362 SIEN-4B-PS-K-Lp---(0_0)','150362 SIEN-4B-PS-K-Lp---(0_0)',#233,
#234,'');
#20=(
REPRESENTATION_RELATIONSHIP(' ',' ',#148,#147)
REPRESENTATION_RELATIONSHIP_WITH_TRANSFORMATION(#21)
SHAPE_REPRESENTATION_RELATIONSHIP()
);
#21=ITEM_DEFINED_TRANSFORMATION(' ',' ',#149,#162);
#22=SHAPE_REPRESENTATION_RELATIONSHIP('','',#148,#23);
#23=ADVANCED_BREP_SHAPE_REPRESENTATION('',(#144),#224);
#24=PLANE('',#153);
#25=PLANE('',#154);
#26=PLANE('',#158);
#27=PLANE('',#161);
#28=B_SPLINE_CURVE_WITH_KNOTS('',3,(#197,#198,#199,#200,#201,#202,#203,
#204,#205,#206,#207),.UNSPECIFIED.,.T.,.F.,(1,1,1,1,1,1,1,1,1,1,1,1,1,1,
1),(-0.00213827640894205,-0.00142551760596136,-0.000712758802980682,0.,
0.000712758802980682,0.00142551760596136,0.00213827640894205,0.00285103521192273,
0.00356379401490341,0.00427655281788409,0.00498931162086477,0.00570207042384545,
0.00641482922682614,0.00712758802980682,0.0078403468327875),
 .UNSPECIFIED.);
#29=ORIENTED_EDGE('',*,*,#41,.F.);
#30=ORIENTED_EDGE('',*,*,#42,.T.);
#31=ORIENTED_EDGE('',*,*,#43,.F.);
#32=ORIENTED_EDGE('',*,*,#42,.F.);
#33=ORIENTED_EDGE('',*,*,#44,.F.);
#34=ORIENTED_EDGE('',*,*,#41,.T.);
#35=ORIENTED_EDGE('',*,*,#43,.T.);
#36=ORIENTED_EDGE('',*,*,#45,.F.);
#37=ORIENTED_EDGE('',*,*,#45,.T.);
#38=ORIENTED_EDGE('',*,*,#46,.F.);
#39=ORIENTED_EDGE('',*,*,#44,.T.);
#40=ORIENTED_EDGE('',*,*,#46,.T.);
#41=EDGE_CURVE('',#47,#47,#53,.T.);
#42=EDGE_CURVE('',#48,#48,#54,.T.);
#43=EDGE_CURVE('',#49,#49,#28,.T.);
#44=EDGE_CURVE('',#50,#50,#55,.T.);
#45=EDGE_CURVE('',#51,#51,#56,.T.);
#46=EDGE_CURVE('',#52,#52,#57,.T.);
#47=VERTEX_POINT('',#194);
#48=VERTEX_POINT('',#196);
#49=VERTEX_POINT('',#208);
#50=VERTEX_POINT('',#212);
#51=VERTEX_POINT('',#215);
#52=VERTEX_POINT('',#219);
#53=CIRCLE('',#151,2.);
#54=CIRCLE('',#152,2.);
#55=CIRCLE('',#155,1.75);
#56=CIRCLE('',#157,0.899999999999998);
#57=CIRCLE('',#160,1.75);
#58=EDGE_LOOP('',(#29));
#59=EDGE_LOOP('',(#30));
#60=EDGE_LOOP('',(#31));
#61=EDGE_LOOP('',(#32));
#62=EDGE_LOOP('',(#33));
#63=EDGE_LOOP('',(#34));
#64=EDGE_LOOP('',(#35));
#65=EDGE_LOOP('',(#36));
#66=EDGE_LOOP('',(#37));
#67=EDGE_LOOP('',(#38));
#68=EDGE_LOOP('',(#39));
#69=EDGE_LOOP('',(#40));
#70=FACE_BOUND('',#58,.T.);
#71=FACE_BOUND('',#59,.T.);
#72=FACE_BOUND('',#60,.T.);
#73=FACE_BOUND('',#61,.T.);
#74=FACE_BOUND('',#62,.T.);
#75=FACE_BOUND('',#63,.T.);
#76=FACE_BOUND('',#64,.T.);
#77=FACE_BOUND('',#65,.T.);
#78=FACE_BOUND('',#66,.T.);
#79=FACE_BOUND('',#67,.T.);
#80=FACE_BOUND('',#68,.T.);
#81=FACE_BOUND('',#69,.T.);
#82=CYLINDRICAL_SURFACE('',#150,2.);
#83=CYLINDRICAL_SURFACE('',#156,0.899999999999998);
#84=CYLINDRICAL_SURFACE('',#159,1.75);
#85=STYLED_ITEM('',(#92),#136);
#86=STYLED_ITEM('',(#93),#137);
#87=STYLED_ITEM('',(#94),#138);
#88=STYLED_ITEM('',(#95),#139);
#89=STYLED_ITEM('',(#96),#140);
#90=STYLED_ITEM('',(#97),#141);
#91=STYLED_ITEM('',(#98),#142);
#92=PRESENTATION_STYLE_ASSIGNMENT((#99));
#93=PRESENTATION_STYLE_ASSIGNMENT((#100));
#94=PRESENTATION_STYLE_ASSIGNMENT((#101));
#95=PRESENTATION_STYLE_ASSIGNMENT((#102));
#96=PRESENTATION_STYLE_ASSIGNMENT((#103));
#97=PRESENTATION_STYLE_ASSIGNMENT((#104));
#98=PRESENTATION_STYLE_ASSIGNMENT((#105));
#99=SURFACE_STYLE_USAGE(.BOTH.,#106);
#100=SURFACE_STYLE_USAGE(.BOTH.,#107);
#101=SURFACE_STYLE_USAGE(.BOTH.,#108);
#102=SURFACE_STYLE_USAGE(.BOTH.,#109);
#103=SURFACE_STYLE_USAGE(.BOTH.,#110);
#104=SURFACE_STYLE_USAGE(.BOTH.,#111);
#105=SURFACE_STYLE_USAGE(.BOTH.,#112);
#106=SURFACE_SIDE_STYLE('',(#113));
#107=SURFACE_SIDE_STYLE('',(#114));
#108=SURFACE_SIDE_STYLE('',(#115));
#109=SURFACE_SIDE_STYLE('',(#116));
#110=SURFACE_SIDE_STYLE('',(#117));
#111=SURFACE_SIDE_STYLE('',(#118));
#112=SURFACE_SIDE_STYLE('',(#119));
#113=SURFACE_STYLE_FILL_AREA(#120);
#114=SURFACE_STYLE_FILL_AREA(#121);
#115=SURFACE_STYLE_FILL_AREA(#122);
#116=SURFACE_STYLE_FILL_AREA(#123);
#117=SURFACE_STYLE_FILL_AREA(#124);
#118=SURFACE_STYLE_FILL_AREA(#125);
#119=SURFACE_STYLE_FILL_AREA(#126);
#120=FILL_AREA_STYLE('',(#127));
#121=FILL_AREA_STYLE('',(#128));
#122=FILL_AREA_STYLE('',(#129));
#123=FILL_AREA_STYLE('',(#130));
#124=FILL_AREA_STYLE('',(#131));
#125=FILL_AREA_STYLE('',(#132));
#126=FILL_AREA_STYLE('',(#133));
#127=FILL_AREA_STYLE_COLOUR('',#134);
#128=FILL_AREA_STYLE_COLOUR('',#134);
#129=FILL_AREA_STYLE_COLOUR('',#134);
#130=FILL_AREA_STYLE_COLOUR('',#134);
#131=FILL_AREA_STYLE_COLOUR('',#134);
#132=FILL_AREA_STYLE_COLOUR('',#135);
#133=FILL_AREA_STYLE_COLOUR('',#135);
#134=COLOUR_RGB('',0.689999997615814,0.689999997615814,0.689999997615814);
#135=COLOUR_RGB('',0.53700000047684,0.5799999833107,0.58799999952316);
#136=ADVANCED_FACE('',(#70,#71,#72),#82,.T.);
#137=ADVANCED_FACE('',(#73),#24,.F.);
#138=ADVANCED_FACE('',(#74,#75),#25,.F.);
#139=ADVANCED_FACE('',(#76,#77),#83,.F.);
#140=ADVANCED_FACE('',(#78),#26,.T.);
#141=ADVANCED_FACE('',(#79,#80),#84,.T.);
#142=ADVANCED_FACE('',(#81),#27,.F.);
#143=CLOSED_SHELL('',(#136,#137,#138,#139,#140,#141,#142));
#144=MANIFOLD_SOLID_BREP('150362 SIEN-4B-PS-K-Lp---(0_0)',#143);
#145=SHAPE_DEFINITION_REPRESENTATION(#230,#147);
#146=SHAPE_DEFINITION_REPRESENTATION(#231,#148);
#147=SHAPE_REPRESENTATION('150362 SIEN-4B-PS-K-L---(0_0)',(#149,#162),#223);
#148=SHAPE_REPRESENTATION('150362 SIEN-4B-PS-K-Lp---(0_0)',(#149),#224);
#149=AXIS2_PLACEMENT_3D('',#191,#163,#164);
#150=AXIS2_PLACEMENT_3D('',#192,#165,#166);
#151=AXIS2_PLACEMENT_3D('',#193,#167,#168);
#152=AXIS2_PLACEMENT_3D('',#195,#169,#170);
#153=AXIS2_PLACEMENT_3D('',#209,#171,#172);
#154=AXIS2_PLACEMENT_3D('',#210,#173,#174);
#155=AXIS2_PLACEMENT_3D('',#211,#175,#176);
#156=AXIS2_PLACEMENT_3D('',#213,#177,#178);
#157=AXIS2_PLACEMENT_3D('',#214,#179,#180);
#158=AXIS2_PLACEMENT_3D('',#216,#181,#182);
#159=AXIS2_PLACEMENT_3D('',#217,#183,#184);
#160=AXIS2_PLACEMENT_3D('',#218,#185,#186);
#161=AXIS2_PLACEMENT_3D('',#220,#187,#188);
#162=AXIS2_PLACEMENT_3D('',#221,#189,#190);
#163=DIRECTION('',(0.,0.,1.));
#164=DIRECTION('',(1.,0.,0.));
#165=DIRECTION('',(1.,0.,0.));
#166=DIRECTION('',(0.,0.,-1.));
#167=DIRECTION('',(1.,0.,0.));
#168=DIRECTION('',(0.,0.,-1.));
#169=DIRECTION('',(1.,0.,0.));
#170=DIRECTION('',(0.,0.,-1.));
#171=DIRECTION('',(1.,0.,0.));
#172=DIRECTION('',(0.,0.,-1.));
#173=DIRECTION('',(-1.,0.,0.));
#174=DIRECTION('',(0.,0.,1.));
#175=DIRECTION('',(1.,0.,0.));
#176=DIRECTION('',(0.,0.,-1.));
#177=DIRECTION('',(0.,0.,1.));
#178=DIRECTION('',(1.,0.,0.));
#179=DIRECTION('',(0.,0.,1.));
#180=DIRECTION('',(1.,0.,0.));
#181=DIRECTION('',(0.,0.,1.));
#182=DIRECTION('',(1.,0.,0.));
#183=DIRECTION('',(1.,0.,0.));
#184=DIRECTION('',(0.,0.,-1.));
#185=DIRECTION('',(1.,0.,0.));
#186=DIRECTION('',(0.,0.,-1.));
#187=DIRECTION('',(-1.,0.,0.));
#188=DIRECTION('',(0.,0.,1.));
#189=DIRECTION('',(-1.,0.,0.));
#190=DIRECTION('',(0.,0.,-1.));
#191=CARTESIAN_POINT('',(0.,0.,0.));
#192=CARTESIAN_POINT('',(25.,0.,0.));
#193=CARTESIAN_POINT('',(25.,0.,0.));
#194=CARTESIAN_POINT('',(25.,0.,-2.));
#195=CARTESIAN_POINT('',(0.,0.,0.));
#196=CARTESIAN_POINT('',(0.,0.,-2.));
#197=CARTESIAN_POINT('',(18.7045232365317,-0.706485439738554,1.89864305553488));
#198=CARTESIAN_POINT('',(18.997831023158,0.000211035544991973,2.05062439628041));
#199=CARTESIAN_POINT('',(18.7041526708363,0.705641297558586,1.89885935934346));
#200=CARTESIAN_POINT('',(18.0023841855088,0.99715048949521,1.7297089046268));
#201=CARTESIAN_POINT('',(17.2952563075633,0.705749334648616,1.89865141566959));
#202=CARTESIAN_POINT('',(17.0024304000313,0.00244057366264996,2.05056204348886));
#203=CARTESIAN_POINT('',(17.2950309350493,-0.705739142886948,1.89909643114554));
#204=CARTESIAN_POINT('',(17.9981512728373,-0.996942431260515,1.7296515103494));
#205=CARTESIAN_POINT('',(18.7045232365317,-0.706485439738554,1.89864305553488));
#206=CARTESIAN_POINT('',(18.997831023158,0.000211035544991973,2.05062439628041));
#207=CARTESIAN_POINT('',(18.7041526708363,0.705641297558586,1.89885935934346));
#208=CARTESIAN_POINT('',(18.9,0.,2.));
#209=CARTESIAN_POINT('',(0.,0.,0.));
#210=CARTESIAN_POINT('',(25.,2.,0.));
#211=CARTESIAN_POINT('',(25.,0.,0.));
#212=CARTESIAN_POINT('',(25.,0.,-1.75));
#213=CARTESIAN_POINT('',(18.,0.,2.));
#214=CARTESIAN_POINT('',(18.,0.,1.1));
#215=CARTESIAN_POINT('',(18.9,0.,1.1));
#216=CARTESIAN_POINT('',(18.,0.,1.1));
#217=CARTESIAN_POINT('',(35.,0.,0.));
#218=CARTESIAN_POINT('',(35.,0.,0.));
#219=CARTESIAN_POINT('',(35.,0.,-1.75));
#220=CARTESIAN_POINT('',(35.,1.75,0.));
#221=CARTESIAN_POINT('',(0.,0.,0.));
#222=MECHANICAL_DESIGN_GEOMETRIC_PRESENTATION_REPRESENTATION('',(#85,#86,
#87,#88,#89,#90,#91),#223);
#223=(
GEOMETRIC_REPRESENTATION_CONTEXT(3)
GLOBAL_UNCERTAINTY_ASSIGNED_CONTEXT((#225))
GLOBAL_UNIT_ASSIGNED_CONTEXT((#229,#228,#227))
REPRESENTATION_CONTEXT('150362 SIEN-4B-PS-K-L---(0_0)',
'TOP_LEVEL_ASSEMBLY_PART')
);
#224=(
GEOMETRIC_REPRESENTATION_CONTEXT(3)
GLOBAL_UNCERTAINTY_ASSIGNED_CONTEXT((#226))
GLOBAL_UNIT_ASSIGNED_CONTEXT((#229,#228,#227))
REPRESENTATION_CONTEXT('150362 SIEN-4B-PS-K-Lp---(0_0)',
'COMPONENT_PART')
);
#225=UNCERTAINTY_MEASURE_WITH_UNIT(LENGTH_MEASURE(0.005),#229,
'DISTANCE_ACCURACY_VALUE','Maximum Tolerance applied to model');
#226=UNCERTAINTY_MEASURE_WITH_UNIT(LENGTH_MEASURE(0.005),#229,
'DISTANCE_ACCURACY_VALUE','Maximum Tolerance applied to model');
#227=(
NAMED_UNIT(*)
SI_UNIT($,.STERADIAN.)
SOLID_ANGLE_UNIT()
);
#228=(
NAMED_UNIT(*)
PLANE_ANGLE_UNIT()
SI_UNIT($,.RADIAN.)
);
#229=(
LENGTH_UNIT()
NAMED_UNIT(*)
SI_UNIT(.MILLI.,.METRE.)
);
#230=PRODUCT_DEFINITION_SHAPE('','',#233);
#231=PRODUCT_DEFINITION_SHAPE('','',#234);
#232=PRODUCT_DEFINITION_SHAPE(' ','NAUO PRDDFN',#19);
#233=PRODUCT_DEFINITION('','',#237,#235);
#234=PRODUCT_DEFINITION('','',#238,#236);
#235=PRODUCT_DEFINITION_CONTEXT('',#248,'design');
#236=PRODUCT_DEFINITION_CONTEXT('',#248,'design');
#237=PRODUCT_DEFINITION_FORMATION_WITH_SPECIFIED_SOURCE('','',#241,
 .NOT_KNOWN.);
#238=PRODUCT_DEFINITION_FORMATION_WITH_SPECIFIED_SOURCE('','',#242,
 .NOT_KNOWN.);
#239=PRODUCT_RELATED_PRODUCT_CATEGORY('','',(#241));
#240=PRODUCT_RELATED_PRODUCT_CATEGORY('','',(#242));
#241=PRODUCT('150362 SIEN-4B-PS-K-L---(0_0)',
'150362 SIEN-4B-PS-K-L---(0_0)','150362 SIEN-4B-PS-K-L---(0_0)',(#245));
#242=PRODUCT('150362 SIEN-4B-PS-K-Lp---(0_0)',
'150362 SIEN-4B-PS-K-Lp---(0_0)','150362 SIEN-4B-PS-K-Lp---(0_0)',(#246));
#243=PRODUCT_CATEGORY('','');
#244=PRODUCT_CATEGORY('','');
#245=PRODUCT_CONTEXT('',#248,'mechanical');
#246=PRODUCT_CONTEXT('',#248,'mechanical');
#247=APPLICATION_PROTOCOL_DEFINITION('international standard',
'automotive_design',2010,#248);
#248=APPLICATION_CONTEXT(
'core data for automotive mechanical design processes');
ENDSEC;
END-ISO-10303-21;
