ISO-10303-21;
HEADER;
/* Generated by software containing ST-Developer
 * from STEP Tools, Inc. (www.steptools.com) 
 */
/* OPTION: using custom renumber hook */

FILE_DESCRIPTION(
/* description */ ('STEP AP214'),
/* implementation_level */ '2;1');

FILE_NAME(
/* name */ '150365_SIEN-4B-NO-S-L',
/* time_stamp */ '2024-09-15T05:18:21+02:00',
/* author */ ('License CC BY-ND 4.0'),
/* organization */ ('CADENAS'),
/* preprocessor_version */ 'ST-DEVELOPER v19.3',
/* originating_system */ 'PARTsolutions',
/* authorisation */ '  ');

FILE_SCHEMA (('AUTOMOTIVE_DESIGN {1 0 10303 214 3 1 1}'));
ENDSEC;

DATA;
#10=PROPERTY_DEFINITION_REPRESENTATION(#14,#12);
#11=PROPERTY_DEFINITION_REPRESENTATION(#15,#13);
#12=REPRESENTATION('',(#16),#500);
#13=REPRESENTATION('',(#17),#500);
#14=PROPERTY_DEFINITION('pmi validation property','',#507);
#15=PROPERTY_DEFINITION('pmi validation property','',#507);
#16=VALUE_REPRESENTATION_ITEM('number of annotations',COUNT_MEASURE(0.));
#17=VALUE_REPRESENTATION_ITEM('number of views',COUNT_MEASURE(0.));
#18=CONTEXT_DEPENDENT_SHAPE_REPRESENTATION(#20,#509);
#19=NEXT_ASSEMBLY_USAGE_OCCURRENCE('NAUO1',
'150365 SIEN-4B-NO-S-Lp---(0_0)','150365 SIEN-4B-NO-S-Lp---(0_0)',#510,
#511,'');
#20=(
REPRESENTATION_RELATIONSHIP(' ',' ',#281,#280)
REPRESENTATION_RELATIONSHIP_WITH_TRANSFORMATION(#21)
SHAPE_REPRESENTATION_RELATIONSHIP()
);
#21=ITEM_DEFINED_TRANSFORMATION(' ',' ',#282,#327);
#22=SHAPE_REPRESENTATION_RELATIONSHIP('','',#281,#23);
#23=ADVANCED_BREP_SHAPE_REPRESENTATION('',(#277),#501);
#24=TOROIDAL_SURFACE('',#301,3.88192142778797,0.050000000000002);
#25=CONICAL_SURFACE('',#287,2.,0.436332312998581);
#26=CONICAL_SURFACE('',#291,3.25,1.24791041517594);
#27=CONICAL_SURFACE('',#295,4.,1.24791041517594);
#28=CONICAL_SURFACE('',#299,3.25,1.0733774899765);
#29=CONICAL_SURFACE('',#303,3.90577936580095,1.07337748997653);
#30=PLANE('',#286);
#31=PLANE('',#307);
#32=PLANE('',#313);
#33=PLANE('',#323);
#34=PLANE('',#324);
#35=PLANE('',#325);
#36=PLANE('',#326);
#37=B_SPLINE_CURVE_WITH_KNOTS('',3,(#424,#425,#426,#427,#428,#429,#430,
#431,#432,#433,#434),.UNSPECIFIED.,.T.,.F.,(1,1,1,1,1,1,1,1,1,1,1,1,1,1,
1),(-0.00117694699298851,-0.000784631328659005,-0.000392315664329503,0.,
0.000392315664329503,0.000784631328659005,0.00117694699298851,0.00156926265731801,
0.00196157832164751,0.00235389398597702,0.00274620965030652,0.00313852531463602,
0.00353084097896552,0.00392315664329503,0.00431547230762453),
 .UNSPECIFIED.);
#38=ORIENTED_EDGE('',*,*,#82,.F.);
#39=ORIENTED_EDGE('',*,*,#83,.F.);
#40=ORIENTED_EDGE('',*,*,#84,.T.);
#41=ORIENTED_EDGE('',*,*,#84,.F.);
#42=ORIENTED_EDGE('',*,*,#85,.F.);
#43=ORIENTED_EDGE('',*,*,#82,.T.);
#44=ORIENTED_EDGE('',*,*,#86,.F.);
#45=ORIENTED_EDGE('',*,*,#85,.T.);
#46=ORIENTED_EDGE('',*,*,#87,.F.);
#47=ORIENTED_EDGE('',*,*,#86,.T.);
#48=ORIENTED_EDGE('',*,*,#88,.F.);
#49=ORIENTED_EDGE('',*,*,#87,.T.);
#50=ORIENTED_EDGE('',*,*,#89,.F.);
#51=ORIENTED_EDGE('',*,*,#88,.T.);
#52=ORIENTED_EDGE('',*,*,#90,.F.);
#53=ORIENTED_EDGE('',*,*,#89,.T.);
#54=ORIENTED_EDGE('',*,*,#91,.F.);
#55=ORIENTED_EDGE('',*,*,#90,.T.);
#56=ORIENTED_EDGE('',*,*,#91,.T.);
#57=ORIENTED_EDGE('',*,*,#92,.F.);
#58=ORIENTED_EDGE('',*,*,#93,.F.);
#59=ORIENTED_EDGE('',*,*,#92,.T.);
#60=ORIENTED_EDGE('',*,*,#94,.F.);
#61=ORIENTED_EDGE('',*,*,#93,.T.);
#62=ORIENTED_EDGE('',*,*,#95,.F.);
#63=ORIENTED_EDGE('',*,*,#94,.T.);
#64=ORIENTED_EDGE('',*,*,#95,.T.);
#65=ORIENTED_EDGE('',*,*,#96,.F.);
#66=ORIENTED_EDGE('',*,*,#97,.T.);
#67=ORIENTED_EDGE('',*,*,#83,.T.);
#68=ORIENTED_EDGE('',*,*,#97,.F.);
#69=ORIENTED_EDGE('',*,*,#98,.T.);
#70=ORIENTED_EDGE('',*,*,#99,.F.);
#71=ORIENTED_EDGE('',*,*,#100,.T.);
#72=ORIENTED_EDGE('',*,*,#101,.F.);
#73=ORIENTED_EDGE('',*,*,#102,.T.);
#74=ORIENTED_EDGE('',*,*,#103,.F.);
#75=ORIENTED_EDGE('',*,*,#102,.F.);
#76=ORIENTED_EDGE('',*,*,#100,.F.);
#77=ORIENTED_EDGE('',*,*,#98,.F.);
#78=ORIENTED_EDGE('',*,*,#96,.T.);
#79=ORIENTED_EDGE('',*,*,#103,.T.);
#80=ORIENTED_EDGE('',*,*,#101,.T.);
#81=ORIENTED_EDGE('',*,*,#99,.T.);
#82=EDGE_CURVE('',#104,#104,#126,.T.);
#83=EDGE_CURVE('',#105,#105,#37,.T.);
#84=EDGE_CURVE('',#106,#106,#127,.T.);
#85=EDGE_CURVE('',#107,#107,#128,.T.);
#86=EDGE_CURVE('',#108,#108,#129,.T.);
#87=EDGE_CURVE('',#109,#109,#130,.T.);
#88=EDGE_CURVE('',#110,#110,#131,.T.);
#89=EDGE_CURVE('',#111,#111,#132,.T.);
#90=EDGE_CURVE('',#112,#112,#133,.T.);
#91=EDGE_CURVE('',#113,#113,#134,.T.);
#92=EDGE_CURVE('',#114,#114,#135,.T.);
#93=EDGE_CURVE('',#115,#115,#136,.T.);
#94=EDGE_CURVE('',#116,#116,#137,.T.);
#95=EDGE_CURVE('',#117,#117,#138,.T.);
#96=EDGE_CURVE('',#118,#118,#139,.T.);
#97=EDGE_CURVE('',#119,#119,#140,.T.);
#98=EDGE_CURVE('',#120,#120,#141,.T.);
#99=EDGE_CURVE('',#121,#121,#142,.T.);
#100=EDGE_CURVE('',#122,#122,#143,.T.);
#101=EDGE_CURVE('',#123,#123,#144,.T.);
#102=EDGE_CURVE('',#124,#124,#145,.T.);
#103=EDGE_CURVE('',#125,#125,#146,.T.);
#104=VERTEX_POINT('',#423);
#105=VERTEX_POINT('',#435);
#106=VERTEX_POINT('',#437);
#107=VERTEX_POINT('',#441);
#108=VERTEX_POINT('',#444);
#109=VERTEX_POINT('',#447);
#110=VERTEX_POINT('',#450);
#111=VERTEX_POINT('',#453);
#112=VERTEX_POINT('',#456);
#113=VERTEX_POINT('',#459);
#114=VERTEX_POINT('',#462);
#115=VERTEX_POINT('',#465);
#116=VERTEX_POINT('',#468);
#117=VERTEX_POINT('',#471);
#118=VERTEX_POINT('',#474);
#119=VERTEX_POINT('',#477);
#120=VERTEX_POINT('',#481);
#121=VERTEX_POINT('',#483);
#122=VERTEX_POINT('',#486);
#123=VERTEX_POINT('',#488);
#124=VERTEX_POINT('',#491);
#125=VERTEX_POINT('',#493);
#126=CIRCLE('',#284,2.);
#127=CIRCLE('',#285,2.);
#128=CIRCLE('',#288,3.25);
#129=CIRCLE('',#290,3.25);
#130=CIRCLE('',#292,4.);
#131=CIRCLE('',#294,4.);
#132=CIRCLE('',#296,3.25);
#133=CIRCLE('',#298,3.25);
#134=CIRCLE('',#300,3.90577936580095);
#135=CIRCLE('',#302,3.90577936580095);
#136=CIRCLE('',#304,3.25);
#137=CIRCLE('',#306,3.25);
#138=CIRCLE('',#308,2.9);
#139=CIRCLE('',#310,2.9);
#140=CIRCLE('',#312,0.499999999999997);
#141=CIRCLE('',#315,0.5);
#142=CIRCLE('',#316,0.5);
#143=CIRCLE('',#318,0.5);
#144=CIRCLE('',#319,0.5);
#145=CIRCLE('',#321,0.5);
#146=CIRCLE('',#322,0.5);
#147=EDGE_LOOP('',(#38));
#148=EDGE_LOOP('',(#39));
#149=EDGE_LOOP('',(#40));
#150=EDGE_LOOP('',(#41));
#151=EDGE_LOOP('',(#42));
#152=EDGE_LOOP('',(#43));
#153=EDGE_LOOP('',(#44));
#154=EDGE_LOOP('',(#45));
#155=EDGE_LOOP('',(#46));
#156=EDGE_LOOP('',(#47));
#157=EDGE_LOOP('',(#48));
#158=EDGE_LOOP('',(#49));
#159=EDGE_LOOP('',(#50));
#160=EDGE_LOOP('',(#51));
#161=EDGE_LOOP('',(#52));
#162=EDGE_LOOP('',(#53));
#163=EDGE_LOOP('',(#54));
#164=EDGE_LOOP('',(#55));
#165=EDGE_LOOP('',(#56));
#166=EDGE_LOOP('',(#57));
#167=EDGE_LOOP('',(#58));
#168=EDGE_LOOP('',(#59));
#169=EDGE_LOOP('',(#60));
#170=EDGE_LOOP('',(#61));
#171=EDGE_LOOP('',(#62));
#172=EDGE_LOOP('',(#63));
#173=EDGE_LOOP('',(#64));
#174=EDGE_LOOP('',(#65));
#175=EDGE_LOOP('',(#66));
#176=EDGE_LOOP('',(#67));
#177=EDGE_LOOP('',(#68));
#178=EDGE_LOOP('',(#69));
#179=EDGE_LOOP('',(#70));
#180=EDGE_LOOP('',(#71));
#181=EDGE_LOOP('',(#72));
#182=EDGE_LOOP('',(#73));
#183=EDGE_LOOP('',(#74));
#184=EDGE_LOOP('',(#75));
#185=EDGE_LOOP('',(#76));
#186=EDGE_LOOP('',(#77));
#187=EDGE_LOOP('',(#78));
#188=EDGE_LOOP('',(#79));
#189=EDGE_LOOP('',(#80));
#190=EDGE_LOOP('',(#81));
#191=FACE_BOUND('',#147,.T.);
#192=FACE_BOUND('',#148,.T.);
#193=FACE_BOUND('',#149,.T.);
#194=FACE_BOUND('',#150,.T.);
#195=FACE_BOUND('',#151,.T.);
#196=FACE_BOUND('',#152,.T.);
#197=FACE_BOUND('',#153,.T.);
#198=FACE_BOUND('',#154,.T.);
#199=FACE_BOUND('',#155,.T.);
#200=FACE_BOUND('',#156,.T.);
#201=FACE_BOUND('',#157,.T.);
#202=FACE_BOUND('',#158,.T.);
#203=FACE_BOUND('',#159,.T.);
#204=FACE_BOUND('',#160,.T.);
#205=FACE_BOUND('',#161,.T.);
#206=FACE_BOUND('',#162,.T.);
#207=FACE_BOUND('',#163,.T.);
#208=FACE_BOUND('',#164,.T.);
#209=FACE_BOUND('',#165,.T.);
#210=FACE_BOUND('',#166,.T.);
#211=FACE_BOUND('',#167,.T.);
#212=FACE_BOUND('',#168,.T.);
#213=FACE_BOUND('',#169,.T.);
#214=FACE_BOUND('',#170,.T.);
#215=FACE_BOUND('',#171,.T.);
#216=FACE_BOUND('',#172,.T.);
#217=FACE_BOUND('',#173,.T.);
#218=FACE_BOUND('',#174,.T.);
#219=FACE_BOUND('',#175,.T.);
#220=FACE_BOUND('',#176,.T.);
#221=FACE_BOUND('',#177,.T.);
#222=FACE_BOUND('',#178,.T.);
#223=FACE_BOUND('',#179,.T.);
#224=FACE_BOUND('',#180,.T.);
#225=FACE_BOUND('',#181,.T.);
#226=FACE_BOUND('',#182,.T.);
#227=FACE_BOUND('',#183,.T.);
#228=FACE_BOUND('',#184,.T.);
#229=FACE_BOUND('',#185,.T.);
#230=FACE_BOUND('',#186,.T.);
#231=FACE_BOUND('',#187,.T.);
#232=FACE_BOUND('',#188,.T.);
#233=FACE_BOUND('',#189,.T.);
#234=FACE_BOUND('',#190,.T.);
#235=CYLINDRICAL_SURFACE('',#283,2.);
#236=CYLINDRICAL_SURFACE('',#289,3.25);
#237=CYLINDRICAL_SURFACE('',#293,4.);
#238=CYLINDRICAL_SURFACE('',#297,3.25);
#239=CYLINDRICAL_SURFACE('',#305,3.25);
#240=CYLINDRICAL_SURFACE('',#309,2.9);
#241=CYLINDRICAL_SURFACE('',#311,0.499999999999997);
#242=CYLINDRICAL_SURFACE('',#314,0.5);
#243=CYLINDRICAL_SURFACE('',#317,0.5);
#244=CYLINDRICAL_SURFACE('',#320,0.5);
#245=ADVANCED_FACE('',(#191,#192,#193),#235,.T.);
#246=ADVANCED_FACE('',(#194),#30,.F.);
#247=ADVANCED_FACE('',(#195,#196),#25,.T.);
#248=ADVANCED_FACE('',(#197,#198),#236,.T.);
#249=ADVANCED_FACE('',(#199,#200),#26,.T.);
#250=ADVANCED_FACE('',(#201,#202),#237,.T.);
#251=ADVANCED_FACE('',(#203,#204),#27,.T.);
#252=ADVANCED_FACE('',(#205,#206),#238,.T.);
#253=ADVANCED_FACE('',(#207,#208),#28,.T.);
#254=ADVANCED_FACE('',(#209,#210),#24,.T.);
#255=ADVANCED_FACE('',(#211,#212),#29,.T.);
#256=ADVANCED_FACE('',(#213,#214),#239,.T.);
#257=ADVANCED_FACE('',(#215,#216),#31,.F.);
#258=ADVANCED_FACE('',(#217,#218),#240,.F.);
#259=ADVANCED_FACE('',(#219,#220),#241,.F.);
#260=ADVANCED_FACE('',(#221),#32,.T.);
#261=ADVANCED_FACE('',(#222,#223),#242,.T.);
#262=ADVANCED_FACE('',(#224,#225),#243,.T.);
#263=ADVANCED_FACE('',(#226,#227),#244,.T.);
#264=ADVANCED_FACE('',(#228,#229,#230,#231),#33,.T.);
#265=ADVANCED_FACE('',(#232),#34,.F.);
#266=ADVANCED_FACE('',(#233),#35,.F.);
#267=ADVANCED_FACE('',(#234),#36,.F.);
#268=CLOSED_SHELL('',(#245,#246,#247,#248,#249,#250,#251,#252,#253,#254,
#255,#256,#257,#258,#259,#260,#261,#262,#263,#264,#265,#266,#267));
#269=STYLED_ITEM('',(#270),#277);
#270=PRESENTATION_STYLE_ASSIGNMENT((#271));
#271=SURFACE_STYLE_USAGE(.BOTH.,#272);
#272=SURFACE_SIDE_STYLE('',(#273));
#273=SURFACE_STYLE_FILL_AREA(#274);
#274=FILL_AREA_STYLE('',(#275));
#275=FILL_AREA_STYLE_COLOUR('',#276);
#276=COLOUR_RGB('',0.689999997615814,0.689999997615814,0.689999997615814);
#277=MANIFOLD_SOLID_BREP('150365 SIEN-4B-NO-S-Lp---(0_0)',#268);
#278=SHAPE_DEFINITION_REPRESENTATION(#507,#280);
#279=SHAPE_DEFINITION_REPRESENTATION(#508,#281);
#280=SHAPE_REPRESENTATION('150365 SIEN-4B-NO-S-L---(0_0)',(#282,#327),#500);
#281=SHAPE_REPRESENTATION('150365 SIEN-4B-NO-S-Lp---(0_0)',(#282),#501);
#282=AXIS2_PLACEMENT_3D('',#420,#328,#329);
#283=AXIS2_PLACEMENT_3D('',#421,#330,#331);
#284=AXIS2_PLACEMENT_3D('',#422,#332,#333);
#285=AXIS2_PLACEMENT_3D('',#436,#334,#335);
#286=AXIS2_PLACEMENT_3D('',#438,#336,#337);
#287=AXIS2_PLACEMENT_3D('',#439,#338,#339);
#288=AXIS2_PLACEMENT_3D('',#440,#340,#341);
#289=AXIS2_PLACEMENT_3D('',#442,#342,#343);
#290=AXIS2_PLACEMENT_3D('',#443,#344,#345);
#291=AXIS2_PLACEMENT_3D('',#445,#346,#347);
#292=AXIS2_PLACEMENT_3D('',#446,#348,#349);
#293=AXIS2_PLACEMENT_3D('',#448,#350,#351);
#294=AXIS2_PLACEMENT_3D('',#449,#352,#353);
#295=AXIS2_PLACEMENT_3D('',#451,#354,#355);
#296=AXIS2_PLACEMENT_3D('',#452,#356,#357);
#297=AXIS2_PLACEMENT_3D('',#454,#358,#359);
#298=AXIS2_PLACEMENT_3D('',#455,#360,#361);
#299=AXIS2_PLACEMENT_3D('',#457,#362,#363);
#300=AXIS2_PLACEMENT_3D('',#458,#364,#365);
#301=AXIS2_PLACEMENT_3D('',#460,#366,#367);
#302=AXIS2_PLACEMENT_3D('',#461,#368,#369);
#303=AXIS2_PLACEMENT_3D('',#463,#370,#371);
#304=AXIS2_PLACEMENT_3D('',#464,#372,#373);
#305=AXIS2_PLACEMENT_3D('',#466,#374,#375);
#306=AXIS2_PLACEMENT_3D('',#467,#376,#377);
#307=AXIS2_PLACEMENT_3D('',#469,#378,#379);
#308=AXIS2_PLACEMENT_3D('',#470,#380,#381);
#309=AXIS2_PLACEMENT_3D('',#472,#382,#383);
#310=AXIS2_PLACEMENT_3D('',#473,#384,#385);
#311=AXIS2_PLACEMENT_3D('',#475,#386,#387);
#312=AXIS2_PLACEMENT_3D('',#476,#388,#389);
#313=AXIS2_PLACEMENT_3D('',#478,#390,#391);
#314=AXIS2_PLACEMENT_3D('',#479,#392,#393);
#315=AXIS2_PLACEMENT_3D('',#480,#394,#395);
#316=AXIS2_PLACEMENT_3D('',#482,#396,#397);
#317=AXIS2_PLACEMENT_3D('',#484,#398,#399);
#318=AXIS2_PLACEMENT_3D('',#485,#400,#401);
#319=AXIS2_PLACEMENT_3D('',#487,#402,#403);
#320=AXIS2_PLACEMENT_3D('',#489,#404,#405);
#321=AXIS2_PLACEMENT_3D('',#490,#406,#407);
#322=AXIS2_PLACEMENT_3D('',#492,#408,#409);
#323=AXIS2_PLACEMENT_3D('',#494,#410,#411);
#324=AXIS2_PLACEMENT_3D('',#495,#412,#413);
#325=AXIS2_PLACEMENT_3D('',#496,#414,#415);
#326=AXIS2_PLACEMENT_3D('',#497,#416,#417);
#327=AXIS2_PLACEMENT_3D('',#498,#418,#419);
#328=DIRECTION('',(0.,0.,1.));
#329=DIRECTION('',(1.,0.,0.));
#330=DIRECTION('',(1.,0.,0.));
#331=DIRECTION('',(0.,0.,-1.));
#332=DIRECTION('',(1.,0.,0.));
#333=DIRECTION('',(0.,0.,-1.));
#334=DIRECTION('',(1.,0.,0.));
#335=DIRECTION('',(0.,0.,-1.));
#336=DIRECTION('',(1.,0.,0.));
#337=DIRECTION('',(0.,0.,-1.));
#338=DIRECTION('',(1.,0.,0.));
#339=DIRECTION('',(0.,0.,-1.));
#340=DIRECTION('',(1.,0.,0.));
#341=DIRECTION('',(0.,0.,-1.));
#342=DIRECTION('',(1.,0.,0.));
#343=DIRECTION('',(0.,0.,-1.));
#344=DIRECTION('',(1.,0.,0.));
#345=DIRECTION('',(0.,0.,-1.));
#346=DIRECTION('',(1.,0.,0.));
#347=DIRECTION('',(0.,0.,-1.));
#348=DIRECTION('',(1.,0.,0.));
#349=DIRECTION('',(0.,0.,-1.));
#350=DIRECTION('',(1.,0.,0.));
#351=DIRECTION('',(0.,0.,-1.));
#352=DIRECTION('',(1.,0.,0.));
#353=DIRECTION('',(0.,0.,-1.));
#354=DIRECTION('',(-1.,0.,0.));
#355=DIRECTION('',(0.,0.,1.));
#356=DIRECTION('',(1.,0.,0.));
#357=DIRECTION('',(0.,0.,-1.));
#358=DIRECTION('',(1.,0.,0.));
#359=DIRECTION('',(0.,0.,-1.));
#360=DIRECTION('',(1.,0.,0.));
#361=DIRECTION('',(0.,0.,-1.));
#362=DIRECTION('',(1.,0.,0.));
#363=DIRECTION('',(0.,0.,-1.));
#364=DIRECTION('',(1.,0.,0.));
#365=DIRECTION('',(0.,0.,-1.));
#366=DIRECTION('',(1.,0.,0.));
#367=DIRECTION('',(0.,0.,-1.));
#368=DIRECTION('',(1.,0.,0.));
#369=DIRECTION('',(0.,0.,-1.));
#370=DIRECTION('',(-1.,0.,0.));
#371=DIRECTION('',(0.,0.,1.));
#372=DIRECTION('',(1.,0.,0.));
#373=DIRECTION('',(0.,0.,-1.));
#374=DIRECTION('',(1.,0.,0.));
#375=DIRECTION('',(0.,0.,-1.));
#376=DIRECTION('',(1.,0.,0.));
#377=DIRECTION('',(0.,0.,-1.));
#378=DIRECTION('',(-1.,0.,0.));
#379=DIRECTION('',(0.,0.,1.));
#380=DIRECTION('',(1.,0.,0.));
#381=DIRECTION('',(0.,0.,-1.));
#382=DIRECTION('',(1.,0.,0.));
#383=DIRECTION('',(0.,0.,-1.));
#384=DIRECTION('',(1.,0.,0.));
#385=DIRECTION('',(0.,0.,-1.));
#386=DIRECTION('',(0.,-1.,0.));
#387=DIRECTION('',(0.,0.,-1.));
#388=DIRECTION('',(0.,-1.,0.));
#389=DIRECTION('',(0.,0.,-1.));
#390=DIRECTION('',(0.,1.,0.));
#391=DIRECTION('',(0.,0.,1.));
#392=DIRECTION('',(1.,0.,0.));
#393=DIRECTION('',(0.,0.,-1.));
#394=DIRECTION('',(1.,0.,0.));
#395=DIRECTION('',(0.,0.,-1.));
#396=DIRECTION('',(1.,0.,0.));
#397=DIRECTION('',(0.,0.,-1.));
#398=DIRECTION('',(1.,0.,0.));
#399=DIRECTION('',(0.,0.,-1.));
#400=DIRECTION('',(1.,0.,0.));
#401=DIRECTION('',(0.,0.,-1.));
#402=DIRECTION('',(1.,0.,0.));
#403=DIRECTION('',(0.,0.,-1.));
#404=DIRECTION('',(1.,0.,0.));
#405=DIRECTION('',(0.,0.,-1.));
#406=DIRECTION('',(1.,0.,0.));
#407=DIRECTION('',(0.,0.,-1.));
#408=DIRECTION('',(1.,0.,0.));
#409=DIRECTION('',(0.,0.,-1.));
#410=DIRECTION('',(1.,0.,0.));
#411=DIRECTION('',(0.,0.,-1.));
#412=DIRECTION('',(-1.,0.,0.));
#413=DIRECTION('',(0.,0.,1.));
#414=DIRECTION('',(-1.,0.,0.));
#415=DIRECTION('',(0.,0.,1.));
#416=DIRECTION('',(-1.,0.,0.));
#417=DIRECTION('',(0.,0.,1.));
#418=DIRECTION('',(-1.,0.,0.));
#419=DIRECTION('',(0.,0.,-1.));
#420=CARTESIAN_POINT('',(0.,0.,0.));
#421=CARTESIAN_POINT('',(37.5,0.,0.));
#422=CARTESIAN_POINT('',(21.,0.,0.));
#423=CARTESIAN_POINT('',(21.,0.,-2.));
#424=CARTESIAN_POINT('',(18.3914632580304,1.96868788488913,0.392185321827654));
#425=CARTESIAN_POINT('',(18.5542548680398,2.01564529852145,-7.15821941491183E-5));
#426=CARTESIAN_POINT('',(18.3915172698103,1.96873092102509,-0.391898993051057));
#427=CARTESIAN_POINT('',(18.0005754769115,1.92036723630427,-0.554073625024866));
#428=CARTESIAN_POINT('',(17.6080742337242,1.96875032665417,-0.391805909348416));
#429=CARTESIAN_POINT('',(17.4460219671217,2.01560470468802,-0.000237781898520935));
#430=CARTESIAN_POINT('',(17.6078381663202,1.9688307874609,0.39148771111725));
#431=CARTESIAN_POINT('',(17.9997804776802,1.92035786831183,0.554081638185753));
#432=CARTESIAN_POINT('',(18.3914632580304,1.96868788488913,0.392185321827654));
#433=CARTESIAN_POINT('',(18.5542548680398,2.01564529852145,-7.15821941491183E-5));
#434=CARTESIAN_POINT('',(18.3915172698103,1.96873092102509,-0.391898993051057));
#435=CARTESIAN_POINT('',(18.5,2.,0.));
#436=CARTESIAN_POINT('',(0.,0.,0.));
#437=CARTESIAN_POINT('',(0.,0.,-2.));
#438=CARTESIAN_POINT('',(0.,0.,0.));
#439=CARTESIAN_POINT('',(21.,0.,0.));
#440=CARTESIAN_POINT('',(23.680633650637,0.,0.));
#441=CARTESIAN_POINT('',(23.680633650637,0.,-3.25));
#442=CARTESIAN_POINT('',(37.5,0.,0.));
#443=CARTESIAN_POINT('',(32.,0.,0.));
#444=CARTESIAN_POINT('',(32.,0.,-3.25));
#445=CARTESIAN_POINT('',(32.,0.,0.));
#446=CARTESIAN_POINT('',(32.2509464896266,0.,0.));
#447=CARTESIAN_POINT('',(32.2509464896266,0.,-4.));
#448=CARTESIAN_POINT('',(37.5,0.,0.));
#449=CARTESIAN_POINT('',(34.7490535103735,0.,0.));
#450=CARTESIAN_POINT('',(34.7490535103735,0.,-4.));
#451=CARTESIAN_POINT('',(34.7490535103735,0.,0.));
#452=CARTESIAN_POINT('',(35.,0.,0.));
#453=CARTESIAN_POINT('',(35.,0.,-3.25));
#454=CARTESIAN_POINT('',(37.5,0.,0.));
#455=CARTESIAN_POINT('',(35.85,0.,0.));
#456=CARTESIAN_POINT('',(35.85,0.,-3.25));
#457=CARTESIAN_POINT('',(35.85,0.,0.));
#458=CARTESIAN_POINT('',(36.2060591443669,0.,0.));
#459=CARTESIAN_POINT('',(36.2060591443669,0.,-3.90577936580095));
#460=CARTESIAN_POINT('',(36.25,0.,0.));
#461=CARTESIAN_POINT('',(36.2939408556331,0.,0.));
#462=CARTESIAN_POINT('',(36.2939408556331,0.,-3.90577936580095));
#463=CARTESIAN_POINT('',(36.2939408556331,0.,0.));
#464=CARTESIAN_POINT('',(36.65,0.,0.));
#465=CARTESIAN_POINT('',(36.65,0.,-3.25));
#466=CARTESIAN_POINT('',(37.5,0.,0.));
#467=CARTESIAN_POINT('',(38.,0.,0.));
#468=CARTESIAN_POINT('',(38.,0.,-3.25));
#469=CARTESIAN_POINT('',(38.,3.25,0.));
#470=CARTESIAN_POINT('',(38.,0.,0.));
#471=CARTESIAN_POINT('',(38.,0.,-2.9));
#472=CARTESIAN_POINT('',(37.5,0.,0.));
#473=CARTESIAN_POINT('',(33.,0.,0.));
#474=CARTESIAN_POINT('',(33.,0.,-2.9));
#475=CARTESIAN_POINT('',(18.,0.,0.));
#476=CARTESIAN_POINT('',(18.,0.,0.));
#477=CARTESIAN_POINT('',(18.,0.,-0.499999999999997));
#478=CARTESIAN_POINT('',(18.5,0.,0.));
#479=CARTESIAN_POINT('',(33.,0.,-1.75));
#480=CARTESIAN_POINT('',(33.,0.,-1.75));
#481=CARTESIAN_POINT('',(33.,0.,-2.25));
#482=CARTESIAN_POINT('',(37.5,0.,-1.75));
#483=CARTESIAN_POINT('',(37.5,0.,-2.25));
#484=CARTESIAN_POINT('',(33.,-1.75,0.));
#485=CARTESIAN_POINT('',(33.,-1.75,0.));
#486=CARTESIAN_POINT('',(33.,-1.75,-0.5));
#487=CARTESIAN_POINT('',(37.5,-1.75,0.));
#488=CARTESIAN_POINT('',(37.5,-1.75,-0.5));
#489=CARTESIAN_POINT('',(33.,0.,1.75));
#490=CARTESIAN_POINT('',(33.,0.,1.75));
#491=CARTESIAN_POINT('',(33.,0.,1.25));
#492=CARTESIAN_POINT('',(37.5,0.,1.75));
#493=CARTESIAN_POINT('',(37.5,0.,1.25));
#494=CARTESIAN_POINT('',(33.,0.,0.));
#495=CARTESIAN_POINT('',(37.5,2.9,0.));
#496=CARTESIAN_POINT('',(37.5,2.9,0.));
#497=CARTESIAN_POINT('',(37.5,2.9,0.));
#498=CARTESIAN_POINT('',(0.,0.,0.));
#499=MECHANICAL_DESIGN_GEOMETRIC_PRESENTATION_REPRESENTATION('',(#269),
#500);
#500=(
GEOMETRIC_REPRESENTATION_CONTEXT(3)
GLOBAL_UNCERTAINTY_ASSIGNED_CONTEXT((#502))
GLOBAL_UNIT_ASSIGNED_CONTEXT((#506,#505,#504))
REPRESENTATION_CONTEXT('150365 SIEN-4B-NO-S-L---(0_0)',
'TOP_LEVEL_ASSEMBLY_PART')
);
#501=(
GEOMETRIC_REPRESENTATION_CONTEXT(3)
GLOBAL_UNCERTAINTY_ASSIGNED_CONTEXT((#503))
GLOBAL_UNIT_ASSIGNED_CONTEXT((#506,#505,#504))
REPRESENTATION_CONTEXT('150365 SIEN-4B-NO-S-Lp---(0_0)',
'COMPONENT_PART')
);
#502=UNCERTAINTY_MEASURE_WITH_UNIT(LENGTH_MEASURE(0.005),#506,
'DISTANCE_ACCURACY_VALUE','Maximum Tolerance applied to model');
#503=UNCERTAINTY_MEASURE_WITH_UNIT(LENGTH_MEASURE(0.005),#506,
'DISTANCE_ACCURACY_VALUE','Maximum Tolerance applied to model');
#504=(
NAMED_UNIT(*)
SI_UNIT($,.STERADIAN.)
SOLID_ANGLE_UNIT()
);
#505=(
NAMED_UNIT(*)
PLANE_ANGLE_UNIT()
SI_UNIT($,.RADIAN.)
);
#506=(
LENGTH_UNIT()
NAMED_UNIT(*)
SI_UNIT(.MILLI.,.METRE.)
);
#507=PRODUCT_DEFINITION_SHAPE('','',#510);
#508=PRODUCT_DEFINITION_SHAPE('','',#511);
#509=PRODUCT_DEFINITION_SHAPE(' ','NAUO PRDDFN',#19);
#510=PRODUCT_DEFINITION('','',#514,#512);
#511=PRODUCT_DEFINITION('','',#515,#513);
#512=PRODUCT_DEFINITION_CONTEXT('',#525,'design');
#513=PRODUCT_DEFINITION_CONTEXT('',#525,'design');
#514=PRODUCT_DEFINITION_FORMATION_WITH_SPECIFIED_SOURCE('','',#518,
 .NOT_KNOWN.);
#515=PRODUCT_DEFINITION_FORMATION_WITH_SPECIFIED_SOURCE('','',#519,
 .NOT_KNOWN.);
#516=PRODUCT_RELATED_PRODUCT_CATEGORY('','',(#518));
#517=PRODUCT_RELATED_PRODUCT_CATEGORY('','',(#519));
#518=PRODUCT('150365 SIEN-4B-NO-S-L---(0_0)',
'150365 SIEN-4B-NO-S-L---(0_0)','150365 SIEN-4B-NO-S-L---(0_0)',(#522));
#519=PRODUCT('150365 SIEN-4B-NO-S-Lp---(0_0)',
'150365 SIEN-4B-NO-S-Lp---(0_0)','150365 SIEN-4B-NO-S-Lp---(0_0)',(#523));
#520=PRODUCT_CATEGORY('','');
#521=PRODUCT_CATEGORY('','');
#522=PRODUCT_CONTEXT('',#525,'mechanical');
#523=PRODUCT_CONTEXT('',#525,'mechanical');
#524=APPLICATION_PROTOCOL_DEFINITION('international standard',
'automotive_design',2010,#525);
#525=APPLICATION_CONTEXT(
'core data for automotive mechanical design processes');
ENDSEC;
END-ISO-10303-21;
