ISO-10303-21;
HEADER;
/* Generated by software containing ST-Developer
 * from STEP Tools, Inc. (www.steptools.com) 
 */
/* OPTION: using custom renumber hook */

FILE_DESCRIPTION(
/* description */ ('STEP AP214'),
/* implementation_level */ '2;1');

FILE_NAME(
/* name */ '150378_SIEN-65B-PS-K-L',
/* time_stamp */ '2024-09-15T05:22:42+02:00',
/* author */ ('License CC BY-ND 4.0'),
/* organization */ ('CADENAS'),
/* preprocessor_version */ 'ST-DEVELOPER v19.3',
/* originating_system */ 'PARTsolutions',
/* authorisation */ '  ');

FILE_SCHEMA (('AUTOMOTIVE_DESIGN {1 0 10303 214 3 1 1}'));
ENDSEC;

DATA;
#10=PROPERTY_DEFINITION_REPRESENTATION(#14,#12);
#11=PROPERTY_DEFINITION_REPRESENTATION(#15,#13);
#12=REPRESENTATION('',(#16),#162);
#13=REPRESENTATION('',(#17),#162);
#14=PROPERTY_DEFINITION('pmi validation property','',#169);
#15=PROPERTY_DEFINITION('pmi validation property','',#169);
#16=VALUE_REPRESENTATION_ITEM('number of annotations',COUNT_MEASURE(0.));
#17=VALUE_REPRESENTATION_ITEM('number of views',COUNT_MEASURE(0.));
#18=CONTEXT_DEPENDENT_SHAPE_REPRESENTATION(#20,#171);
#19=NEXT_ASSEMBLY_USAGE_OCCURRENCE('NAUO1',
'150378 SIEN-6,5B-PS-K-Lp---(0_0)','150378 SIEN-6,5B-PS-K-Lp---(0_0)',#172,
#173,'');
#20=(
REPRESENTATION_RELATIONSHIP(' ',' ',#112,#111)
REPRESENTATION_RELATIONSHIP_WITH_TRANSFORMATION(#21)
SHAPE_REPRESENTATION_RELATIONSHIP()
);
#21=ITEM_DEFINED_TRANSFORMATION(' ',' ',#113,#123);
#22=SHAPE_REPRESENTATION_RELATIONSHIP('','',#112,#23);
#23=ADVANCED_BREP_SHAPE_REPRESENTATION('',(#108),#163);
#24=CYLINDRICAL_SURFACE('',#116,3.25);
#25=CYLINDRICAL_SURFACE('',#120,1.75);
#26=ORIENTED_EDGE('',*,*,#34,.F.);
#27=ORIENTED_EDGE('',*,*,#35,.F.);
#28=ORIENTED_EDGE('',*,*,#34,.T.);
#29=ORIENTED_EDGE('',*,*,#36,.F.);
#30=ORIENTED_EDGE('',*,*,#35,.T.);
#31=ORIENTED_EDGE('',*,*,#37,.F.);
#32=ORIENTED_EDGE('',*,*,#36,.T.);
#33=ORIENTED_EDGE('',*,*,#37,.T.);
#34=EDGE_CURVE('',#38,#38,#42,.T.);
#35=EDGE_CURVE('',#39,#39,#43,.T.);
#36=EDGE_CURVE('',#40,#40,#44,.T.);
#37=EDGE_CURVE('',#41,#41,#45,.T.);
#38=VERTEX_POINT('',#149);
#39=VERTEX_POINT('',#152);
#40=VERTEX_POINT('',#155);
#41=VERTEX_POINT('',#158);
#42=CIRCLE('',#115,3.25);
#43=CIRCLE('',#117,3.25);
#44=CIRCLE('',#119,1.75);
#45=CIRCLE('',#121,1.75);
#46=EDGE_LOOP('',(#26));
#47=EDGE_LOOP('',(#27));
#48=EDGE_LOOP('',(#28));
#49=EDGE_LOOP('',(#29));
#50=EDGE_LOOP('',(#30));
#51=EDGE_LOOP('',(#31));
#52=EDGE_LOOP('',(#32));
#53=EDGE_LOOP('',(#33));
#54=FACE_BOUND('',#46,.T.);
#55=FACE_BOUND('',#47,.T.);
#56=FACE_BOUND('',#48,.T.);
#57=FACE_BOUND('',#49,.T.);
#58=FACE_BOUND('',#50,.T.);
#59=FACE_BOUND('',#51,.T.);
#60=FACE_BOUND('',#52,.T.);
#61=FACE_BOUND('',#53,.T.);
#62=PLANE('',#114);
#63=PLANE('',#118);
#64=PLANE('',#122);
#65=STYLED_ITEM('',(#70),#102);
#66=STYLED_ITEM('',(#71),#103);
#67=STYLED_ITEM('',(#72),#104);
#68=STYLED_ITEM('',(#73),#105);
#69=STYLED_ITEM('',(#74),#106);
#70=PRESENTATION_STYLE_ASSIGNMENT((#75));
#71=PRESENTATION_STYLE_ASSIGNMENT((#76));
#72=PRESENTATION_STYLE_ASSIGNMENT((#77));
#73=PRESENTATION_STYLE_ASSIGNMENT((#78));
#74=PRESENTATION_STYLE_ASSIGNMENT((#79));
#75=SURFACE_STYLE_USAGE(.BOTH.,#80);
#76=SURFACE_STYLE_USAGE(.BOTH.,#81);
#77=SURFACE_STYLE_USAGE(.BOTH.,#82);
#78=SURFACE_STYLE_USAGE(.BOTH.,#83);
#79=SURFACE_STYLE_USAGE(.BOTH.,#84);
#80=SURFACE_SIDE_STYLE('',(#85));
#81=SURFACE_SIDE_STYLE('',(#86));
#82=SURFACE_SIDE_STYLE('',(#87));
#83=SURFACE_SIDE_STYLE('',(#88));
#84=SURFACE_SIDE_STYLE('',(#89));
#85=SURFACE_STYLE_FILL_AREA(#90);
#86=SURFACE_STYLE_FILL_AREA(#91);
#87=SURFACE_STYLE_FILL_AREA(#92);
#88=SURFACE_STYLE_FILL_AREA(#93);
#89=SURFACE_STYLE_FILL_AREA(#94);
#90=FILL_AREA_STYLE('',(#95));
#91=FILL_AREA_STYLE('',(#96));
#92=FILL_AREA_STYLE('',(#97));
#93=FILL_AREA_STYLE('',(#98));
#94=FILL_AREA_STYLE('',(#99));
#95=FILL_AREA_STYLE_COLOUR('',#100);
#96=FILL_AREA_STYLE_COLOUR('',#100);
#97=FILL_AREA_STYLE_COLOUR('',#100);
#98=FILL_AREA_STYLE_COLOUR('',#101);
#99=FILL_AREA_STYLE_COLOUR('',#101);
#100=COLOUR_RGB('',0.689999997615814,0.689999997615814,0.689999997615814);
#101=COLOUR_RGB('',0.53700000047684,0.5799999833107,0.58799999952316);
#102=ADVANCED_FACE('',(#54),#62,.F.);
#103=ADVANCED_FACE('',(#55,#56),#24,.T.);
#104=ADVANCED_FACE('',(#57,#58),#63,.F.);
#105=ADVANCED_FACE('',(#59,#60),#25,.T.);
#106=ADVANCED_FACE('',(#61),#64,.F.);
#107=CLOSED_SHELL('',(#102,#103,#104,#105,#106));
#108=MANIFOLD_SOLID_BREP('150378 SIEN-6,5B-PS-K-Lp---(0_0)',#107);
#109=SHAPE_DEFINITION_REPRESENTATION(#169,#111);
#110=SHAPE_DEFINITION_REPRESENTATION(#170,#112);
#111=SHAPE_REPRESENTATION('150378 SIEN-6,5B-PS-K-L---(0_0)',(#113,#123),
#162);
#112=SHAPE_REPRESENTATION('150378 SIEN-6,5B-PS-K-Lp---(0_0)',(#113),#163);
#113=AXIS2_PLACEMENT_3D('',#146,#124,#125);
#114=AXIS2_PLACEMENT_3D('',#147,#126,#127);
#115=AXIS2_PLACEMENT_3D('',#148,#128,#129);
#116=AXIS2_PLACEMENT_3D('',#150,#130,#131);
#117=AXIS2_PLACEMENT_3D('',#151,#132,#133);
#118=AXIS2_PLACEMENT_3D('',#153,#134,#135);
#119=AXIS2_PLACEMENT_3D('',#154,#136,#137);
#120=AXIS2_PLACEMENT_3D('',#156,#138,#139);
#121=AXIS2_PLACEMENT_3D('',#157,#140,#141);
#122=AXIS2_PLACEMENT_3D('',#159,#142,#143);
#123=AXIS2_PLACEMENT_3D('',#160,#144,#145);
#124=DIRECTION('',(0.,0.,1.));
#125=DIRECTION('',(1.,0.,0.));
#126=DIRECTION('',(1.,0.,0.));
#127=DIRECTION('',(0.,0.,-1.));
#128=DIRECTION('',(1.,0.,0.));
#129=DIRECTION('',(0.,0.,-1.));
#130=DIRECTION('',(1.,0.,0.));
#131=DIRECTION('',(0.,0.,-1.));
#132=DIRECTION('',(1.,0.,0.));
#133=DIRECTION('',(0.,0.,-1.));
#134=DIRECTION('',(-1.,0.,0.));
#135=DIRECTION('',(0.,0.,1.));
#136=DIRECTION('',(1.,0.,0.));
#137=DIRECTION('',(0.,0.,-1.));
#138=DIRECTION('',(1.,0.,0.));
#139=DIRECTION('',(0.,0.,-1.));
#140=DIRECTION('',(1.,0.,0.));
#141=DIRECTION('',(0.,0.,-1.));
#142=DIRECTION('',(-1.,0.,0.));
#143=DIRECTION('',(0.,0.,1.));
#144=DIRECTION('',(-1.,0.,0.));
#145=DIRECTION('',(0.,0.,-1.));
#146=CARTESIAN_POINT('',(0.,0.,0.));
#147=CARTESIAN_POINT('',(0.,0.,0.));
#148=CARTESIAN_POINT('',(0.,0.,0.));
#149=CARTESIAN_POINT('',(0.,0.,-3.25));
#150=CARTESIAN_POINT('',(35.,0.,0.));
#151=CARTESIAN_POINT('',(35.,0.,0.));
#152=CARTESIAN_POINT('',(35.,0.,-3.25));
#153=CARTESIAN_POINT('',(35.,3.25,0.));
#154=CARTESIAN_POINT('',(35.,0.,0.));
#155=CARTESIAN_POINT('',(35.,0.,-1.75));
#156=CARTESIAN_POINT('',(45.,0.,0.));
#157=CARTESIAN_POINT('',(45.,0.,0.));
#158=CARTESIAN_POINT('',(45.,0.,-1.75));
#159=CARTESIAN_POINT('',(45.,1.75,0.));
#160=CARTESIAN_POINT('',(0.,0.,0.));
#161=MECHANICAL_DESIGN_GEOMETRIC_PRESENTATION_REPRESENTATION('',(#65,#66,
#67,#68,#69),#162);
#162=(
GEOMETRIC_REPRESENTATION_CONTEXT(3)
GLOBAL_UNCERTAINTY_ASSIGNED_CONTEXT((#164))
GLOBAL_UNIT_ASSIGNED_CONTEXT((#168,#167,#166))
REPRESENTATION_CONTEXT('150378 SIEN-6,5B-PS-K-L---(0_0)',
'TOP_LEVEL_ASSEMBLY_PART')
);
#163=(
GEOMETRIC_REPRESENTATION_CONTEXT(3)
GLOBAL_UNCERTAINTY_ASSIGNED_CONTEXT((#165))
GLOBAL_UNIT_ASSIGNED_CONTEXT((#168,#167,#166))
REPRESENTATION_CONTEXT('150378 SIEN-6,5B-PS-K-Lp---(0_0)',
'COMPONENT_PART')
);
#164=UNCERTAINTY_MEASURE_WITH_UNIT(LENGTH_MEASURE(0.005),#168,
'DISTANCE_ACCURACY_VALUE','Maximum Tolerance applied to model');
#165=UNCERTAINTY_MEASURE_WITH_UNIT(LENGTH_MEASURE(0.005),#168,
'DISTANCE_ACCURACY_VALUE','Maximum Tolerance applied to model');
#166=(
NAMED_UNIT(*)
SI_UNIT($,.STERADIAN.)
SOLID_ANGLE_UNIT()
);
#167=(
NAMED_UNIT(*)
PLANE_ANGLE_UNIT()
SI_UNIT($,.RADIAN.)
);
#168=(
LENGTH_UNIT()
NAMED_UNIT(*)
SI_UNIT(.MILLI.,.METRE.)
);
#169=PRODUCT_DEFINITION_SHAPE('','',#172);
#170=PRODUCT_DEFINITION_SHAPE('','',#173);
#171=PRODUCT_DEFINITION_SHAPE(' ','NAUO PRDDFN',#19);
#172=PRODUCT_DEFINITION('','',#176,#174);
#173=PRODUCT_DEFINITION('','',#177,#175);
#174=PRODUCT_DEFINITION_CONTEXT('',#187,'design');
#175=PRODUCT_DEFINITION_CONTEXT('',#187,'design');
#176=PRODUCT_DEFINITION_FORMATION_WITH_SPECIFIED_SOURCE('','',#180,
 .NOT_KNOWN.);
#177=PRODUCT_DEFINITION_FORMATION_WITH_SPECIFIED_SOURCE('','',#181,
 .NOT_KNOWN.);
#178=PRODUCT_RELATED_PRODUCT_CATEGORY('','',(#180));
#179=PRODUCT_RELATED_PRODUCT_CATEGORY('','',(#181));
#180=PRODUCT('150378 SIEN-6,5B-PS-K-L---(0_0)',
'150378 SIEN-6,5B-PS-K-L---(0_0)','150378 SIEN-6,5B-PS-K-L---(0_0)',(#184));
#181=PRODUCT('150378 SIEN-6,5B-PS-K-Lp---(0_0)',
'150378 SIEN-6,5B-PS-K-Lp---(0_0)','150378 SIEN-6,5B-PS-K-Lp---(0_0)',(#185));
#182=PRODUCT_CATEGORY('','');
#183=PRODUCT_CATEGORY('','');
#184=PRODUCT_CONTEXT('',#187,'mechanical');
#185=PRODUCT_CONTEXT('',#187,'mechanical');
#186=APPLICATION_PROTOCOL_DEFINITION('international standard',
'automotive_design',2010,#187);
#187=APPLICATION_CONTEXT(
'core data for automotive mechanical design processes');
ENDSEC;
END-ISO-10303-21;
