ISO-10303-21;
HEADER;
/* Generated by software containing ST-Developer
 * from STEP Tools, Inc. (www.steptools.com) 
 */
/* OPTION: using custom renumber hook */

FILE_DESCRIPTION(
/* description */ ('STEP AP214'),
/* implementation_level */ '2;1');

FILE_NAME(
/* name */ '150381_SIEN-65B-NO-S-L',
/* time_stamp */ '2024-09-15T05:20:58+02:00',
/* author */ ('License CC BY-ND 4.0'),
/* organization */ ('CADENAS'),
/* preprocessor_version */ 'ST-DEVELOPER v19.3',
/* originating_system */ 'PARTsolutions',
/* authorisation */ '  ');

FILE_SCHEMA (('AUTOMOTIVE_DESIGN {1 0 10303 214 3 1 1}'));
ENDSEC;

DATA;
#10=PROPERTY_DEFINITION_REPRESENTATION(#14,#12);
#11=PROPERTY_DEFINITION_REPRESENTATION(#15,#13);
#12=REPRESENTATION('',(#16),#641);
#13=REPRESENTATION('',(#17),#641);
#14=PROPERTY_DEFINITION('pmi validation property','',#648);
#15=PROPERTY_DEFINITION('pmi validation property','',#648);
#16=VALUE_REPRESENTATION_ITEM('number of annotations',COUNT_MEASURE(0.));
#17=VALUE_REPRESENTATION_ITEM('number of views',COUNT_MEASURE(0.));
#18=CONTEXT_DEPENDENT_SHAPE_REPRESENTATION(#20,#650);
#19=NEXT_ASSEMBLY_USAGE_OCCURRENCE('NAUO1',
'150381 SIEN-6,5B-NO-S-Lp---(0_0)','150381 SIEN-6,5B-NO-S-Lp---(0_0)',#651,
#652,'');
#20=(
REPRESENTATION_RELATIONSHIP(' ',' ',#347,#346)
REPRESENTATION_RELATIONSHIP_WITH_TRANSFORMATION(#21)
SHAPE_REPRESENTATION_RELATIONSHIP()
);
#21=ITEM_DEFINED_TRANSFORMATION(' ',' ',#348,#402);
#22=SHAPE_REPRESENTATION_RELATIONSHIP('','',#347,#23);
#23=ADVANCED_BREP_SHAPE_REPRESENTATION('',(#343),#642);
#24=TOROIDAL_SURFACE('',#367,3.38253968316963,0.100000000000003);
#25=TOROIDAL_SURFACE('',#371,3.07305494708881,0.200000000000002);
#26=CONICAL_SURFACE('',#355,3.3865,0.785398163397446);
#27=CONICAL_SURFACE('',#359,4.,0.785398163397446);
#28=CONICAL_SURFACE('',#369,3.48179429833377,0.122173047639604);
#29=PLANE('',#352);
#30=PLANE('',#353);
#31=PLANE('',#361);
#32=PLANE('',#365);
#33=PLANE('',#373);
#34=PLANE('',#379);
#35=PLANE('',#382);
#36=PLANE('',#385);
#37=PLANE('',#388);
#38=PLANE('',#398);
#39=PLANE('',#399);
#40=PLANE('',#400);
#41=PLANE('',#401);
#42=B_SPLINE_CURVE_WITH_KNOTS('',3,(#517,#518,#519,#520,#521,#522,#523,
#524,#525,#526,#527),.UNSPECIFIED.,.T.,.F.,(1,1,1,1,1,1,1,1,1,1,1,1,1,1,
1),(-0.00212045227376948,-0.00141363484917965,-0.000706817424589826,0.,
0.000706817424589826,0.00141363484917965,0.00212045227376948,0.0028272696983593,
0.00353408712294913,0.00424090454753896,0.00494772197212878,0.00565453939671861,
0.00636135682130843,0.00706817424589826,0.00777499167048809),
 .UNSPECIFIED.);
#43=B_SPLINE_CURVE_WITH_KNOTS('',3,(#529,#530,#531,#532,#533,#534,#535,
#536,#537,#538,#539),.UNSPECIFIED.,.T.,.F.,(1,1,1,1,1,1,1,1,1,1,1,1,1,1,
1),(-0.00212045227376948,-0.00141363484917965,-0.000706817424589826,0.,
0.000706817424589826,0.00141363484917965,0.00212045227376948,0.0028272696983593,
0.00353408712294913,0.00424090454753896,0.00494772197212878,0.00565453939671861,
0.00636135682130844,0.00706817424589826,0.00777499167048809),
 .UNSPECIFIED.);
#44=B_SPLINE_CURVE_WITH_KNOTS('',3,(#541,#542,#543,#544,#545,#546,#547,
#548,#549,#550,#551),.UNSPECIFIED.,.T.,.F.,(1,1,1,1,1,1,1,1,1,1,1,1,1,1,
1),(-0.00212045227376948,-0.00141363484917965,-0.000706817424589826,0.,
0.000706817424589826,0.00141363484917965,0.00212045227376948,0.00282726969835931,
0.00353408712294913,0.00424090454753896,0.00494772197212878,0.00565453939671861,
0.00636135682130844,0.00706817424589826,0.00777499167048809),
 .UNSPECIFIED.);
#45=B_SPLINE_CURVE_WITH_KNOTS('',3,(#553,#554,#555,#556,#557,#558,#559,
#560,#561,#562,#563),.UNSPECIFIED.,.T.,.F.,(1,1,1,1,1,1,1,1,1,1,1,1,1,1,
1),(-0.00212048199581892,-0.00141365466387928,-0.00070682733193964,0.,0.00070682733193964,
0.00141365466387928,0.00212048199581892,0.00282730932775856,0.0035341366596982,
0.00424096399163784,0.00494779132357748,0.00565461865551712,0.00636144598745676,
0.0070682733193964,0.00777510065133604),.UNSPECIFIED.);
#46=ORIENTED_EDGE('',*,*,#102,.F.);
#47=ORIENTED_EDGE('',*,*,#103,.F.);
#48=ORIENTED_EDGE('',*,*,#104,.F.);
#49=ORIENTED_EDGE('',*,*,#105,.F.);
#50=ORIENTED_EDGE('',*,*,#106,.F.);
#51=ORIENTED_EDGE('',*,*,#107,.T.);
#52=ORIENTED_EDGE('',*,*,#107,.F.);
#53=ORIENTED_EDGE('',*,*,#108,.F.);
#54=ORIENTED_EDGE('',*,*,#102,.T.);
#55=ORIENTED_EDGE('',*,*,#109,.F.);
#56=ORIENTED_EDGE('',*,*,#108,.T.);
#57=ORIENTED_EDGE('',*,*,#110,.F.);
#58=ORIENTED_EDGE('',*,*,#109,.T.);
#59=ORIENTED_EDGE('',*,*,#111,.F.);
#60=ORIENTED_EDGE('',*,*,#110,.T.);
#61=ORIENTED_EDGE('',*,*,#112,.F.);
#62=ORIENTED_EDGE('',*,*,#111,.T.);
#63=ORIENTED_EDGE('',*,*,#113,.F.);
#64=ORIENTED_EDGE('',*,*,#112,.T.);
#65=ORIENTED_EDGE('',*,*,#114,.F.);
#66=ORIENTED_EDGE('',*,*,#113,.T.);
#67=ORIENTED_EDGE('',*,*,#114,.T.);
#68=ORIENTED_EDGE('',*,*,#115,.F.);
#69=ORIENTED_EDGE('',*,*,#116,.F.);
#70=ORIENTED_EDGE('',*,*,#115,.T.);
#71=ORIENTED_EDGE('',*,*,#116,.T.);
#72=ORIENTED_EDGE('',*,*,#117,.F.);
#73=ORIENTED_EDGE('',*,*,#118,.F.);
#74=ORIENTED_EDGE('',*,*,#117,.T.);
#75=ORIENTED_EDGE('',*,*,#118,.T.);
#76=ORIENTED_EDGE('',*,*,#119,.F.);
#77=ORIENTED_EDGE('',*,*,#120,.T.);
#78=ORIENTED_EDGE('',*,*,#105,.T.);
#79=ORIENTED_EDGE('',*,*,#120,.F.);
#80=ORIENTED_EDGE('',*,*,#121,.T.);
#81=ORIENTED_EDGE('',*,*,#104,.T.);
#82=ORIENTED_EDGE('',*,*,#121,.F.);
#83=ORIENTED_EDGE('',*,*,#122,.T.);
#84=ORIENTED_EDGE('',*,*,#106,.T.);
#85=ORIENTED_EDGE('',*,*,#122,.F.);
#86=ORIENTED_EDGE('',*,*,#123,.T.);
#87=ORIENTED_EDGE('',*,*,#103,.T.);
#88=ORIENTED_EDGE('',*,*,#123,.F.);
#89=ORIENTED_EDGE('',*,*,#124,.T.);
#90=ORIENTED_EDGE('',*,*,#125,.F.);
#91=ORIENTED_EDGE('',*,*,#126,.T.);
#92=ORIENTED_EDGE('',*,*,#127,.F.);
#93=ORIENTED_EDGE('',*,*,#128,.T.);
#94=ORIENTED_EDGE('',*,*,#129,.F.);
#95=ORIENTED_EDGE('',*,*,#128,.F.);
#96=ORIENTED_EDGE('',*,*,#126,.F.);
#97=ORIENTED_EDGE('',*,*,#124,.F.);
#98=ORIENTED_EDGE('',*,*,#119,.T.);
#99=ORIENTED_EDGE('',*,*,#129,.T.);
#100=ORIENTED_EDGE('',*,*,#127,.T.);
#101=ORIENTED_EDGE('',*,*,#125,.T.);
#102=EDGE_CURVE('',#130,#130,#158,.T.);
#103=EDGE_CURVE('',#131,#131,#42,.T.);
#104=EDGE_CURVE('',#132,#132,#43,.T.);
#105=EDGE_CURVE('',#133,#133,#44,.T.);
#106=EDGE_CURVE('',#134,#134,#45,.T.);
#107=EDGE_CURVE('',#135,#135,#159,.T.);
#108=EDGE_CURVE('',#136,#136,#160,.T.);
#109=EDGE_CURVE('',#137,#137,#161,.T.);
#110=EDGE_CURVE('',#138,#138,#162,.T.);
#111=EDGE_CURVE('',#139,#139,#163,.T.);
#112=EDGE_CURVE('',#140,#140,#164,.T.);
#113=EDGE_CURVE('',#141,#141,#165,.T.);
#114=EDGE_CURVE('',#142,#142,#166,.T.);
#115=EDGE_CURVE('',#143,#143,#167,.T.);
#116=EDGE_CURVE('',#144,#144,#168,.T.);
#117=EDGE_CURVE('',#145,#145,#169,.T.);
#118=EDGE_CURVE('',#146,#146,#170,.T.);
#119=EDGE_CURVE('',#147,#147,#171,.T.);
#120=EDGE_CURVE('',#148,#148,#172,.T.);
#121=EDGE_CURVE('',#149,#149,#173,.T.);
#122=EDGE_CURVE('',#150,#150,#174,.T.);
#123=EDGE_CURVE('',#151,#151,#175,.T.);
#124=EDGE_CURVE('',#152,#152,#176,.T.);
#125=EDGE_CURVE('',#153,#153,#177,.T.);
#126=EDGE_CURVE('',#154,#154,#178,.T.);
#127=EDGE_CURVE('',#155,#155,#179,.T.);
#128=EDGE_CURVE('',#156,#156,#180,.T.);
#129=EDGE_CURVE('',#157,#157,#181,.T.);
#130=VERTEX_POINT('',#516);
#131=VERTEX_POINT('',#528);
#132=VERTEX_POINT('',#540);
#133=VERTEX_POINT('',#552);
#134=VERTEX_POINT('',#564);
#135=VERTEX_POINT('',#566);
#136=VERTEX_POINT('',#570);
#137=VERTEX_POINT('',#573);
#138=VERTEX_POINT('',#576);
#139=VERTEX_POINT('',#579);
#140=VERTEX_POINT('',#582);
#141=VERTEX_POINT('',#585);
#142=VERTEX_POINT('',#588);
#143=VERTEX_POINT('',#591);
#144=VERTEX_POINT('',#594);
#145=VERTEX_POINT('',#597);
#146=VERTEX_POINT('',#600);
#147=VERTEX_POINT('',#603);
#148=VERTEX_POINT('',#606);
#149=VERTEX_POINT('',#610);
#150=VERTEX_POINT('',#614);
#151=VERTEX_POINT('',#618);
#152=VERTEX_POINT('',#622);
#153=VERTEX_POINT('',#624);
#154=VERTEX_POINT('',#627);
#155=VERTEX_POINT('',#629);
#156=VERTEX_POINT('',#632);
#157=VERTEX_POINT('',#634);
#158=CIRCLE('',#350,3.25);
#159=CIRCLE('',#351,3.25);
#160=CIRCLE('',#354,3.3865);
#161=CIRCLE('',#356,4.);
#162=CIRCLE('',#358,4.);
#163=CIRCLE('',#360,3.3865);
#164=CIRCLE('',#362,3.25);
#165=CIRCLE('',#364,3.25);
#166=CIRCLE('',#366,3.38253968316963);
#167=CIRCLE('',#368,3.48179429833377);
#168=CIRCLE('',#370,3.27156417741708);
#169=CIRCLE('',#372,3.07305494708881);
#170=CIRCLE('',#374,2.9);
#171=CIRCLE('',#376,2.9);
#172=CIRCLE('',#378,0.9);
#173=CIRCLE('',#381,0.9);
#174=CIRCLE('',#384,0.9);
#175=CIRCLE('',#387,0.9);
#176=CIRCLE('',#390,0.5);
#177=CIRCLE('',#391,0.5);
#178=CIRCLE('',#393,0.5);
#179=CIRCLE('',#394,0.5);
#180=CIRCLE('',#396,0.5);
#181=CIRCLE('',#397,0.5);
#182=EDGE_LOOP('',(#46));
#183=EDGE_LOOP('',(#47));
#184=EDGE_LOOP('',(#48));
#185=EDGE_LOOP('',(#49));
#186=EDGE_LOOP('',(#50));
#187=EDGE_LOOP('',(#51));
#188=EDGE_LOOP('',(#52));
#189=EDGE_LOOP('',(#53));
#190=EDGE_LOOP('',(#54));
#191=EDGE_LOOP('',(#55));
#192=EDGE_LOOP('',(#56));
#193=EDGE_LOOP('',(#57));
#194=EDGE_LOOP('',(#58));
#195=EDGE_LOOP('',(#59));
#196=EDGE_LOOP('',(#60));
#197=EDGE_LOOP('',(#61));
#198=EDGE_LOOP('',(#62));
#199=EDGE_LOOP('',(#63));
#200=EDGE_LOOP('',(#64));
#201=EDGE_LOOP('',(#65));
#202=EDGE_LOOP('',(#66));
#203=EDGE_LOOP('',(#67));
#204=EDGE_LOOP('',(#68));
#205=EDGE_LOOP('',(#69));
#206=EDGE_LOOP('',(#70));
#207=EDGE_LOOP('',(#71));
#208=EDGE_LOOP('',(#72));
#209=EDGE_LOOP('',(#73));
#210=EDGE_LOOP('',(#74));
#211=EDGE_LOOP('',(#75));
#212=EDGE_LOOP('',(#76));
#213=EDGE_LOOP('',(#77));
#214=EDGE_LOOP('',(#78));
#215=EDGE_LOOP('',(#79));
#216=EDGE_LOOP('',(#80));
#217=EDGE_LOOP('',(#81));
#218=EDGE_LOOP('',(#82));
#219=EDGE_LOOP('',(#83));
#220=EDGE_LOOP('',(#84));
#221=EDGE_LOOP('',(#85));
#222=EDGE_LOOP('',(#86));
#223=EDGE_LOOP('',(#87));
#224=EDGE_LOOP('',(#88));
#225=EDGE_LOOP('',(#89));
#226=EDGE_LOOP('',(#90));
#227=EDGE_LOOP('',(#91));
#228=EDGE_LOOP('',(#92));
#229=EDGE_LOOP('',(#93));
#230=EDGE_LOOP('',(#94));
#231=EDGE_LOOP('',(#95));
#232=EDGE_LOOP('',(#96));
#233=EDGE_LOOP('',(#97));
#234=EDGE_LOOP('',(#98));
#235=EDGE_LOOP('',(#99));
#236=EDGE_LOOP('',(#100));
#237=EDGE_LOOP('',(#101));
#238=FACE_BOUND('',#182,.T.);
#239=FACE_BOUND('',#183,.T.);
#240=FACE_BOUND('',#184,.T.);
#241=FACE_BOUND('',#185,.T.);
#242=FACE_BOUND('',#186,.T.);
#243=FACE_BOUND('',#187,.T.);
#244=FACE_BOUND('',#188,.T.);
#245=FACE_BOUND('',#189,.T.);
#246=FACE_BOUND('',#190,.T.);
#247=FACE_BOUND('',#191,.T.);
#248=FACE_BOUND('',#192,.T.);
#249=FACE_BOUND('',#193,.T.);
#250=FACE_BOUND('',#194,.T.);
#251=FACE_BOUND('',#195,.T.);
#252=FACE_BOUND('',#196,.T.);
#253=FACE_BOUND('',#197,.T.);
#254=FACE_BOUND('',#198,.T.);
#255=FACE_BOUND('',#199,.T.);
#256=FACE_BOUND('',#200,.T.);
#257=FACE_BOUND('',#201,.T.);
#258=FACE_BOUND('',#202,.T.);
#259=FACE_BOUND('',#203,.T.);
#260=FACE_BOUND('',#204,.T.);
#261=FACE_BOUND('',#205,.T.);
#262=FACE_BOUND('',#206,.T.);
#263=FACE_BOUND('',#207,.T.);
#264=FACE_BOUND('',#208,.T.);
#265=FACE_BOUND('',#209,.T.);
#266=FACE_BOUND('',#210,.T.);
#267=FACE_BOUND('',#211,.T.);
#268=FACE_BOUND('',#212,.T.);
#269=FACE_BOUND('',#213,.T.);
#270=FACE_BOUND('',#214,.T.);
#271=FACE_BOUND('',#215,.T.);
#272=FACE_BOUND('',#216,.T.);
#273=FACE_BOUND('',#217,.T.);
#274=FACE_BOUND('',#218,.T.);
#275=FACE_BOUND('',#219,.T.);
#276=FACE_BOUND('',#220,.T.);
#277=FACE_BOUND('',#221,.T.);
#278=FACE_BOUND('',#222,.T.);
#279=FACE_BOUND('',#223,.T.);
#280=FACE_BOUND('',#224,.T.);
#281=FACE_BOUND('',#225,.T.);
#282=FACE_BOUND('',#226,.T.);
#283=FACE_BOUND('',#227,.T.);
#284=FACE_BOUND('',#228,.T.);
#285=FACE_BOUND('',#229,.T.);
#286=FACE_BOUND('',#230,.T.);
#287=FACE_BOUND('',#231,.T.);
#288=FACE_BOUND('',#232,.T.);
#289=FACE_BOUND('',#233,.T.);
#290=FACE_BOUND('',#234,.T.);
#291=FACE_BOUND('',#235,.T.);
#292=FACE_BOUND('',#236,.T.);
#293=FACE_BOUND('',#237,.T.);
#294=CYLINDRICAL_SURFACE('',#349,3.25);
#295=CYLINDRICAL_SURFACE('',#357,4.);
#296=CYLINDRICAL_SURFACE('',#363,3.25);
#297=CYLINDRICAL_SURFACE('',#375,2.9);
#298=CYLINDRICAL_SURFACE('',#377,0.9);
#299=CYLINDRICAL_SURFACE('',#380,0.9);
#300=CYLINDRICAL_SURFACE('',#383,0.9);
#301=CYLINDRICAL_SURFACE('',#386,0.9);
#302=CYLINDRICAL_SURFACE('',#389,0.5);
#303=CYLINDRICAL_SURFACE('',#392,0.5);
#304=CYLINDRICAL_SURFACE('',#395,0.5);
#305=ADVANCED_FACE('',(#238,#239,#240,#241,#242,#243),#294,.T.);
#306=ADVANCED_FACE('',(#244),#29,.F.);
#307=ADVANCED_FACE('',(#245,#246),#30,.F.);
#308=ADVANCED_FACE('',(#247,#248),#26,.T.);
#309=ADVANCED_FACE('',(#249,#250),#295,.T.);
#310=ADVANCED_FACE('',(#251,#252),#27,.T.);
#311=ADVANCED_FACE('',(#253,#254),#31,.F.);
#312=ADVANCED_FACE('',(#255,#256),#296,.T.);
#313=ADVANCED_FACE('',(#257,#258),#32,.F.);
#314=ADVANCED_FACE('',(#259,#260),#24,.T.);
#315=ADVANCED_FACE('',(#261,#262),#28,.T.);
#316=ADVANCED_FACE('',(#263,#264),#25,.T.);
#317=ADVANCED_FACE('',(#265,#266),#33,.F.);
#318=ADVANCED_FACE('',(#267,#268),#297,.F.);
#319=ADVANCED_FACE('',(#269,#270),#298,.F.);
#320=ADVANCED_FACE('',(#271),#34,.T.);
#321=ADVANCED_FACE('',(#272,#273),#299,.F.);
#322=ADVANCED_FACE('',(#274),#35,.T.);
#323=ADVANCED_FACE('',(#275,#276),#300,.F.);
#324=ADVANCED_FACE('',(#277),#36,.T.);
#325=ADVANCED_FACE('',(#278,#279),#301,.F.);
#326=ADVANCED_FACE('',(#280),#37,.T.);
#327=ADVANCED_FACE('',(#281,#282),#302,.T.);
#328=ADVANCED_FACE('',(#283,#284),#303,.T.);
#329=ADVANCED_FACE('',(#285,#286),#304,.T.);
#330=ADVANCED_FACE('',(#287,#288,#289,#290),#38,.T.);
#331=ADVANCED_FACE('',(#291),#39,.F.);
#332=ADVANCED_FACE('',(#292),#40,.F.);
#333=ADVANCED_FACE('',(#293),#41,.F.);
#334=CLOSED_SHELL('',(#305,#306,#307,#308,#309,#310,#311,#312,#313,#314,
#315,#316,#317,#318,#319,#320,#321,#322,#323,#324,#325,#326,#327,#328,#329,
#330,#331,#332,#333));
#335=STYLED_ITEM('',(#336),#343);
#336=PRESENTATION_STYLE_ASSIGNMENT((#337));
#337=SURFACE_STYLE_USAGE(.BOTH.,#338);
#338=SURFACE_SIDE_STYLE('',(#339));
#339=SURFACE_STYLE_FILL_AREA(#340);
#340=FILL_AREA_STYLE('',(#341));
#341=FILL_AREA_STYLE_COLOUR('',#342);
#342=COLOUR_RGB('',0.689999997615814,0.689999997615814,0.689999997615814);
#343=MANIFOLD_SOLID_BREP('150381 SIEN-6,5B-NO-S-Lp---(0_0)',#334);
#344=SHAPE_DEFINITION_REPRESENTATION(#648,#346);
#345=SHAPE_DEFINITION_REPRESENTATION(#649,#347);
#346=SHAPE_REPRESENTATION('150381 SIEN-6,5B-NO-S-L---(0_0)',(#348,#402),
#641);
#347=SHAPE_REPRESENTATION('150381 SIEN-6,5B-NO-S-Lp---(0_0)',(#348),#642);
#348=AXIS2_PLACEMENT_3D('',#513,#403,#404);
#349=AXIS2_PLACEMENT_3D('',#514,#405,#406);
#350=AXIS2_PLACEMENT_3D('',#515,#407,#408);
#351=AXIS2_PLACEMENT_3D('',#565,#409,#410);
#352=AXIS2_PLACEMENT_3D('',#567,#411,#412);
#353=AXIS2_PLACEMENT_3D('',#568,#413,#414);
#354=AXIS2_PLACEMENT_3D('',#569,#415,#416);
#355=AXIS2_PLACEMENT_3D('',#571,#417,#418);
#356=AXIS2_PLACEMENT_3D('',#572,#419,#420);
#357=AXIS2_PLACEMENT_3D('',#574,#421,#422);
#358=AXIS2_PLACEMENT_3D('',#575,#423,#424);
#359=AXIS2_PLACEMENT_3D('',#577,#425,#426);
#360=AXIS2_PLACEMENT_3D('',#578,#427,#428);
#361=AXIS2_PLACEMENT_3D('',#580,#429,#430);
#362=AXIS2_PLACEMENT_3D('',#581,#431,#432);
#363=AXIS2_PLACEMENT_3D('',#583,#433,#434);
#364=AXIS2_PLACEMENT_3D('',#584,#435,#436);
#365=AXIS2_PLACEMENT_3D('',#586,#437,#438);
#366=AXIS2_PLACEMENT_3D('',#587,#439,#440);
#367=AXIS2_PLACEMENT_3D('',#589,#441,#442);
#368=AXIS2_PLACEMENT_3D('',#590,#443,#444);
#369=AXIS2_PLACEMENT_3D('',#592,#445,#446);
#370=AXIS2_PLACEMENT_3D('',#593,#447,#448);
#371=AXIS2_PLACEMENT_3D('',#595,#449,#450);
#372=AXIS2_PLACEMENT_3D('',#596,#451,#452);
#373=AXIS2_PLACEMENT_3D('',#598,#453,#454);
#374=AXIS2_PLACEMENT_3D('',#599,#455,#456);
#375=AXIS2_PLACEMENT_3D('',#601,#457,#458);
#376=AXIS2_PLACEMENT_3D('',#602,#459,#460);
#377=AXIS2_PLACEMENT_3D('',#604,#461,#462);
#378=AXIS2_PLACEMENT_3D('',#605,#463,#464);
#379=AXIS2_PLACEMENT_3D('',#607,#465,#466);
#380=AXIS2_PLACEMENT_3D('',#608,#467,#468);
#381=AXIS2_PLACEMENT_3D('',#609,#469,#470);
#382=AXIS2_PLACEMENT_3D('',#611,#471,#472);
#383=AXIS2_PLACEMENT_3D('',#612,#473,#474);
#384=AXIS2_PLACEMENT_3D('',#613,#475,#476);
#385=AXIS2_PLACEMENT_3D('',#615,#477,#478);
#386=AXIS2_PLACEMENT_3D('',#616,#479,#480);
#387=AXIS2_PLACEMENT_3D('',#617,#481,#482);
#388=AXIS2_PLACEMENT_3D('',#619,#483,#484);
#389=AXIS2_PLACEMENT_3D('',#620,#485,#486);
#390=AXIS2_PLACEMENT_3D('',#621,#487,#488);
#391=AXIS2_PLACEMENT_3D('',#623,#489,#490);
#392=AXIS2_PLACEMENT_3D('',#625,#491,#492);
#393=AXIS2_PLACEMENT_3D('',#626,#493,#494);
#394=AXIS2_PLACEMENT_3D('',#628,#495,#496);
#395=AXIS2_PLACEMENT_3D('',#630,#497,#498);
#396=AXIS2_PLACEMENT_3D('',#631,#499,#500);
#397=AXIS2_PLACEMENT_3D('',#633,#501,#502);
#398=AXIS2_PLACEMENT_3D('',#635,#503,#504);
#399=AXIS2_PLACEMENT_3D('',#636,#505,#506);
#400=AXIS2_PLACEMENT_3D('',#637,#507,#508);
#401=AXIS2_PLACEMENT_3D('',#638,#509,#510);
#402=AXIS2_PLACEMENT_3D('',#639,#511,#512);
#403=DIRECTION('',(0.,0.,1.));
#404=DIRECTION('',(1.,0.,0.));
#405=DIRECTION('',(1.,0.,0.));
#406=DIRECTION('',(0.,0.,-1.));
#407=DIRECTION('',(1.,0.,0.));
#408=DIRECTION('',(0.,0.,-1.));
#409=DIRECTION('',(1.,0.,0.));
#410=DIRECTION('',(0.,0.,-1.));
#411=DIRECTION('',(1.,0.,0.));
#412=DIRECTION('',(0.,0.,-1.));
#413=DIRECTION('',(1.,0.,0.));
#414=DIRECTION('',(0.,0.,-1.));
#415=DIRECTION('',(1.,0.,0.));
#416=DIRECTION('',(0.,0.,-1.));
#417=DIRECTION('',(1.,0.,0.));
#418=DIRECTION('',(0.,0.,-1.));
#419=DIRECTION('',(1.,0.,0.));
#420=DIRECTION('',(0.,0.,-1.));
#421=DIRECTION('',(1.,0.,0.));
#422=DIRECTION('',(0.,0.,-1.));
#423=DIRECTION('',(1.,0.,0.));
#424=DIRECTION('',(0.,0.,-1.));
#425=DIRECTION('',(-1.,0.,0.));
#426=DIRECTION('',(0.,0.,1.));
#427=DIRECTION('',(1.,0.,0.));
#428=DIRECTION('',(0.,0.,-1.));
#429=DIRECTION('',(-1.,0.,0.));
#430=DIRECTION('',(0.,0.,1.));
#431=DIRECTION('',(1.,0.,0.));
#432=DIRECTION('',(0.,0.,-1.));
#433=DIRECTION('',(1.,0.,0.));
#434=DIRECTION('',(0.,0.,-1.));
#435=DIRECTION('',(1.,0.,0.));
#436=DIRECTION('',(0.,0.,-1.));
#437=DIRECTION('',(1.,0.,0.));
#438=DIRECTION('',(0.,0.,-1.));
#439=DIRECTION('',(1.,0.,0.));
#440=DIRECTION('',(0.,0.,-1.));
#441=DIRECTION('',(1.,0.,0.));
#442=DIRECTION('',(0.,0.,-1.));
#443=DIRECTION('',(1.,0.,0.));
#444=DIRECTION('',(0.,0.,-1.));
#445=DIRECTION('',(-1.,0.,0.));
#446=DIRECTION('',(0.,0.,1.));
#447=DIRECTION('',(1.,0.,0.));
#448=DIRECTION('',(0.,0.,-1.));
#449=DIRECTION('',(1.,0.,0.));
#450=DIRECTION('',(0.,0.,-1.));
#451=DIRECTION('',(1.,0.,0.));
#452=DIRECTION('',(0.,0.,-1.));
#453=DIRECTION('',(-1.,0.,0.));
#454=DIRECTION('',(0.,0.,1.));
#455=DIRECTION('',(1.,0.,0.));
#456=DIRECTION('',(0.,0.,-1.));
#457=DIRECTION('',(1.,0.,0.));
#458=DIRECTION('',(0.,0.,-1.));
#459=DIRECTION('',(1.,0.,0.));
#460=DIRECTION('',(0.,0.,-1.));
#461=DIRECTION('',(0.,-6.12323399573676E-17,-1.));
#462=DIRECTION('',(0.,1.,-6.12323399573676E-17));
#463=DIRECTION('',(0.,-6.12323399573676E-17,-1.));
#464=DIRECTION('',(0.,1.,-6.12323399573676E-17));
#465=DIRECTION('',(0.,6.12323399573676E-17,1.));
#466=DIRECTION('',(0.,-1.,6.12323399573676E-17));
#467=DIRECTION('',(0.,1.,-1.22464679914735E-16));
#468=DIRECTION('',(0.,1.22464679914735E-16,1.));
#469=DIRECTION('',(0.,1.,-1.22464679914735E-16));
#470=DIRECTION('',(0.,1.22464679914735E-16,1.));
#471=DIRECTION('',(0.,-1.,1.22464679914735E-16));
#472=DIRECTION('',(0.,-1.22464679914735E-16,-1.));
#473=DIRECTION('',(0.,1.83697019872103E-16,1.));
#474=DIRECTION('',(0.,-1.,1.83697019872103E-16));
#475=DIRECTION('',(0.,1.83697019872103E-16,1.));
#476=DIRECTION('',(0.,-1.,1.83697019872103E-16));
#477=DIRECTION('',(0.,-1.83697019872103E-16,-1.));
#478=DIRECTION('',(0.,1.,-1.83697019872103E-16));
#479=DIRECTION('',(0.,-1.,0.));
#480=DIRECTION('',(0.,0.,-1.));
#481=DIRECTION('',(0.,-1.,0.));
#482=DIRECTION('',(0.,0.,-1.));
#483=DIRECTION('',(0.,1.,0.));
#484=DIRECTION('',(0.,0.,1.));
#485=DIRECTION('',(1.,0.,0.));
#486=DIRECTION('',(0.,0.,-1.));
#487=DIRECTION('',(1.,0.,0.));
#488=DIRECTION('',(0.,0.,-1.));
#489=DIRECTION('',(1.,0.,0.));
#490=DIRECTION('',(0.,0.,-1.));
#491=DIRECTION('',(1.,0.,0.));
#492=DIRECTION('',(0.,0.,-1.));
#493=DIRECTION('',(1.,0.,0.));
#494=DIRECTION('',(0.,0.,-1.));
#495=DIRECTION('',(1.,0.,0.));
#496=DIRECTION('',(0.,0.,-1.));
#497=DIRECTION('',(1.,0.,0.));
#498=DIRECTION('',(0.,0.,-1.));
#499=DIRECTION('',(1.,0.,0.));
#500=DIRECTION('',(0.,0.,-1.));
#501=DIRECTION('',(1.,0.,0.));
#502=DIRECTION('',(0.,0.,-1.));
#503=DIRECTION('',(1.,0.,0.));
#504=DIRECTION('',(0.,0.,-1.));
#505=DIRECTION('',(-1.,0.,0.));
#506=DIRECTION('',(0.,0.,1.));
#507=DIRECTION('',(-1.,0.,0.));
#508=DIRECTION('',(0.,0.,1.));
#509=DIRECTION('',(-1.,0.,0.));
#510=DIRECTION('',(0.,0.,1.));
#511=DIRECTION('',(-1.,0.,0.));
#512=DIRECTION('',(0.,0.,-1.));
#513=CARTESIAN_POINT('',(0.,0.,0.));
#514=CARTESIAN_POINT('',(44.5,0.,0.));
#515=CARTESIAN_POINT('',(39.,0.,0.));
#516=CARTESIAN_POINT('',(39.,0.,-3.25));
#517=CARTESIAN_POINT('',(37.7057195184642,3.18781099851209,-0.70480926116811));
#518=CARTESIAN_POINT('',(36.9999005642589,3.09045975662947,-0.997591969074514));
#519=CARTESIAN_POINT('',(36.2946782245004,3.18774573852266,-0.704822862533834));
#520=CARTESIAN_POINT('',(36.0025903829577,3.28114090321077,-0.00107361672210688));
#521=CARTESIAN_POINT('',(36.2949613463477,3.187690343277,0.705666397294295));
#522=CARTESIAN_POINT('',(36.9995029684498,3.09053459269868,0.997099975115772));
#523=CARTESIAN_POINT('',(37.7046915109204,3.18756719500488,0.705933197290649));
#524=CARTESIAN_POINT('',(37.9973971372838,3.28115542244137,0.000252400464903856));
#525=CARTESIAN_POINT('',(37.7057195184642,3.18781099851209,-0.70480926116811));
#526=CARTESIAN_POINT('',(36.9999005642589,3.09045975662947,-0.997591969074514));
#527=CARTESIAN_POINT('',(36.2946782245004,3.18774573852266,-0.704822862533834));
#528=CARTESIAN_POINT('',(37.,3.12289929392544,-0.9));
#529=CARTESIAN_POINT('',(37.7057195184642,-3.18781099851209,0.704809261168108));
#530=CARTESIAN_POINT('',(36.9999005642589,-3.09045975662947,0.997591969074515));
#531=CARTESIAN_POINT('',(36.2946782245004,-3.18774573852266,0.704822862533834));
#532=CARTESIAN_POINT('',(36.0025903829577,-3.28114090321078,0.00107361672210885));
#533=CARTESIAN_POINT('',(36.2949613463477,-3.18769034327699,-0.705666397294304));
#534=CARTESIAN_POINT('',(36.9995029684498,-3.09053459269869,-0.997099975115769));
#535=CARTESIAN_POINT('',(37.7046915109204,-3.18756719500488,-0.705933197290651));
#536=CARTESIAN_POINT('',(37.9973971372839,-3.28115542244137,-0.000252400464896206));
#537=CARTESIAN_POINT('',(37.7057195184642,-3.18781099851209,0.704809261168108));
#538=CARTESIAN_POINT('',(36.9999005642589,-3.09045975662947,0.997591969074515));
#539=CARTESIAN_POINT('',(36.2946782245004,-3.18774573852266,0.704822862533834));
#540=CARTESIAN_POINT('',(37.,-3.12289929392544,0.9));
#541=CARTESIAN_POINT('',(37.7057195184642,0.704809261168109,3.18781099851209));
#542=CARTESIAN_POINT('',(36.9999005642589,0.997591969074515,3.09045975662947));
#543=CARTESIAN_POINT('',(36.2946782245003,0.704822862533834,3.18774573852266));
#544=CARTESIAN_POINT('',(36.0025903829578,0.0010736167221087,3.28114090321078));
#545=CARTESIAN_POINT('',(36.2949613463477,-0.705666397294304,3.18769034327699));
#546=CARTESIAN_POINT('',(36.9995029684498,-0.99709997511577,3.09053459269869));
#547=CARTESIAN_POINT('',(37.7046915109204,-0.705933197290651,3.18756719500488));
#548=CARTESIAN_POINT('',(37.9973971372838,-0.000252400464897954,3.28115542244137));
#549=CARTESIAN_POINT('',(37.7057195184642,0.704809261168109,3.18781099851209));
#550=CARTESIAN_POINT('',(36.9999005642589,0.997591969074515,3.09045975662947));
#551=CARTESIAN_POINT('',(36.2946782245003,0.704822862533834,3.18774573852266));
#552=CARTESIAN_POINT('',(37.,0.9,3.12289929392544));
#553=CARTESIAN_POINT('',(36.2953263448864,-0.705859192458885,-3.18759046558736));
#554=CARTESIAN_POINT('',(36.0023385713577,0.00010034483211355,-3.28118827792008));
#555=CARTESIAN_POINT('',(36.2953193696828,0.705457813130431,-3.18765642273234));
#556=CARTESIAN_POINT('',(36.9989044287931,0.997341907626362,-3.09050675574244));
#557=CARTESIAN_POINT('',(37.705539510276,0.705173406884194,-3.18771264912339));
#558=CARTESIAN_POINT('',(37.9971663391976,0.000488886835523568,-3.28111297036091));
#559=CARTESIAN_POINT('',(37.7057946411425,-0.70482431932126,-3.18783533324473));
#560=CARTESIAN_POINT('',(37.0002696201465,-0.997329010072243,-3.09049252345285));
#561=CARTESIAN_POINT('',(36.2953263448864,-0.705859192458885,-3.18759046558736));
#562=CARTESIAN_POINT('',(36.0023385713577,0.00010034483211355,-3.28118827792008));
#563=CARTESIAN_POINT('',(36.2953193696828,0.705457813130431,-3.18765642273234));
#564=CARTESIAN_POINT('',(36.1,0.,-3.25));
#565=CARTESIAN_POINT('',(0.,0.,0.));
#566=CARTESIAN_POINT('',(0.,0.,-3.25));
#567=CARTESIAN_POINT('',(0.,0.,0.));
#568=CARTESIAN_POINT('',(39.,3.25,0.));
#569=CARTESIAN_POINT('',(39.,0.,0.));
#570=CARTESIAN_POINT('',(39.,0.,-3.3865));
#571=CARTESIAN_POINT('',(39.,0.,0.));
#572=CARTESIAN_POINT('',(39.6135,0.,0.));
#573=CARTESIAN_POINT('',(39.6135,0.,-4.));
#574=CARTESIAN_POINT('',(44.5,0.,0.));
#575=CARTESIAN_POINT('',(41.3865,0.,0.));
#576=CARTESIAN_POINT('',(41.3865,0.,-4.));
#577=CARTESIAN_POINT('',(41.3865,0.,0.));
#578=CARTESIAN_POINT('',(42.,0.,0.));
#579=CARTESIAN_POINT('',(42.,0.,-3.3865));
#580=CARTESIAN_POINT('',(42.,3.3865,0.));
#581=CARTESIAN_POINT('',(42.,0.,0.));
#582=CARTESIAN_POINT('',(42.,0.,-3.25));
#583=CARTESIAN_POINT('',(44.5,0.,0.));
#584=CARTESIAN_POINT('',(43.,0.,0.));
#585=CARTESIAN_POINT('',(43.,0.,-3.25));
#586=CARTESIAN_POINT('',(43.,3.25,0.));
#587=CARTESIAN_POINT('',(43.,0.,0.));
#588=CARTESIAN_POINT('',(43.,0.,-3.38253968316963));
#589=CARTESIAN_POINT('',(43.1,0.,0.));
#590=CARTESIAN_POINT('',(43.1121869343405,0.,0.));
#591=CARTESIAN_POINT('',(43.1121869343405,0.,-3.48179429833377));
#592=CARTESIAN_POINT('',(43.1121869343405,0.,0.));
#593=CARTESIAN_POINT('',(44.824373868681,0.,0.));
#594=CARTESIAN_POINT('',(44.824373868681,0.,-3.27156417741708));
#595=CARTESIAN_POINT('',(44.8,0.,0.));
#596=CARTESIAN_POINT('',(45.,0.,0.));
#597=CARTESIAN_POINT('',(45.,0.,-3.07305494708881));
#598=CARTESIAN_POINT('',(45.,3.07305494708881,0.));
#599=CARTESIAN_POINT('',(45.,0.,0.));
#600=CARTESIAN_POINT('',(45.,0.,-2.9));
#601=CARTESIAN_POINT('',(44.5,0.,0.));
#602=CARTESIAN_POINT('',(40.,0.,0.));
#603=CARTESIAN_POINT('',(40.,0.,-2.9));
#604=CARTESIAN_POINT('',(37.,1.69001258282335E-16,2.76));
#605=CARTESIAN_POINT('',(37.,1.69001258282335E-16,2.76));
#606=CARTESIAN_POINT('',(37.,0.9,2.76));
#607=CARTESIAN_POINT('',(37.,0.9,2.76));
#608=CARTESIAN_POINT('',(37.,-2.76,3.3800251656467E-16));
#609=CARTESIAN_POINT('',(37.,-2.76,3.3800251656467E-16));
#610=CARTESIAN_POINT('',(37.,-2.76,0.9));
#611=CARTESIAN_POINT('',(37.,-2.76,0.9));
#612=CARTESIAN_POINT('',(37.,-5.07003774847004E-16,-2.76));
#613=CARTESIAN_POINT('',(37.,-5.07003774847004E-16,-2.76));
#614=CARTESIAN_POINT('',(37.,-0.900000000000001,-2.76));
#615=CARTESIAN_POINT('',(37.,-0.900000000000001,-2.76));
#616=CARTESIAN_POINT('',(37.,2.76,0.));
#617=CARTESIAN_POINT('',(37.,2.76,0.));
#618=CARTESIAN_POINT('',(37.,2.76,-0.9));
#619=CARTESIAN_POINT('',(37.,2.76,-0.9));
#620=CARTESIAN_POINT('',(40.,0.,-1.75));
#621=CARTESIAN_POINT('',(40.,0.,-1.75));
#622=CARTESIAN_POINT('',(40.,0.,-2.25));
#623=CARTESIAN_POINT('',(44.5,0.,-1.75));
#624=CARTESIAN_POINT('',(44.5,0.,-2.25));
#625=CARTESIAN_POINT('',(40.,-1.75,0.));
#626=CARTESIAN_POINT('',(40.,-1.75,0.));
#627=CARTESIAN_POINT('',(40.,-1.75,-0.5));
#628=CARTESIAN_POINT('',(44.5,-1.75,0.));
#629=CARTESIAN_POINT('',(44.5,-1.75,-0.5));
#630=CARTESIAN_POINT('',(40.,0.,1.75));
#631=CARTESIAN_POINT('',(40.,0.,1.75));
#632=CARTESIAN_POINT('',(40.,0.,1.25));
#633=CARTESIAN_POINT('',(44.5,0.,1.75));
#634=CARTESIAN_POINT('',(44.5,0.,1.25));
#635=CARTESIAN_POINT('',(40.,0.,0.));
#636=CARTESIAN_POINT('',(44.5,2.9,0.));
#637=CARTESIAN_POINT('',(44.5,2.9,0.));
#638=CARTESIAN_POINT('',(44.5,2.9,0.));
#639=CARTESIAN_POINT('',(0.,0.,0.));
#640=MECHANICAL_DESIGN_GEOMETRIC_PRESENTATION_REPRESENTATION('',(#335),
#641);
#641=(
GEOMETRIC_REPRESENTATION_CONTEXT(3)
GLOBAL_UNCERTAINTY_ASSIGNED_CONTEXT((#643))
GLOBAL_UNIT_ASSIGNED_CONTEXT((#647,#646,#645))
REPRESENTATION_CONTEXT('150381 SIEN-6,5B-NO-S-L---(0_0)',
'TOP_LEVEL_ASSEMBLY_PART')
);
#642=(
GEOMETRIC_REPRESENTATION_CONTEXT(3)
GLOBAL_UNCERTAINTY_ASSIGNED_CONTEXT((#644))
GLOBAL_UNIT_ASSIGNED_CONTEXT((#647,#646,#645))
REPRESENTATION_CONTEXT('150381 SIEN-6,5B-NO-S-Lp---(0_0)',
'COMPONENT_PART')
);
#643=UNCERTAINTY_MEASURE_WITH_UNIT(LENGTH_MEASURE(0.005),#647,
'DISTANCE_ACCURACY_VALUE','Maximum Tolerance applied to model');
#644=UNCERTAINTY_MEASURE_WITH_UNIT(LENGTH_MEASURE(0.005),#647,
'DISTANCE_ACCURACY_VALUE','Maximum Tolerance applied to model');
#645=(
NAMED_UNIT(*)
SI_UNIT($,.STERADIAN.)
SOLID_ANGLE_UNIT()
);
#646=(
NAMED_UNIT(*)
PLANE_ANGLE_UNIT()
SI_UNIT($,.RADIAN.)
);
#647=(
LENGTH_UNIT()
NAMED_UNIT(*)
SI_UNIT(.MILLI.,.METRE.)
);
#648=PRODUCT_DEFINITION_SHAPE('','',#651);
#649=PRODUCT_DEFINITION_SHAPE('','',#652);
#650=PRODUCT_DEFINITION_SHAPE(' ','NAUO PRDDFN',#19);
#651=PRODUCT_DEFINITION('','',#655,#653);
#652=PRODUCT_DEFINITION('','',#656,#654);
#653=PRODUCT_DEFINITION_CONTEXT('',#666,'design');
#654=PRODUCT_DEFINITION_CONTEXT('',#666,'design');
#655=PRODUCT_DEFINITION_FORMATION_WITH_SPECIFIED_SOURCE('','',#659,
 .NOT_KNOWN.);
#656=PRODUCT_DEFINITION_FORMATION_WITH_SPECIFIED_SOURCE('','',#660,
 .NOT_KNOWN.);
#657=PRODUCT_RELATED_PRODUCT_CATEGORY('','',(#659));
#658=PRODUCT_RELATED_PRODUCT_CATEGORY('','',(#660));
#659=PRODUCT('150381 SIEN-6,5B-NO-S-L---(0_0)',
'150381 SIEN-6,5B-NO-S-L---(0_0)','150381 SIEN-6,5B-NO-S-L---(0_0)',(#663));
#660=PRODUCT('150381 SIEN-6,5B-NO-S-Lp---(0_0)',
'150381 SIEN-6,5B-NO-S-Lp---(0_0)','150381 SIEN-6,5B-NO-S-Lp---(0_0)',(#664));
#661=PRODUCT_CATEGORY('','');
#662=PRODUCT_CATEGORY('','');
#663=PRODUCT_CONTEXT('',#666,'mechanical');
#664=PRODUCT_CONTEXT('',#666,'mechanical');
#665=APPLICATION_PROTOCOL_DEFINITION('international standard',
'automotive_design',2010,#666);
#666=APPLICATION_CONTEXT(
'core data for automotive mechanical design processes');
ENDSEC;
END-ISO-10303-21;
