ISO-10303-21;
HEADER;
/* Generated by software containing ST-Developer
 * from STEP Tools, Inc. (www.steptools.com) 
 */
/* OPTION: using custom renumber hook */

FILE_DESCRIPTION(
/* description */ ('STEP AP214'),
/* implementation_level */ '2;1');

FILE_NAME(
/* name */ '150390_SIEN-M8B-PO-K-L',
/* time_stamp */ '2024-09-11T06:55:41+02:00',
/* author */ ('License CC BY-ND 4.0'),
/* organization */ ('CADENAS'),
/* preprocessor_version */ 'ST-DEVELOPER v19.3',
/* originating_system */ 'PARTsolutions',
/* authorisation */ '  ');

FILE_SCHEMA (('AUTOMOTIVE_DESIGN {1 0 10303 214 3 1 1}'));
ENDSEC;

DATA;
#10=PROPERTY_DEFINITION_REPRESENTATION(#14,#12);
#11=PROPERTY_DEFINITION_REPRESENTATION(#15,#13);
#12=REPRESENTATION('',(#16),#533);
#13=REPRESENTATION('',(#17),#533);
#14=PROPERTY_DEFINITION('pmi validation property','',#542);
#15=PROPERTY_DEFINITION('pmi validation property','',#542);
#16=VALUE_REPRESENTATION_ITEM('number of annotations',COUNT_MEASURE(0.));
#17=VALUE_REPRESENTATION_ITEM('number of views',COUNT_MEASURE(0.));
#18=LINE('',#482,#36);
#19=LINE('',#485,#37);
#20=LINE('',#487,#38);
#21=LINE('',#489,#39);
#22=LINE('',#491,#40);
#23=LINE('',#493,#41);
#24=LINE('',#495,#42);
#25=LINE('',#497,#43);
#26=LINE('',#499,#44);
#27=LINE('',#501,#45);
#28=LINE('',#503,#46);
#29=LINE('',#505,#47);
#30=LINE('',#507,#48);
#31=LINE('',#509,#49);
#32=LINE('',#511,#50);
#33=LINE('',#513,#51);
#34=LINE('',#515,#52);
#35=LINE('',#516,#53);
#36=VECTOR('',#410,1000.);
#37=VECTOR('',#411,1000.);
#38=VECTOR('',#412,1000.);
#39=VECTOR('',#413,1000.);
#40=VECTOR('',#416,1000.);
#41=VECTOR('',#417,1000.);
#42=VECTOR('',#418,1000.);
#43=VECTOR('',#421,1000.);
#44=VECTOR('',#422,1000.);
#45=VECTOR('',#423,1000.);
#46=VECTOR('',#426,1000.);
#47=VECTOR('',#427,1000.);
#48=VECTOR('',#428,1000.);
#49=VECTOR('',#431,1000.);
#50=VECTOR('',#432,1000.);
#51=VECTOR('',#433,1000.);
#52=VECTOR('',#436,1000.);
#53=VECTOR('',#437,1000.);
#54=CONTEXT_DEPENDENT_SHAPE_REPRESENTATION(#60,#544);
#55=CONTEXT_DEPENDENT_SHAPE_REPRESENTATION(#61,#546);
#56=CONTEXT_DEPENDENT_SHAPE_REPRESENTATION(#62,#547);
#57=NEXT_ASSEMBLY_USAGE_OCCURRENCE('NAUO1',
'150390 SIEN-M8B-PO-K-Lp---(4_0)','150390 SIEN-M8B-PO-K-Lp---(4_0)',#548,
#549,'');
#58=NEXT_ASSEMBLY_USAGE_OCCURRENCE('NAUO2','DIN-439A -M8x1(F)',
'DIN-439A -M8x1(F)',#548,#550,'');
#59=NEXT_ASSEMBLY_USAGE_OCCURRENCE('NAUO3','DIN-439A -M8x1(F)',
'DIN-439A -M8x1(F)',#548,#550,'');
#60=(
REPRESENTATION_RELATIONSHIP(' ',' ',#344,#343)
REPRESENTATION_RELATIONSHIP_WITH_TRANSFORMATION(#63)
SHAPE_REPRESENTATION_RELATIONSHIP()
);
#61=(
REPRESENTATION_RELATIONSHIP(' ',' ',#345,#343)
REPRESENTATION_RELATIONSHIP_WITH_TRANSFORMATION(#64)
SHAPE_REPRESENTATION_RELATIONSHIP()
);
#62=(
REPRESENTATION_RELATIONSHIP(' ',' ',#345,#343)
REPRESENTATION_RELATIONSHIP_WITH_TRANSFORMATION(#65)
SHAPE_REPRESENTATION_RELATIONSHIP()
);
#63=ITEM_DEFINED_TRANSFORMATION(' ',' ',#346,#360);
#64=ITEM_DEFINED_TRANSFORMATION(' ',' ',#346,#376);
#65=ITEM_DEFINED_TRANSFORMATION(' ',' ',#346,#377);
#66=SHAPE_REPRESENTATION_RELATIONSHIP('','',#344,#68);
#67=SHAPE_REPRESENTATION_RELATIONSHIP('','',#345,#69);
#68=ADVANCED_BREP_SHAPE_REPRESENTATION('',(#338),#534);
#69=ADVANCED_BREP_SHAPE_REPRESENTATION('',(#339),#535);
#70=CYLINDRICAL_SURFACE('',#351,4.);
#71=CYLINDRICAL_SURFACE('',#357,1.75);
#72=CYLINDRICAL_SURFACE('',#373,3.4585);
#73=CONICAL_SURFACE('',#349,3.3865,0.785398163397446);
#74=CONICAL_SURFACE('',#353,4.,0.785398163397446);
#75=CONICAL_SURFACE('',#371,4.,0.785398163397448);
#76=CONICAL_SURFACE('',#375,3.4585,0.785398163397447);
#77=ORIENTED_EDGE('',*,*,#133,.F.);
#78=ORIENTED_EDGE('',*,*,#134,.F.);
#79=ORIENTED_EDGE('',*,*,#133,.T.);
#80=ORIENTED_EDGE('',*,*,#135,.F.);
#81=ORIENTED_EDGE('',*,*,#134,.T.);
#82=ORIENTED_EDGE('',*,*,#136,.F.);
#83=ORIENTED_EDGE('',*,*,#135,.T.);
#84=ORIENTED_EDGE('',*,*,#137,.F.);
#85=ORIENTED_EDGE('',*,*,#136,.T.);
#86=ORIENTED_EDGE('',*,*,#138,.F.);
#87=ORIENTED_EDGE('',*,*,#137,.T.);
#88=ORIENTED_EDGE('',*,*,#138,.T.);
#89=ORIENTED_EDGE('',*,*,#139,.F.);
#90=ORIENTED_EDGE('',*,*,#140,.F.);
#91=ORIENTED_EDGE('',*,*,#141,.T.);
#92=ORIENTED_EDGE('',*,*,#142,.T.);
#93=ORIENTED_EDGE('',*,*,#143,.F.);
#94=ORIENTED_EDGE('',*,*,#142,.F.);
#95=ORIENTED_EDGE('',*,*,#144,.T.);
#96=ORIENTED_EDGE('',*,*,#145,.T.);
#97=ORIENTED_EDGE('',*,*,#146,.F.);
#98=ORIENTED_EDGE('',*,*,#145,.F.);
#99=ORIENTED_EDGE('',*,*,#147,.T.);
#100=ORIENTED_EDGE('',*,*,#148,.T.);
#101=ORIENTED_EDGE('',*,*,#149,.F.);
#102=ORIENTED_EDGE('',*,*,#148,.F.);
#103=ORIENTED_EDGE('',*,*,#150,.T.);
#104=ORIENTED_EDGE('',*,*,#151,.T.);
#105=ORIENTED_EDGE('',*,*,#152,.F.);
#106=ORIENTED_EDGE('',*,*,#151,.F.);
#107=ORIENTED_EDGE('',*,*,#153,.T.);
#108=ORIENTED_EDGE('',*,*,#154,.T.);
#109=ORIENTED_EDGE('',*,*,#155,.F.);
#110=ORIENTED_EDGE('',*,*,#154,.F.);
#111=ORIENTED_EDGE('',*,*,#156,.T.);
#112=ORIENTED_EDGE('',*,*,#140,.T.);
#113=ORIENTED_EDGE('',*,*,#157,.F.);
#114=ORIENTED_EDGE('',*,*,#141,.F.);
#115=ORIENTED_EDGE('',*,*,#156,.F.);
#116=ORIENTED_EDGE('',*,*,#153,.F.);
#117=ORIENTED_EDGE('',*,*,#150,.F.);
#118=ORIENTED_EDGE('',*,*,#147,.F.);
#119=ORIENTED_EDGE('',*,*,#144,.F.);
#120=ORIENTED_EDGE('',*,*,#158,.T.);
#121=ORIENTED_EDGE('',*,*,#139,.T.);
#122=ORIENTED_EDGE('',*,*,#143,.T.);
#123=ORIENTED_EDGE('',*,*,#146,.T.);
#124=ORIENTED_EDGE('',*,*,#149,.T.);
#125=ORIENTED_EDGE('',*,*,#152,.T.);
#126=ORIENTED_EDGE('',*,*,#155,.T.);
#127=ORIENTED_EDGE('',*,*,#159,.T.);
#128=ORIENTED_EDGE('',*,*,#158,.F.);
#129=ORIENTED_EDGE('',*,*,#160,.T.);
#130=ORIENTED_EDGE('',*,*,#159,.F.);
#131=ORIENTED_EDGE('',*,*,#157,.T.);
#132=ORIENTED_EDGE('',*,*,#160,.F.);
#133=EDGE_CURVE('',#161,#161,#183,.T.);
#134=EDGE_CURVE('',#162,#162,#184,.T.);
#135=EDGE_CURVE('',#163,#163,#185,.T.);
#136=EDGE_CURVE('',#164,#164,#186,.T.);
#137=EDGE_CURVE('',#165,#165,#187,.T.);
#138=EDGE_CURVE('',#166,#166,#188,.T.);
#139=EDGE_CURVE('',#167,#168,#18,.T.);
#140=EDGE_CURVE('',#169,#167,#19,.T.);
#141=EDGE_CURVE('',#169,#170,#20,.T.);
#142=EDGE_CURVE('',#170,#168,#21,.T.);
#143=EDGE_CURVE('',#168,#171,#22,.T.);
#144=EDGE_CURVE('',#170,#172,#23,.T.);
#145=EDGE_CURVE('',#172,#171,#24,.T.);
#146=EDGE_CURVE('',#171,#173,#25,.T.);
#147=EDGE_CURVE('',#172,#174,#26,.T.);
#148=EDGE_CURVE('',#174,#173,#27,.T.);
#149=EDGE_CURVE('',#173,#175,#28,.T.);
#150=EDGE_CURVE('',#174,#176,#29,.T.);
#151=EDGE_CURVE('',#176,#175,#30,.T.);
#152=EDGE_CURVE('',#175,#177,#31,.T.);
#153=EDGE_CURVE('',#176,#178,#32,.T.);
#154=EDGE_CURVE('',#178,#177,#33,.T.);
#155=EDGE_CURVE('',#177,#167,#34,.T.);
#156=EDGE_CURVE('',#178,#169,#35,.T.);
#157=EDGE_CURVE('',#179,#179,#189,.T.);
#158=EDGE_CURVE('',#180,#180,#190,.T.);
#159=EDGE_CURVE('',#181,#181,#191,.T.);
#160=EDGE_CURVE('',#182,#182,#192,.T.);
#161=VERTEX_POINT('',#463);
#162=VERTEX_POINT('',#466);
#163=VERTEX_POINT('',#469);
#164=VERTEX_POINT('',#472);
#165=VERTEX_POINT('',#475);
#166=VERTEX_POINT('',#478);
#167=VERTEX_POINT('',#483);
#168=VERTEX_POINT('',#484);
#169=VERTEX_POINT('',#486);
#170=VERTEX_POINT('',#488);
#171=VERTEX_POINT('',#492);
#172=VERTEX_POINT('',#494);
#173=VERTEX_POINT('',#498);
#174=VERTEX_POINT('',#500);
#175=VERTEX_POINT('',#504);
#176=VERTEX_POINT('',#506);
#177=VERTEX_POINT('',#510);
#178=VERTEX_POINT('',#512);
#179=VERTEX_POINT('',#519);
#180=VERTEX_POINT('',#522);
#181=VERTEX_POINT('',#525);
#182=VERTEX_POINT('',#528);
#183=CIRCLE('',#348,3.3865);
#184=CIRCLE('',#350,4.);
#185=CIRCLE('',#352,4.);
#186=CIRCLE('',#354,3.3865);
#187=CIRCLE('',#356,1.75);
#188=CIRCLE('',#358,1.75);
#189=CIRCLE('',#368,4.);
#190=CIRCLE('',#370,4.);
#191=CIRCLE('',#372,3.4585);
#192=CIRCLE('',#374,3.4585);
#193=EDGE_LOOP('',(#77));
#194=EDGE_LOOP('',(#78));
#195=EDGE_LOOP('',(#79));
#196=EDGE_LOOP('',(#80));
#197=EDGE_LOOP('',(#81));
#198=EDGE_LOOP('',(#82));
#199=EDGE_LOOP('',(#83));
#200=EDGE_LOOP('',(#84));
#201=EDGE_LOOP('',(#85));
#202=EDGE_LOOP('',(#86));
#203=EDGE_LOOP('',(#87));
#204=EDGE_LOOP('',(#88));
#205=EDGE_LOOP('',(#89,#90,#91,#92));
#206=EDGE_LOOP('',(#93,#94,#95,#96));
#207=EDGE_LOOP('',(#97,#98,#99,#100));
#208=EDGE_LOOP('',(#101,#102,#103,#104));
#209=EDGE_LOOP('',(#105,#106,#107,#108));
#210=EDGE_LOOP('',(#109,#110,#111,#112));
#211=EDGE_LOOP('',(#113));
#212=EDGE_LOOP('',(#114,#115,#116,#117,#118,#119));
#213=EDGE_LOOP('',(#120));
#214=EDGE_LOOP('',(#121,#122,#123,#124,#125,#126));
#215=EDGE_LOOP('',(#127));
#216=EDGE_LOOP('',(#128));
#217=EDGE_LOOP('',(#129));
#218=EDGE_LOOP('',(#130));
#219=EDGE_LOOP('',(#131));
#220=EDGE_LOOP('',(#132));
#221=FACE_BOUND('',#193,.T.);
#222=FACE_BOUND('',#194,.T.);
#223=FACE_BOUND('',#195,.T.);
#224=FACE_BOUND('',#196,.T.);
#225=FACE_BOUND('',#197,.T.);
#226=FACE_BOUND('',#198,.T.);
#227=FACE_BOUND('',#199,.T.);
#228=FACE_BOUND('',#200,.T.);
#229=FACE_BOUND('',#201,.T.);
#230=FACE_BOUND('',#202,.T.);
#231=FACE_BOUND('',#203,.T.);
#232=FACE_BOUND('',#204,.T.);
#233=FACE_BOUND('',#205,.T.);
#234=FACE_BOUND('',#206,.T.);
#235=FACE_BOUND('',#207,.T.);
#236=FACE_BOUND('',#208,.T.);
#237=FACE_BOUND('',#209,.T.);
#238=FACE_BOUND('',#210,.T.);
#239=FACE_BOUND('',#211,.T.);
#240=FACE_BOUND('',#212,.T.);
#241=FACE_BOUND('',#213,.T.);
#242=FACE_BOUND('',#214,.T.);
#243=FACE_BOUND('',#215,.T.);
#244=FACE_BOUND('',#216,.T.);
#245=FACE_BOUND('',#217,.T.);
#246=FACE_BOUND('',#218,.T.);
#247=FACE_BOUND('',#219,.T.);
#248=FACE_BOUND('',#220,.T.);
#249=PLANE('',#347);
#250=PLANE('',#355);
#251=PLANE('',#359);
#252=PLANE('',#361);
#253=PLANE('',#362);
#254=PLANE('',#363);
#255=PLANE('',#364);
#256=PLANE('',#365);
#257=PLANE('',#366);
#258=PLANE('',#367);
#259=PLANE('',#369);
#260=STYLED_ITEM('',(#268),#318);
#261=STYLED_ITEM('',(#269),#319);
#262=STYLED_ITEM('',(#270),#320);
#263=STYLED_ITEM('',(#271),#321);
#264=STYLED_ITEM('',(#272),#322);
#265=STYLED_ITEM('',(#273),#323);
#266=STYLED_ITEM('',(#274),#324);
#267=STYLED_ITEM('',(#275),#339);
#268=PRESENTATION_STYLE_ASSIGNMENT((#276));
#269=PRESENTATION_STYLE_ASSIGNMENT((#277));
#270=PRESENTATION_STYLE_ASSIGNMENT((#278));
#271=PRESENTATION_STYLE_ASSIGNMENT((#279));
#272=PRESENTATION_STYLE_ASSIGNMENT((#280));
#273=PRESENTATION_STYLE_ASSIGNMENT((#281));
#274=PRESENTATION_STYLE_ASSIGNMENT((#282));
#275=PRESENTATION_STYLE_ASSIGNMENT((#283));
#276=SURFACE_STYLE_USAGE(.BOTH.,#284);
#277=SURFACE_STYLE_USAGE(.BOTH.,#285);
#278=SURFACE_STYLE_USAGE(.BOTH.,#286);
#279=SURFACE_STYLE_USAGE(.BOTH.,#287);
#280=SURFACE_STYLE_USAGE(.BOTH.,#288);
#281=SURFACE_STYLE_USAGE(.BOTH.,#289);
#282=SURFACE_STYLE_USAGE(.BOTH.,#290);
#283=SURFACE_STYLE_USAGE(.BOTH.,#291);
#284=SURFACE_SIDE_STYLE('',(#292));
#285=SURFACE_SIDE_STYLE('',(#293));
#286=SURFACE_SIDE_STYLE('',(#294));
#287=SURFACE_SIDE_STYLE('',(#295));
#288=SURFACE_SIDE_STYLE('',(#296));
#289=SURFACE_SIDE_STYLE('',(#297));
#290=SURFACE_SIDE_STYLE('',(#298));
#291=SURFACE_SIDE_STYLE('',(#299));
#292=SURFACE_STYLE_FILL_AREA(#300);
#293=SURFACE_STYLE_FILL_AREA(#301);
#294=SURFACE_STYLE_FILL_AREA(#302);
#295=SURFACE_STYLE_FILL_AREA(#303);
#296=SURFACE_STYLE_FILL_AREA(#304);
#297=SURFACE_STYLE_FILL_AREA(#305);
#298=SURFACE_STYLE_FILL_AREA(#306);
#299=SURFACE_STYLE_FILL_AREA(#307);
#300=FILL_AREA_STYLE('',(#308));
#301=FILL_AREA_STYLE('',(#309));
#302=FILL_AREA_STYLE('',(#310));
#303=FILL_AREA_STYLE('',(#311));
#304=FILL_AREA_STYLE('',(#312));
#305=FILL_AREA_STYLE('',(#313));
#306=FILL_AREA_STYLE('',(#314));
#307=FILL_AREA_STYLE('',(#315));
#308=FILL_AREA_STYLE_COLOUR('',#316);
#309=FILL_AREA_STYLE_COLOUR('',#316);
#310=FILL_AREA_STYLE_COLOUR('',#316);
#311=FILL_AREA_STYLE_COLOUR('',#316);
#312=FILL_AREA_STYLE_COLOUR('',#316);
#313=FILL_AREA_STYLE_COLOUR('',#317);
#314=FILL_AREA_STYLE_COLOUR('',#317);
#315=FILL_AREA_STYLE_COLOUR('',#316);
#316=COLOUR_RGB('',0.689999997615814,0.689999997615814,0.689999997615814);
#317=COLOUR_RGB('',0.53700000047684,0.5799999833107,0.58799999952316);
#318=ADVANCED_FACE('',(#221),#249,.F.);
#319=ADVANCED_FACE('',(#222,#223),#73,.T.);
#320=ADVANCED_FACE('',(#224,#225),#70,.T.);
#321=ADVANCED_FACE('',(#226,#227),#74,.T.);
#322=ADVANCED_FACE('',(#228,#229),#250,.F.);
#323=ADVANCED_FACE('',(#230,#231),#71,.T.);
#324=ADVANCED_FACE('',(#232),#251,.F.);
#325=ADVANCED_FACE('',(#233),#252,.T.);
#326=ADVANCED_FACE('',(#234),#253,.T.);
#327=ADVANCED_FACE('',(#235),#254,.T.);
#328=ADVANCED_FACE('',(#236),#255,.T.);
#329=ADVANCED_FACE('',(#237),#256,.T.);
#330=ADVANCED_FACE('',(#238),#257,.T.);
#331=ADVANCED_FACE('',(#239,#240),#258,.F.);
#332=ADVANCED_FACE('',(#241,#242),#259,.T.);
#333=ADVANCED_FACE('',(#243,#244),#75,.F.);
#334=ADVANCED_FACE('',(#245,#246),#72,.F.);
#335=ADVANCED_FACE('',(#247,#248),#76,.F.);
#336=CLOSED_SHELL('',(#318,#319,#320,#321,#322,#323,#324));
#337=CLOSED_SHELL('',(#325,#326,#327,#328,#329,#330,#331,#332,#333,#334,
#335));
#338=MANIFOLD_SOLID_BREP('150390 SIEN-M8B-PO-K-Lp---(4_0)',#336);
#339=MANIFOLD_SOLID_BREP('DIN-439A -M8x1(F)',#337);
#340=SHAPE_DEFINITION_REPRESENTATION(#542,#343);
#341=SHAPE_DEFINITION_REPRESENTATION(#543,#344);
#342=SHAPE_DEFINITION_REPRESENTATION(#545,#345);
#343=SHAPE_REPRESENTATION('150390 SIEN-M8B-PO-K-L---(4_0)',(#346,#360,#376,
#377),#533);
#344=SHAPE_REPRESENTATION('150390 SIEN-M8B-PO-K-Lp---(4_0)',(#346),#534);
#345=SHAPE_REPRESENTATION('DIN-439A -M8x1(F)',(#346),#535);
#346=AXIS2_PLACEMENT_3D('',#460,#378,#379);
#347=AXIS2_PLACEMENT_3D('',#461,#380,#381);
#348=AXIS2_PLACEMENT_3D('',#462,#382,#383);
#349=AXIS2_PLACEMENT_3D('',#464,#384,#385);
#350=AXIS2_PLACEMENT_3D('',#465,#386,#387);
#351=AXIS2_PLACEMENT_3D('',#467,#388,#389);
#352=AXIS2_PLACEMENT_3D('',#468,#390,#391);
#353=AXIS2_PLACEMENT_3D('',#470,#392,#393);
#354=AXIS2_PLACEMENT_3D('',#471,#394,#395);
#355=AXIS2_PLACEMENT_3D('',#473,#396,#397);
#356=AXIS2_PLACEMENT_3D('',#474,#398,#399);
#357=AXIS2_PLACEMENT_3D('',#476,#400,#401);
#358=AXIS2_PLACEMENT_3D('',#477,#402,#403);
#359=AXIS2_PLACEMENT_3D('',#479,#404,#405);
#360=AXIS2_PLACEMENT_3D('',#480,#406,#407);
#361=AXIS2_PLACEMENT_3D('',#481,#408,#409);
#362=AXIS2_PLACEMENT_3D('',#490,#414,#415);
#363=AXIS2_PLACEMENT_3D('',#496,#419,#420);
#364=AXIS2_PLACEMENT_3D('',#502,#424,#425);
#365=AXIS2_PLACEMENT_3D('',#508,#429,#430);
#366=AXIS2_PLACEMENT_3D('',#514,#434,#435);
#367=AXIS2_PLACEMENT_3D('',#517,#438,#439);
#368=AXIS2_PLACEMENT_3D('',#518,#440,#441);
#369=AXIS2_PLACEMENT_3D('',#520,#442,#443);
#370=AXIS2_PLACEMENT_3D('',#521,#444,#445);
#371=AXIS2_PLACEMENT_3D('',#523,#446,#447);
#372=AXIS2_PLACEMENT_3D('',#524,#448,#449);
#373=AXIS2_PLACEMENT_3D('',#526,#450,#451);
#374=AXIS2_PLACEMENT_3D('',#527,#452,#453);
#375=AXIS2_PLACEMENT_3D('',#529,#454,#455);
#376=AXIS2_PLACEMENT_3D('',#530,#456,#457);
#377=AXIS2_PLACEMENT_3D('',#531,#458,#459);
#378=DIRECTION('',(0.,0.,1.));
#379=DIRECTION('',(1.,0.,0.));
#380=DIRECTION('',(1.,0.,0.));
#381=DIRECTION('',(0.,0.,-1.));
#382=DIRECTION('',(1.,0.,0.));
#383=DIRECTION('',(0.,0.,-1.));
#384=DIRECTION('',(1.,0.,0.));
#385=DIRECTION('',(0.,0.,-1.));
#386=DIRECTION('',(1.,0.,0.));
#387=DIRECTION('',(0.,0.,-1.));
#388=DIRECTION('',(1.,0.,0.));
#389=DIRECTION('',(0.,0.,-1.));
#390=DIRECTION('',(1.,0.,0.));
#391=DIRECTION('',(0.,0.,-1.));
#392=DIRECTION('',(-1.,0.,0.));
#393=DIRECTION('',(0.,0.,1.));
#394=DIRECTION('',(1.,0.,0.));
#395=DIRECTION('',(0.,0.,-1.));
#396=DIRECTION('',(-1.,0.,0.));
#397=DIRECTION('',(0.,0.,1.));
#398=DIRECTION('',(1.,0.,0.));
#399=DIRECTION('',(0.,0.,-1.));
#400=DIRECTION('',(1.,0.,0.));
#401=DIRECTION('',(0.,0.,-1.));
#402=DIRECTION('',(1.,0.,0.));
#403=DIRECTION('',(0.,0.,-1.));
#404=DIRECTION('',(-1.,0.,0.));
#405=DIRECTION('',(0.,0.,1.));
#406=DIRECTION('',(-1.,0.,0.));
#407=DIRECTION('',(0.,0.,-1.));
#408=DIRECTION('',(-1.,0.,0.));
#409=DIRECTION('',(0.,0.,1.));
#410=DIRECTION('',(0.,0.,1.));
#411=DIRECTION('',(0.,1.,0.));
#412=DIRECTION('',(0.,0.,1.));
#413=DIRECTION('',(0.,1.,0.));
#414=DIRECTION('',(-0.5,0.,0.866025403784439));
#415=DIRECTION('',(0.866025403784439,0.,0.5));
#416=DIRECTION('',(0.866025403784439,0.,0.5));
#417=DIRECTION('',(0.866025403784439,0.,0.5));
#418=DIRECTION('',(0.,1.,0.));
#419=DIRECTION('',(0.5,0.,0.866025403784439));
#420=DIRECTION('',(0.866025403784439,0.,-0.5));
#421=DIRECTION('',(0.866025403784439,0.,-0.5));
#422=DIRECTION('',(0.866025403784439,0.,-0.5));
#423=DIRECTION('',(0.,1.,0.));
#424=DIRECTION('',(1.,0.,0.));
#425=DIRECTION('',(0.,0.,-1.));
#426=DIRECTION('',(0.,0.,-1.));
#427=DIRECTION('',(0.,0.,-1.));
#428=DIRECTION('',(0.,1.,0.));
#429=DIRECTION('',(0.5,0.,-0.866025403784439));
#430=DIRECTION('',(-0.866025403784439,0.,-0.5));
#431=DIRECTION('',(-0.866025403784439,0.,-0.5));
#432=DIRECTION('',(-0.866025403784439,0.,-0.5));
#433=DIRECTION('',(0.,1.,0.));
#434=DIRECTION('',(-0.5,0.,-0.866025403784439));
#435=DIRECTION('',(-0.866025403784439,0.,0.5));
#436=DIRECTION('',(-0.866025403784439,0.,0.5));
#437=DIRECTION('',(-0.866025403784439,0.,0.5));
#438=DIRECTION('',(0.,1.,0.));
#439=DIRECTION('',(0.,0.,1.));
#440=DIRECTION('',(0.,-1.,0.));
#441=DIRECTION('',(0.,0.,-1.));
#442=DIRECTION('',(0.,1.,0.));
#443=DIRECTION('',(0.,0.,1.));
#444=DIRECTION('',(0.,-1.,0.));
#445=DIRECTION('',(0.,0.,-1.));
#446=DIRECTION('',(0.,1.,0.));
#447=DIRECTION('',(0.,0.,1.));
#448=DIRECTION('',(0.,-1.,0.));
#449=DIRECTION('',(0.,0.,-1.));
#450=DIRECTION('',(0.,-1.,0.));
#451=DIRECTION('',(0.,0.,-1.));
#452=DIRECTION('',(0.,-1.,0.));
#453=DIRECTION('',(0.,0.,-1.));
#454=DIRECTION('',(0.,-1.,0.));
#455=DIRECTION('',(0.,0.,-1.));
#456=DIRECTION('',(0.,1.,0.));
#457=DIRECTION('',(1.,0.,0.));
#458=DIRECTION('',(0.,1.,0.));
#459=DIRECTION('',(1.,0.,0.));
#460=CARTESIAN_POINT('',(0.,0.,0.));
#461=CARTESIAN_POINT('',(0.,0.,0.));
#462=CARTESIAN_POINT('',(0.,0.,0.));
#463=CARTESIAN_POINT('',(0.,0.,-3.3865));
#464=CARTESIAN_POINT('',(0.,0.,0.));
#465=CARTESIAN_POINT('',(0.613500000000003,0.,0.));
#466=CARTESIAN_POINT('',(0.613500000000003,0.,-4.));
#467=CARTESIAN_POINT('',(35.,0.,0.));
#468=CARTESIAN_POINT('',(34.3865,0.,0.));
#469=CARTESIAN_POINT('',(34.3865,0.,-4.));
#470=CARTESIAN_POINT('',(34.3865,0.,0.));
#471=CARTESIAN_POINT('',(35.,0.,0.));
#472=CARTESIAN_POINT('',(35.,0.,-3.3865));
#473=CARTESIAN_POINT('',(35.,3.3865,0.));
#474=CARTESIAN_POINT('',(35.,0.,0.));
#475=CARTESIAN_POINT('',(35.,0.,-1.75));
#476=CARTESIAN_POINT('',(45.,0.,0.));
#477=CARTESIAN_POINT('',(45.,0.,0.));
#478=CARTESIAN_POINT('',(45.,0.,-1.75));
#479=CARTESIAN_POINT('',(45.,1.75,0.));
#480=CARTESIAN_POINT('',(0.,0.,0.));
#481=CARTESIAN_POINT('',(-6.5,-4.,-3.75277674973257));
#482=CARTESIAN_POINT('',(-6.5,0.,-3.75277674973257));
#483=CARTESIAN_POINT('',(-6.5,0.,-3.75277674973257));
#484=CARTESIAN_POINT('',(-6.5,0.,3.75277674973257));
#485=CARTESIAN_POINT('',(-6.5,-4.,-3.75277674973257));
#486=CARTESIAN_POINT('',(-6.5,-4.,-3.75277674973257));
#487=CARTESIAN_POINT('',(-6.5,-4.,-3.75277674973257));
#488=CARTESIAN_POINT('',(-6.5,-4.,3.75277674973257));
#489=CARTESIAN_POINT('',(-6.5,-4.,3.75277674973257));
#490=CARTESIAN_POINT('',(-6.5,-4.,3.75277674973257));
#491=CARTESIAN_POINT('',(-6.5,0.,3.75277674973257));
#492=CARTESIAN_POINT('',(0.,0.,7.50555349946513));
#493=CARTESIAN_POINT('',(-6.5,-4.,3.75277674973257));
#494=CARTESIAN_POINT('',(0.,-4.,7.50555349946513));
#495=CARTESIAN_POINT('',(0.,-4.,7.50555349946513));
#496=CARTESIAN_POINT('',(0.,-4.,7.50555349946513));
#497=CARTESIAN_POINT('',(0.,0.,7.50555349946513));
#498=CARTESIAN_POINT('',(6.5,0.,3.75277674973257));
#499=CARTESIAN_POINT('',(0.,-4.,7.50555349946513));
#500=CARTESIAN_POINT('',(6.5,-4.,3.75277674973257));
#501=CARTESIAN_POINT('',(6.5,-4.,3.75277674973257));
#502=CARTESIAN_POINT('',(6.5,-4.,3.75277674973257));
#503=CARTESIAN_POINT('',(6.5,0.,3.75277674973257));
#504=CARTESIAN_POINT('',(6.5,0.,-3.75277674973257));
#505=CARTESIAN_POINT('',(6.5,-4.,3.75277674973257));
#506=CARTESIAN_POINT('',(6.5,-4.,-3.75277674973257));
#507=CARTESIAN_POINT('',(6.5,-4.,-3.75277674973257));
#508=CARTESIAN_POINT('',(6.5,-4.,-3.75277674973257));
#509=CARTESIAN_POINT('',(6.5,0.,-3.75277674973257));
#510=CARTESIAN_POINT('',(0.,0.,-7.50555349946513));
#511=CARTESIAN_POINT('',(6.5,-4.,-3.75277674973257));
#512=CARTESIAN_POINT('',(0.,-4.,-7.50555349946513));
#513=CARTESIAN_POINT('',(0.,-4.,-7.50555349946513));
#514=CARTESIAN_POINT('',(0.,-4.,-7.50555349946513));
#515=CARTESIAN_POINT('',(0.,0.,-7.50555349946513));
#516=CARTESIAN_POINT('',(0.,-4.,-7.50555349946513));
#517=CARTESIAN_POINT('',(0.,-4.,0.));
#518=CARTESIAN_POINT('',(0.,-4.,0.));
#519=CARTESIAN_POINT('',(0.,-4.,-4.));
#520=CARTESIAN_POINT('',(0.,0.,0.));
#521=CARTESIAN_POINT('',(0.,0.,0.));
#522=CARTESIAN_POINT('',(0.,0.,-4.));
#523=CARTESIAN_POINT('',(0.,0.,0.));
#524=CARTESIAN_POINT('',(0.,-0.5415,0.));
#525=CARTESIAN_POINT('',(0.,-0.5415,-3.4585));
#526=CARTESIAN_POINT('',(0.,-4.,0.));
#527=CARTESIAN_POINT('',(0.,-3.4585,0.));
#528=CARTESIAN_POINT('',(0.,-3.4585,-3.4585));
#529=CARTESIAN_POINT('',(0.,-3.4585,0.));
#530=CARTESIAN_POINT('',(0.,0.,-4.));
#531=CARTESIAN_POINT('',(0.,0.,-8.));
#532=MECHANICAL_DESIGN_GEOMETRIC_PRESENTATION_REPRESENTATION('',(#260,#261,
#262,#263,#264,#265,#266,#267),#533);
#533=(
GEOMETRIC_REPRESENTATION_CONTEXT(3)
GLOBAL_UNCERTAINTY_ASSIGNED_CONTEXT((#536))
GLOBAL_UNIT_ASSIGNED_CONTEXT((#541,#540,#539))
REPRESENTATION_CONTEXT('150390 SIEN-M8B-PO-K-L---(4_0)',
'TOP_LEVEL_ASSEMBLY_PART')
);
#534=(
GEOMETRIC_REPRESENTATION_CONTEXT(3)
GLOBAL_UNCERTAINTY_ASSIGNED_CONTEXT((#537))
GLOBAL_UNIT_ASSIGNED_CONTEXT((#541,#540,#539))
REPRESENTATION_CONTEXT('150390 SIEN-M8B-PO-K-Lp---(4_0)',
'COMPONENT_PART')
);
#535=(
GEOMETRIC_REPRESENTATION_CONTEXT(3)
GLOBAL_UNCERTAINTY_ASSIGNED_CONTEXT((#538))
GLOBAL_UNIT_ASSIGNED_CONTEXT((#541,#540,#539))
REPRESENTATION_CONTEXT('DIN-439A -M8x1(F)','COMPONENT_PART')
);
#536=UNCERTAINTY_MEASURE_WITH_UNIT(LENGTH_MEASURE(0.005),#541,
'DISTANCE_ACCURACY_VALUE','Maximum Tolerance applied to model');
#537=UNCERTAINTY_MEASURE_WITH_UNIT(LENGTH_MEASURE(0.005),#541,
'DISTANCE_ACCURACY_VALUE','Maximum Tolerance applied to model');
#538=UNCERTAINTY_MEASURE_WITH_UNIT(LENGTH_MEASURE(0.005),#541,
'DISTANCE_ACCURACY_VALUE','Maximum Tolerance applied to model');
#539=(
NAMED_UNIT(*)
SI_UNIT($,.STERADIAN.)
SOLID_ANGLE_UNIT()
);
#540=(
NAMED_UNIT(*)
PLANE_ANGLE_UNIT()
SI_UNIT($,.RADIAN.)
);
#541=(
LENGTH_UNIT()
NAMED_UNIT(*)
SI_UNIT(.MILLI.,.METRE.)
);
#542=PRODUCT_DEFINITION_SHAPE('','',#548);
#543=PRODUCT_DEFINITION_SHAPE('','',#549);
#544=PRODUCT_DEFINITION_SHAPE(' ','NAUO PRDDFN',#57);
#545=PRODUCT_DEFINITION_SHAPE('','',#550);
#546=PRODUCT_DEFINITION_SHAPE(' ','NAUO PRDDFN',#58);
#547=PRODUCT_DEFINITION_SHAPE(' ','NAUO PRDDFN',#59);
#548=PRODUCT_DEFINITION('','',#554,#551);
#549=PRODUCT_DEFINITION('','',#555,#552);
#550=PRODUCT_DEFINITION('','',#556,#553);
#551=PRODUCT_DEFINITION_CONTEXT('',#570,'design');
#552=PRODUCT_DEFINITION_CONTEXT('',#570,'design');
#553=PRODUCT_DEFINITION_CONTEXT('',#570,'design');
#554=PRODUCT_DEFINITION_FORMATION_WITH_SPECIFIED_SOURCE('','',#560,
 .NOT_KNOWN.);
#555=PRODUCT_DEFINITION_FORMATION_WITH_SPECIFIED_SOURCE('','',#561,
 .NOT_KNOWN.);
#556=PRODUCT_DEFINITION_FORMATION_WITH_SPECIFIED_SOURCE('','',#562,
 .NOT_KNOWN.);
#557=PRODUCT_RELATED_PRODUCT_CATEGORY('','',(#560));
#558=PRODUCT_RELATED_PRODUCT_CATEGORY('','',(#561));
#559=PRODUCT_RELATED_PRODUCT_CATEGORY('','',(#562));
#560=PRODUCT('150390 SIEN-M8B-PO-K-L---(4_0)',
'150390 SIEN-M8B-PO-K-L---(4_0)','150390 SIEN-M8B-PO-K-L---(4_0)',(#566));
#561=PRODUCT('150390 SIEN-M8B-PO-K-Lp---(4_0)',
'150390 SIEN-M8B-PO-K-Lp---(4_0)','150390 SIEN-M8B-PO-K-Lp---(4_0)',(#567));
#562=PRODUCT('DIN-439A -M8x1(F)','DIN-439A -M8x1(F)',
'DIN-439A -M8x1(F)',(#568));
#563=PRODUCT_CATEGORY('','');
#564=PRODUCT_CATEGORY('','');
#565=PRODUCT_CATEGORY('','');
#566=PRODUCT_CONTEXT('',#570,'mechanical');
#567=PRODUCT_CONTEXT('',#570,'mechanical');
#568=PRODUCT_CONTEXT('',#570,'mechanical');
#569=APPLICATION_PROTOCOL_DEFINITION('international standard',
'automotive_design',2010,#570);
#570=APPLICATION_CONTEXT(
'core data for automotive mechanical design processes');
ENDSEC;
END-ISO-10303-21;
