ISO-10303-21;
HEADER;
/* Generated by software containing ST-Developer
 * from STEP Tools, Inc. (www.steptools.com) 
 */
/* OPTION: using custom renumber hook */

FILE_DESCRIPTION(
/* description */ ('STEP AP214'),
/* implementation_level */ '2;1');

FILE_NAME(
/* name */ '150398_SIEN-M8NB-PO-K-L',
/* time_stamp */ '2024-09-15T06:16:07+02:00',
/* author */ ('License CC BY-ND 4.0'),
/* organization */ ('CADENAS'),
/* preprocessor_version */ 'ST-DEVELOPER v19.3',
/* originating_system */ 'PARTsolutions',
/* authorisation */ '  ');

FILE_SCHEMA (('AUTOMOTIVE_DESIGN {1 0 10303 214 3 1 1}'));
ENDSEC;

DATA;
#10=PROPERTY_DEFINITION_REPRESENTATION(#14,#12);
#11=PROPERTY_DEFINITION_REPRESENTATION(#15,#13);
#12=REPRESENTATION('',(#16),#560);
#13=REPRESENTATION('',(#17),#560);
#14=PROPERTY_DEFINITION('pmi validation property','',#569);
#15=PROPERTY_DEFINITION('pmi validation property','',#569);
#16=VALUE_REPRESENTATION_ITEM('number of annotations',COUNT_MEASURE(0.));
#17=VALUE_REPRESENTATION_ITEM('number of views',COUNT_MEASURE(0.));
#18=LINE('',#509,#36);
#19=LINE('',#512,#37);
#20=LINE('',#514,#38);
#21=LINE('',#516,#39);
#22=LINE('',#518,#40);
#23=LINE('',#520,#41);
#24=LINE('',#522,#42);
#25=LINE('',#524,#43);
#26=LINE('',#526,#44);
#27=LINE('',#528,#45);
#28=LINE('',#530,#46);
#29=LINE('',#532,#47);
#30=LINE('',#534,#48);
#31=LINE('',#536,#49);
#32=LINE('',#538,#50);
#33=LINE('',#540,#51);
#34=LINE('',#542,#52);
#35=LINE('',#543,#53);
#36=VECTOR('',#434,1000.);
#37=VECTOR('',#435,1000.);
#38=VECTOR('',#436,1000.);
#39=VECTOR('',#437,1000.);
#40=VECTOR('',#440,1000.);
#41=VECTOR('',#441,1000.);
#42=VECTOR('',#442,1000.);
#43=VECTOR('',#445,1000.);
#44=VECTOR('',#446,1000.);
#45=VECTOR('',#447,1000.);
#46=VECTOR('',#450,1000.);
#47=VECTOR('',#451,1000.);
#48=VECTOR('',#452,1000.);
#49=VECTOR('',#455,1000.);
#50=VECTOR('',#456,1000.);
#51=VECTOR('',#457,1000.);
#52=VECTOR('',#460,1000.);
#53=VECTOR('',#461,1000.);
#54=CONTEXT_DEPENDENT_SHAPE_REPRESENTATION(#60,#571);
#55=CONTEXT_DEPENDENT_SHAPE_REPRESENTATION(#61,#573);
#56=CONTEXT_DEPENDENT_SHAPE_REPRESENTATION(#62,#574);
#57=NEXT_ASSEMBLY_USAGE_OCCURRENCE('NAUO1',
'150398 SIEN-M8NB-PO-K-Lp---(4_0)','150398 SIEN-M8NB-PO-K-Lp---(4_0)',#575,
#576,'');
#58=NEXT_ASSEMBLY_USAGE_OCCURRENCE('NAUO2','DIN-439A -M8x1(F)',
'DIN-439A -M8x1(F)',#575,#577,'');
#59=NEXT_ASSEMBLY_USAGE_OCCURRENCE('NAUO3','DIN-439A -M8x1(F)',
'DIN-439A -M8x1(F)',#575,#577,'');
#60=(
REPRESENTATION_RELATIONSHIP(' ',' ',#362,#361)
REPRESENTATION_RELATIONSHIP_WITH_TRANSFORMATION(#63)
SHAPE_REPRESENTATION_RELATIONSHIP()
);
#61=(
REPRESENTATION_RELATIONSHIP(' ',' ',#363,#361)
REPRESENTATION_RELATIONSHIP_WITH_TRANSFORMATION(#64)
SHAPE_REPRESENTATION_RELATIONSHIP()
);
#62=(
REPRESENTATION_RELATIONSHIP(' ',' ',#363,#361)
REPRESENTATION_RELATIONSHIP_WITH_TRANSFORMATION(#65)
SHAPE_REPRESENTATION_RELATIONSHIP()
);
#63=ITEM_DEFINED_TRANSFORMATION(' ',' ',#364,#380);
#64=ITEM_DEFINED_TRANSFORMATION(' ',' ',#364,#396);
#65=ITEM_DEFINED_TRANSFORMATION(' ',' ',#364,#397);
#66=SHAPE_REPRESENTATION_RELATIONSHIP('','',#362,#68);
#67=SHAPE_REPRESENTATION_RELATIONSHIP('','',#363,#69);
#68=ADVANCED_BREP_SHAPE_REPRESENTATION('',(#356),#561);
#69=ADVANCED_BREP_SHAPE_REPRESENTATION('',(#357),#562);
#70=CONICAL_SURFACE('',#369,3.3865,0.785398163397449);
#71=CONICAL_SURFACE('',#373,4.,0.785398163397446);
#72=CONICAL_SURFACE('',#391,4.,0.785398163397448);
#73=CONICAL_SURFACE('',#395,3.4585,0.785398163397447);
#74=CYLINDRICAL_SURFACE('',#367,3.3865);
#75=CYLINDRICAL_SURFACE('',#371,4.);
#76=CYLINDRICAL_SURFACE('',#377,1.75);
#77=CYLINDRICAL_SURFACE('',#393,3.4585);
#78=ORIENTED_EDGE('',*,*,#136,.F.);
#79=ORIENTED_EDGE('',*,*,#137,.F.);
#80=ORIENTED_EDGE('',*,*,#136,.T.);
#81=ORIENTED_EDGE('',*,*,#138,.F.);
#82=ORIENTED_EDGE('',*,*,#137,.T.);
#83=ORIENTED_EDGE('',*,*,#139,.F.);
#84=ORIENTED_EDGE('',*,*,#138,.T.);
#85=ORIENTED_EDGE('',*,*,#140,.F.);
#86=ORIENTED_EDGE('',*,*,#139,.T.);
#87=ORIENTED_EDGE('',*,*,#141,.F.);
#88=ORIENTED_EDGE('',*,*,#140,.T.);
#89=ORIENTED_EDGE('',*,*,#142,.F.);
#90=ORIENTED_EDGE('',*,*,#141,.T.);
#91=ORIENTED_EDGE('',*,*,#142,.T.);
#92=ORIENTED_EDGE('',*,*,#143,.F.);
#93=ORIENTED_EDGE('',*,*,#144,.F.);
#94=ORIENTED_EDGE('',*,*,#145,.T.);
#95=ORIENTED_EDGE('',*,*,#146,.T.);
#96=ORIENTED_EDGE('',*,*,#147,.F.);
#97=ORIENTED_EDGE('',*,*,#146,.F.);
#98=ORIENTED_EDGE('',*,*,#148,.T.);
#99=ORIENTED_EDGE('',*,*,#149,.T.);
#100=ORIENTED_EDGE('',*,*,#150,.F.);
#101=ORIENTED_EDGE('',*,*,#149,.F.);
#102=ORIENTED_EDGE('',*,*,#151,.T.);
#103=ORIENTED_EDGE('',*,*,#152,.T.);
#104=ORIENTED_EDGE('',*,*,#153,.F.);
#105=ORIENTED_EDGE('',*,*,#152,.F.);
#106=ORIENTED_EDGE('',*,*,#154,.T.);
#107=ORIENTED_EDGE('',*,*,#155,.T.);
#108=ORIENTED_EDGE('',*,*,#156,.F.);
#109=ORIENTED_EDGE('',*,*,#155,.F.);
#110=ORIENTED_EDGE('',*,*,#157,.T.);
#111=ORIENTED_EDGE('',*,*,#158,.T.);
#112=ORIENTED_EDGE('',*,*,#159,.F.);
#113=ORIENTED_EDGE('',*,*,#158,.F.);
#114=ORIENTED_EDGE('',*,*,#160,.T.);
#115=ORIENTED_EDGE('',*,*,#144,.T.);
#116=ORIENTED_EDGE('',*,*,#161,.F.);
#117=ORIENTED_EDGE('',*,*,#145,.F.);
#118=ORIENTED_EDGE('',*,*,#160,.F.);
#119=ORIENTED_EDGE('',*,*,#157,.F.);
#120=ORIENTED_EDGE('',*,*,#154,.F.);
#121=ORIENTED_EDGE('',*,*,#151,.F.);
#122=ORIENTED_EDGE('',*,*,#148,.F.);
#123=ORIENTED_EDGE('',*,*,#162,.T.);
#124=ORIENTED_EDGE('',*,*,#143,.T.);
#125=ORIENTED_EDGE('',*,*,#147,.T.);
#126=ORIENTED_EDGE('',*,*,#150,.T.);
#127=ORIENTED_EDGE('',*,*,#153,.T.);
#128=ORIENTED_EDGE('',*,*,#156,.T.);
#129=ORIENTED_EDGE('',*,*,#159,.T.);
#130=ORIENTED_EDGE('',*,*,#163,.T.);
#131=ORIENTED_EDGE('',*,*,#162,.F.);
#132=ORIENTED_EDGE('',*,*,#164,.T.);
#133=ORIENTED_EDGE('',*,*,#163,.F.);
#134=ORIENTED_EDGE('',*,*,#161,.T.);
#135=ORIENTED_EDGE('',*,*,#164,.F.);
#136=EDGE_CURVE('',#165,#165,#188,.T.);
#137=EDGE_CURVE('',#166,#166,#189,.T.);
#138=EDGE_CURVE('',#167,#167,#190,.T.);
#139=EDGE_CURVE('',#168,#168,#191,.T.);
#140=EDGE_CURVE('',#169,#169,#192,.T.);
#141=EDGE_CURVE('',#170,#170,#193,.T.);
#142=EDGE_CURVE('',#171,#171,#194,.T.);
#143=EDGE_CURVE('',#172,#173,#18,.T.);
#144=EDGE_CURVE('',#174,#172,#19,.T.);
#145=EDGE_CURVE('',#174,#175,#20,.T.);
#146=EDGE_CURVE('',#175,#173,#21,.T.);
#147=EDGE_CURVE('',#173,#176,#22,.T.);
#148=EDGE_CURVE('',#175,#177,#23,.T.);
#149=EDGE_CURVE('',#177,#176,#24,.T.);
#150=EDGE_CURVE('',#176,#178,#25,.T.);
#151=EDGE_CURVE('',#177,#179,#26,.T.);
#152=EDGE_CURVE('',#179,#178,#27,.T.);
#153=EDGE_CURVE('',#178,#180,#28,.T.);
#154=EDGE_CURVE('',#179,#181,#29,.T.);
#155=EDGE_CURVE('',#181,#180,#30,.T.);
#156=EDGE_CURVE('',#180,#182,#31,.T.);
#157=EDGE_CURVE('',#181,#183,#32,.T.);
#158=EDGE_CURVE('',#183,#182,#33,.T.);
#159=EDGE_CURVE('',#182,#172,#34,.T.);
#160=EDGE_CURVE('',#183,#174,#35,.T.);
#161=EDGE_CURVE('',#184,#184,#195,.T.);
#162=EDGE_CURVE('',#185,#185,#196,.T.);
#163=EDGE_CURVE('',#186,#186,#197,.T.);
#164=EDGE_CURVE('',#187,#187,#198,.T.);
#165=VERTEX_POINT('',#487);
#166=VERTEX_POINT('',#490);
#167=VERTEX_POINT('',#493);
#168=VERTEX_POINT('',#496);
#169=VERTEX_POINT('',#499);
#170=VERTEX_POINT('',#502);
#171=VERTEX_POINT('',#505);
#172=VERTEX_POINT('',#510);
#173=VERTEX_POINT('',#511);
#174=VERTEX_POINT('',#513);
#175=VERTEX_POINT('',#515);
#176=VERTEX_POINT('',#519);
#177=VERTEX_POINT('',#521);
#178=VERTEX_POINT('',#525);
#179=VERTEX_POINT('',#527);
#180=VERTEX_POINT('',#531);
#181=VERTEX_POINT('',#533);
#182=VERTEX_POINT('',#537);
#183=VERTEX_POINT('',#539);
#184=VERTEX_POINT('',#546);
#185=VERTEX_POINT('',#549);
#186=VERTEX_POINT('',#552);
#187=VERTEX_POINT('',#555);
#188=CIRCLE('',#366,3.3865);
#189=CIRCLE('',#368,3.3865);
#190=CIRCLE('',#370,4.);
#191=CIRCLE('',#372,4.);
#192=CIRCLE('',#374,3.3865);
#193=CIRCLE('',#376,1.75);
#194=CIRCLE('',#378,1.75);
#195=CIRCLE('',#388,4.);
#196=CIRCLE('',#390,4.);
#197=CIRCLE('',#392,3.4585);
#198=CIRCLE('',#394,3.4585);
#199=EDGE_LOOP('',(#78));
#200=EDGE_LOOP('',(#79));
#201=EDGE_LOOP('',(#80));
#202=EDGE_LOOP('',(#81));
#203=EDGE_LOOP('',(#82));
#204=EDGE_LOOP('',(#83));
#205=EDGE_LOOP('',(#84));
#206=EDGE_LOOP('',(#85));
#207=EDGE_LOOP('',(#86));
#208=EDGE_LOOP('',(#87));
#209=EDGE_LOOP('',(#88));
#210=EDGE_LOOP('',(#89));
#211=EDGE_LOOP('',(#90));
#212=EDGE_LOOP('',(#91));
#213=EDGE_LOOP('',(#92,#93,#94,#95));
#214=EDGE_LOOP('',(#96,#97,#98,#99));
#215=EDGE_LOOP('',(#100,#101,#102,#103));
#216=EDGE_LOOP('',(#104,#105,#106,#107));
#217=EDGE_LOOP('',(#108,#109,#110,#111));
#218=EDGE_LOOP('',(#112,#113,#114,#115));
#219=EDGE_LOOP('',(#116));
#220=EDGE_LOOP('',(#117,#118,#119,#120,#121,#122));
#221=EDGE_LOOP('',(#123));
#222=EDGE_LOOP('',(#124,#125,#126,#127,#128,#129));
#223=EDGE_LOOP('',(#130));
#224=EDGE_LOOP('',(#131));
#225=EDGE_LOOP('',(#132));
#226=EDGE_LOOP('',(#133));
#227=EDGE_LOOP('',(#134));
#228=EDGE_LOOP('',(#135));
#229=FACE_BOUND('',#199,.T.);
#230=FACE_BOUND('',#200,.T.);
#231=FACE_BOUND('',#201,.T.);
#232=FACE_BOUND('',#202,.T.);
#233=FACE_BOUND('',#203,.T.);
#234=FACE_BOUND('',#204,.T.);
#235=FACE_BOUND('',#205,.T.);
#236=FACE_BOUND('',#206,.T.);
#237=FACE_BOUND('',#207,.T.);
#238=FACE_BOUND('',#208,.T.);
#239=FACE_BOUND('',#209,.T.);
#240=FACE_BOUND('',#210,.T.);
#241=FACE_BOUND('',#211,.T.);
#242=FACE_BOUND('',#212,.T.);
#243=FACE_BOUND('',#213,.T.);
#244=FACE_BOUND('',#214,.T.);
#245=FACE_BOUND('',#215,.T.);
#246=FACE_BOUND('',#216,.T.);
#247=FACE_BOUND('',#217,.T.);
#248=FACE_BOUND('',#218,.T.);
#249=FACE_BOUND('',#219,.T.);
#250=FACE_BOUND('',#220,.T.);
#251=FACE_BOUND('',#221,.T.);
#252=FACE_BOUND('',#222,.T.);
#253=FACE_BOUND('',#223,.T.);
#254=FACE_BOUND('',#224,.T.);
#255=FACE_BOUND('',#225,.T.);
#256=FACE_BOUND('',#226,.T.);
#257=FACE_BOUND('',#227,.T.);
#258=FACE_BOUND('',#228,.T.);
#259=PLANE('',#365);
#260=PLANE('',#375);
#261=PLANE('',#379);
#262=PLANE('',#381);
#263=PLANE('',#382);
#264=PLANE('',#383);
#265=PLANE('',#384);
#266=PLANE('',#385);
#267=PLANE('',#386);
#268=PLANE('',#387);
#269=PLANE('',#389);
#270=STYLED_ITEM('',(#279),#335);
#271=STYLED_ITEM('',(#280),#336);
#272=STYLED_ITEM('',(#281),#337);
#273=STYLED_ITEM('',(#282),#338);
#274=STYLED_ITEM('',(#283),#339);
#275=STYLED_ITEM('',(#284),#340);
#276=STYLED_ITEM('',(#285),#341);
#277=STYLED_ITEM('',(#286),#342);
#278=STYLED_ITEM('',(#287),#357);
#279=PRESENTATION_STYLE_ASSIGNMENT((#288));
#280=PRESENTATION_STYLE_ASSIGNMENT((#289));
#281=PRESENTATION_STYLE_ASSIGNMENT((#290));
#282=PRESENTATION_STYLE_ASSIGNMENT((#291));
#283=PRESENTATION_STYLE_ASSIGNMENT((#292));
#284=PRESENTATION_STYLE_ASSIGNMENT((#293));
#285=PRESENTATION_STYLE_ASSIGNMENT((#294));
#286=PRESENTATION_STYLE_ASSIGNMENT((#295));
#287=PRESENTATION_STYLE_ASSIGNMENT((#296));
#288=SURFACE_STYLE_USAGE(.BOTH.,#297);
#289=SURFACE_STYLE_USAGE(.BOTH.,#298);
#290=SURFACE_STYLE_USAGE(.BOTH.,#299);
#291=SURFACE_STYLE_USAGE(.BOTH.,#300);
#292=SURFACE_STYLE_USAGE(.BOTH.,#301);
#293=SURFACE_STYLE_USAGE(.BOTH.,#302);
#294=SURFACE_STYLE_USAGE(.BOTH.,#303);
#295=SURFACE_STYLE_USAGE(.BOTH.,#304);
#296=SURFACE_STYLE_USAGE(.BOTH.,#305);
#297=SURFACE_SIDE_STYLE('',(#306));
#298=SURFACE_SIDE_STYLE('',(#307));
#299=SURFACE_SIDE_STYLE('',(#308));
#300=SURFACE_SIDE_STYLE('',(#309));
#301=SURFACE_SIDE_STYLE('',(#310));
#302=SURFACE_SIDE_STYLE('',(#311));
#303=SURFACE_SIDE_STYLE('',(#312));
#304=SURFACE_SIDE_STYLE('',(#313));
#305=SURFACE_SIDE_STYLE('',(#314));
#306=SURFACE_STYLE_FILL_AREA(#315);
#307=SURFACE_STYLE_FILL_AREA(#316);
#308=SURFACE_STYLE_FILL_AREA(#317);
#309=SURFACE_STYLE_FILL_AREA(#318);
#310=SURFACE_STYLE_FILL_AREA(#319);
#311=SURFACE_STYLE_FILL_AREA(#320);
#312=SURFACE_STYLE_FILL_AREA(#321);
#313=SURFACE_STYLE_FILL_AREA(#322);
#314=SURFACE_STYLE_FILL_AREA(#323);
#315=FILL_AREA_STYLE('',(#324));
#316=FILL_AREA_STYLE('',(#325));
#317=FILL_AREA_STYLE('',(#326));
#318=FILL_AREA_STYLE('',(#327));
#319=FILL_AREA_STYLE('',(#328));
#320=FILL_AREA_STYLE('',(#329));
#321=FILL_AREA_STYLE('',(#330));
#322=FILL_AREA_STYLE('',(#331));
#323=FILL_AREA_STYLE('',(#332));
#324=FILL_AREA_STYLE_COLOUR('',#333);
#325=FILL_AREA_STYLE_COLOUR('',#333);
#326=FILL_AREA_STYLE_COLOUR('',#333);
#327=FILL_AREA_STYLE_COLOUR('',#333);
#328=FILL_AREA_STYLE_COLOUR('',#333);
#329=FILL_AREA_STYLE_COLOUR('',#333);
#330=FILL_AREA_STYLE_COLOUR('',#334);
#331=FILL_AREA_STYLE_COLOUR('',#334);
#332=FILL_AREA_STYLE_COLOUR('',#333);
#333=COLOUR_RGB('',0.689999997615814,0.689999997615814,0.689999997615814);
#334=COLOUR_RGB('',0.53700000047684,0.5799999833107,0.58799999952316);
#335=ADVANCED_FACE('',(#229),#259,.F.);
#336=ADVANCED_FACE('',(#230,#231),#74,.T.);
#337=ADVANCED_FACE('',(#232,#233),#70,.T.);
#338=ADVANCED_FACE('',(#234,#235),#75,.T.);
#339=ADVANCED_FACE('',(#236,#237),#71,.T.);
#340=ADVANCED_FACE('',(#238,#239),#260,.F.);
#341=ADVANCED_FACE('',(#240,#241),#76,.T.);
#342=ADVANCED_FACE('',(#242),#261,.F.);
#343=ADVANCED_FACE('',(#243),#262,.T.);
#344=ADVANCED_FACE('',(#244),#263,.T.);
#345=ADVANCED_FACE('',(#245),#264,.T.);
#346=ADVANCED_FACE('',(#246),#265,.T.);
#347=ADVANCED_FACE('',(#247),#266,.T.);
#348=ADVANCED_FACE('',(#248),#267,.T.);
#349=ADVANCED_FACE('',(#249,#250),#268,.F.);
#350=ADVANCED_FACE('',(#251,#252),#269,.T.);
#351=ADVANCED_FACE('',(#253,#254),#72,.F.);
#352=ADVANCED_FACE('',(#255,#256),#77,.F.);
#353=ADVANCED_FACE('',(#257,#258),#73,.F.);
#354=CLOSED_SHELL('',(#335,#336,#337,#338,#339,#340,#341,#342));
#355=CLOSED_SHELL('',(#343,#344,#345,#346,#347,#348,#349,#350,#351,#352,
#353));
#356=MANIFOLD_SOLID_BREP('150398 SIEN-M8NB-PO-K-Lp---(4_0)',#354);
#357=MANIFOLD_SOLID_BREP('DIN-439A -M8x1(F)',#355);
#358=SHAPE_DEFINITION_REPRESENTATION(#569,#361);
#359=SHAPE_DEFINITION_REPRESENTATION(#570,#362);
#360=SHAPE_DEFINITION_REPRESENTATION(#572,#363);
#361=SHAPE_REPRESENTATION('150398 SIEN-M8NB-PO-K-L---(4_0)',(#364,#380,
#396,#397),#560);
#362=SHAPE_REPRESENTATION('150398 SIEN-M8NB-PO-K-Lp---(4_0)',(#364),#561);
#363=SHAPE_REPRESENTATION('DIN-439A -M8x1(F)',(#364),#562);
#364=AXIS2_PLACEMENT_3D('',#484,#398,#399);
#365=AXIS2_PLACEMENT_3D('',#485,#400,#401);
#366=AXIS2_PLACEMENT_3D('',#486,#402,#403);
#367=AXIS2_PLACEMENT_3D('',#488,#404,#405);
#368=AXIS2_PLACEMENT_3D('',#489,#406,#407);
#369=AXIS2_PLACEMENT_3D('',#491,#408,#409);
#370=AXIS2_PLACEMENT_3D('',#492,#410,#411);
#371=AXIS2_PLACEMENT_3D('',#494,#412,#413);
#372=AXIS2_PLACEMENT_3D('',#495,#414,#415);
#373=AXIS2_PLACEMENT_3D('',#497,#416,#417);
#374=AXIS2_PLACEMENT_3D('',#498,#418,#419);
#375=AXIS2_PLACEMENT_3D('',#500,#420,#421);
#376=AXIS2_PLACEMENT_3D('',#501,#422,#423);
#377=AXIS2_PLACEMENT_3D('',#503,#424,#425);
#378=AXIS2_PLACEMENT_3D('',#504,#426,#427);
#379=AXIS2_PLACEMENT_3D('',#506,#428,#429);
#380=AXIS2_PLACEMENT_3D('',#507,#430,#431);
#381=AXIS2_PLACEMENT_3D('',#508,#432,#433);
#382=AXIS2_PLACEMENT_3D('',#517,#438,#439);
#383=AXIS2_PLACEMENT_3D('',#523,#443,#444);
#384=AXIS2_PLACEMENT_3D('',#529,#448,#449);
#385=AXIS2_PLACEMENT_3D('',#535,#453,#454);
#386=AXIS2_PLACEMENT_3D('',#541,#458,#459);
#387=AXIS2_PLACEMENT_3D('',#544,#462,#463);
#388=AXIS2_PLACEMENT_3D('',#545,#464,#465);
#389=AXIS2_PLACEMENT_3D('',#547,#466,#467);
#390=AXIS2_PLACEMENT_3D('',#548,#468,#469);
#391=AXIS2_PLACEMENT_3D('',#550,#470,#471);
#392=AXIS2_PLACEMENT_3D('',#551,#472,#473);
#393=AXIS2_PLACEMENT_3D('',#553,#474,#475);
#394=AXIS2_PLACEMENT_3D('',#554,#476,#477);
#395=AXIS2_PLACEMENT_3D('',#556,#478,#479);
#396=AXIS2_PLACEMENT_3D('',#557,#480,#481);
#397=AXIS2_PLACEMENT_3D('',#558,#482,#483);
#398=DIRECTION('',(0.,0.,1.));
#399=DIRECTION('',(1.,0.,0.));
#400=DIRECTION('',(1.,0.,0.));
#401=DIRECTION('',(0.,0.,-1.));
#402=DIRECTION('',(1.,0.,0.));
#403=DIRECTION('',(0.,0.,-1.));
#404=DIRECTION('',(1.,0.,0.));
#405=DIRECTION('',(0.,0.,-1.));
#406=DIRECTION('',(1.,0.,0.));
#407=DIRECTION('',(0.,0.,-1.));
#408=DIRECTION('',(1.,0.,0.));
#409=DIRECTION('',(0.,0.,-1.));
#410=DIRECTION('',(1.,0.,0.));
#411=DIRECTION('',(0.,0.,-1.));
#412=DIRECTION('',(1.,0.,0.));
#413=DIRECTION('',(0.,0.,-1.));
#414=DIRECTION('',(1.,0.,0.));
#415=DIRECTION('',(0.,0.,-1.));
#416=DIRECTION('',(-1.,0.,0.));
#417=DIRECTION('',(0.,0.,1.));
#418=DIRECTION('',(1.,0.,0.));
#419=DIRECTION('',(0.,0.,-1.));
#420=DIRECTION('',(-1.,0.,0.));
#421=DIRECTION('',(0.,0.,1.));
#422=DIRECTION('',(1.,0.,0.));
#423=DIRECTION('',(0.,0.,-1.));
#424=DIRECTION('',(1.,0.,0.));
#425=DIRECTION('',(0.,0.,-1.));
#426=DIRECTION('',(1.,0.,0.));
#427=DIRECTION('',(0.,0.,-1.));
#428=DIRECTION('',(-1.,0.,0.));
#429=DIRECTION('',(0.,0.,1.));
#430=DIRECTION('',(-1.,0.,0.));
#431=DIRECTION('',(0.,0.,-1.));
#432=DIRECTION('',(-1.,0.,0.));
#433=DIRECTION('',(0.,0.,1.));
#434=DIRECTION('',(0.,0.,1.));
#435=DIRECTION('',(0.,1.,0.));
#436=DIRECTION('',(0.,0.,1.));
#437=DIRECTION('',(0.,1.,0.));
#438=DIRECTION('',(-0.5,0.,0.866025403784439));
#439=DIRECTION('',(0.866025403784439,0.,0.5));
#440=DIRECTION('',(0.866025403784439,0.,0.5));
#441=DIRECTION('',(0.866025403784439,0.,0.5));
#442=DIRECTION('',(0.,1.,0.));
#443=DIRECTION('',(0.5,0.,0.866025403784439));
#444=DIRECTION('',(0.866025403784439,0.,-0.5));
#445=DIRECTION('',(0.866025403784439,0.,-0.5));
#446=DIRECTION('',(0.866025403784439,0.,-0.5));
#447=DIRECTION('',(0.,1.,0.));
#448=DIRECTION('',(1.,0.,0.));
#449=DIRECTION('',(0.,0.,-1.));
#450=DIRECTION('',(0.,0.,-1.));
#451=DIRECTION('',(0.,0.,-1.));
#452=DIRECTION('',(0.,1.,0.));
#453=DIRECTION('',(0.5,0.,-0.866025403784439));
#454=DIRECTION('',(-0.866025403784439,0.,-0.5));
#455=DIRECTION('',(-0.866025403784439,0.,-0.5));
#456=DIRECTION('',(-0.866025403784439,0.,-0.5));
#457=DIRECTION('',(0.,1.,0.));
#458=DIRECTION('',(-0.5,0.,-0.866025403784439));
#459=DIRECTION('',(-0.866025403784439,0.,0.5));
#460=DIRECTION('',(-0.866025403784439,0.,0.5));
#461=DIRECTION('',(-0.866025403784439,0.,0.5));
#462=DIRECTION('',(0.,1.,0.));
#463=DIRECTION('',(0.,0.,1.));
#464=DIRECTION('',(0.,-1.,0.));
#465=DIRECTION('',(0.,0.,-1.));
#466=DIRECTION('',(0.,1.,0.));
#467=DIRECTION('',(0.,0.,1.));
#468=DIRECTION('',(0.,-1.,0.));
#469=DIRECTION('',(0.,0.,-1.));
#470=DIRECTION('',(0.,1.,0.));
#471=DIRECTION('',(0.,0.,1.));
#472=DIRECTION('',(0.,-1.,0.));
#473=DIRECTION('',(0.,0.,-1.));
#474=DIRECTION('',(0.,-1.,0.));
#475=DIRECTION('',(0.,0.,-1.));
#476=DIRECTION('',(0.,-1.,0.));
#477=DIRECTION('',(0.,0.,-1.));
#478=DIRECTION('',(0.,-1.,0.));
#479=DIRECTION('',(0.,0.,-1.));
#480=DIRECTION('',(0.,1.,0.));
#481=DIRECTION('',(1.,0.,0.));
#482=DIRECTION('',(0.,1.,0.));
#483=DIRECTION('',(1.,0.,0.));
#484=CARTESIAN_POINT('',(0.,0.,0.));
#485=CARTESIAN_POINT('',(-4.,0.,0.));
#486=CARTESIAN_POINT('',(-4.,0.,0.));
#487=CARTESIAN_POINT('',(-4.,0.,-3.3865));
#488=CARTESIAN_POINT('',(31.,0.,0.));
#489=CARTESIAN_POINT('',(0.,0.,0.));
#490=CARTESIAN_POINT('',(0.,0.,-3.3865));
#491=CARTESIAN_POINT('',(0.,0.,0.));
#492=CARTESIAN_POINT('',(0.613499999999999,0.,0.));
#493=CARTESIAN_POINT('',(0.613499999999999,0.,-4.));
#494=CARTESIAN_POINT('',(31.,0.,0.));
#495=CARTESIAN_POINT('',(30.3865,0.,0.));
#496=CARTESIAN_POINT('',(30.3865,0.,-4.));
#497=CARTESIAN_POINT('',(30.3865,0.,0.));
#498=CARTESIAN_POINT('',(31.,0.,0.));
#499=CARTESIAN_POINT('',(31.,0.,-3.3865));
#500=CARTESIAN_POINT('',(31.,3.3865,0.));
#501=CARTESIAN_POINT('',(31.,0.,0.));
#502=CARTESIAN_POINT('',(31.,0.,-1.75));
#503=CARTESIAN_POINT('',(41.,0.,0.));
#504=CARTESIAN_POINT('',(41.,0.,0.));
#505=CARTESIAN_POINT('',(41.,0.,-1.75));
#506=CARTESIAN_POINT('',(41.,1.75,0.));
#507=CARTESIAN_POINT('',(0.,0.,0.));
#508=CARTESIAN_POINT('',(-6.5,-4.,-3.75277674973257));
#509=CARTESIAN_POINT('',(-6.5,0.,-3.75277674973257));
#510=CARTESIAN_POINT('',(-6.5,0.,-3.75277674973257));
#511=CARTESIAN_POINT('',(-6.5,0.,3.75277674973257));
#512=CARTESIAN_POINT('',(-6.5,-4.,-3.75277674973257));
#513=CARTESIAN_POINT('',(-6.5,-4.,-3.75277674973257));
#514=CARTESIAN_POINT('',(-6.5,-4.,-3.75277674973257));
#515=CARTESIAN_POINT('',(-6.5,-4.,3.75277674973257));
#516=CARTESIAN_POINT('',(-6.5,-4.,3.75277674973257));
#517=CARTESIAN_POINT('',(-6.5,-4.,3.75277674973257));
#518=CARTESIAN_POINT('',(-6.5,0.,3.75277674973257));
#519=CARTESIAN_POINT('',(0.,0.,7.50555349946513));
#520=CARTESIAN_POINT('',(-6.5,-4.,3.75277674973257));
#521=CARTESIAN_POINT('',(0.,-4.,7.50555349946513));
#522=CARTESIAN_POINT('',(0.,-4.,7.50555349946513));
#523=CARTESIAN_POINT('',(0.,-4.,7.50555349946513));
#524=CARTESIAN_POINT('',(0.,0.,7.50555349946513));
#525=CARTESIAN_POINT('',(6.5,0.,3.75277674973257));
#526=CARTESIAN_POINT('',(0.,-4.,7.50555349946513));
#527=CARTESIAN_POINT('',(6.5,-4.,3.75277674973257));
#528=CARTESIAN_POINT('',(6.5,-4.,3.75277674973257));
#529=CARTESIAN_POINT('',(6.5,-4.,3.75277674973257));
#530=CARTESIAN_POINT('',(6.5,0.,3.75277674973257));
#531=CARTESIAN_POINT('',(6.5,0.,-3.75277674973257));
#532=CARTESIAN_POINT('',(6.5,-4.,3.75277674973257));
#533=CARTESIAN_POINT('',(6.5,-4.,-3.75277674973257));
#534=CARTESIAN_POINT('',(6.5,-4.,-3.75277674973257));
#535=CARTESIAN_POINT('',(6.5,-4.,-3.75277674973257));
#536=CARTESIAN_POINT('',(6.5,0.,-3.75277674973257));
#537=CARTESIAN_POINT('',(0.,0.,-7.50555349946513));
#538=CARTESIAN_POINT('',(6.5,-4.,-3.75277674973257));
#539=CARTESIAN_POINT('',(0.,-4.,-7.50555349946513));
#540=CARTESIAN_POINT('',(0.,-4.,-7.50555349946513));
#541=CARTESIAN_POINT('',(0.,-4.,-7.50555349946513));
#542=CARTESIAN_POINT('',(0.,0.,-7.50555349946513));
#543=CARTESIAN_POINT('',(0.,-4.,-7.50555349946513));
#544=CARTESIAN_POINT('',(0.,-4.,0.));
#545=CARTESIAN_POINT('',(0.,-4.,0.));
#546=CARTESIAN_POINT('',(0.,-4.,-4.));
#547=CARTESIAN_POINT('',(0.,0.,0.));
#548=CARTESIAN_POINT('',(0.,0.,0.));
#549=CARTESIAN_POINT('',(0.,0.,-4.));
#550=CARTESIAN_POINT('',(0.,0.,0.));
#551=CARTESIAN_POINT('',(0.,-0.5415,0.));
#552=CARTESIAN_POINT('',(0.,-0.5415,-3.4585));
#553=CARTESIAN_POINT('',(0.,-4.,0.));
#554=CARTESIAN_POINT('',(0.,-3.4585,0.));
#555=CARTESIAN_POINT('',(0.,-3.4585,-3.4585));
#556=CARTESIAN_POINT('',(0.,-3.4585,0.));
#557=CARTESIAN_POINT('',(0.,0.,-4.));
#558=CARTESIAN_POINT('',(0.,0.,-8.));
#559=MECHANICAL_DESIGN_GEOMETRIC_PRESENTATION_REPRESENTATION('',(#270,#271,
#272,#273,#274,#275,#276,#277,#278),#560);
#560=(
GEOMETRIC_REPRESENTATION_CONTEXT(3)
GLOBAL_UNCERTAINTY_ASSIGNED_CONTEXT((#563))
GLOBAL_UNIT_ASSIGNED_CONTEXT((#568,#567,#566))
REPRESENTATION_CONTEXT('150398 SIEN-M8NB-PO-K-L---(4_0)',
'TOP_LEVEL_ASSEMBLY_PART')
);
#561=(
GEOMETRIC_REPRESENTATION_CONTEXT(3)
GLOBAL_UNCERTAINTY_ASSIGNED_CONTEXT((#564))
GLOBAL_UNIT_ASSIGNED_CONTEXT((#568,#567,#566))
REPRESENTATION_CONTEXT('150398 SIEN-M8NB-PO-K-Lp---(4_0)',
'COMPONENT_PART')
);
#562=(
GEOMETRIC_REPRESENTATION_CONTEXT(3)
GLOBAL_UNCERTAINTY_ASSIGNED_CONTEXT((#565))
GLOBAL_UNIT_ASSIGNED_CONTEXT((#568,#567,#566))
REPRESENTATION_CONTEXT('DIN-439A -M8x1(F)','COMPONENT_PART')
);
#563=UNCERTAINTY_MEASURE_WITH_UNIT(LENGTH_MEASURE(0.005),#568,
'DISTANCE_ACCURACY_VALUE','Maximum Tolerance applied to model');
#564=UNCERTAINTY_MEASURE_WITH_UNIT(LENGTH_MEASURE(0.005),#568,
'DISTANCE_ACCURACY_VALUE','Maximum Tolerance applied to model');
#565=UNCERTAINTY_MEASURE_WITH_UNIT(LENGTH_MEASURE(0.005),#568,
'DISTANCE_ACCURACY_VALUE','Maximum Tolerance applied to model');
#566=(
NAMED_UNIT(*)
SI_UNIT($,.STERADIAN.)
SOLID_ANGLE_UNIT()
);
#567=(
NAMED_UNIT(*)
PLANE_ANGLE_UNIT()
SI_UNIT($,.RADIAN.)
);
#568=(
LENGTH_UNIT()
NAMED_UNIT(*)
SI_UNIT(.MILLI.,.METRE.)
);
#569=PRODUCT_DEFINITION_SHAPE('','',#575);
#570=PRODUCT_DEFINITION_SHAPE('','',#576);
#571=PRODUCT_DEFINITION_SHAPE(' ','NAUO PRDDFN',#57);
#572=PRODUCT_DEFINITION_SHAPE('','',#577);
#573=PRODUCT_DEFINITION_SHAPE(' ','NAUO PRDDFN',#58);
#574=PRODUCT_DEFINITION_SHAPE(' ','NAUO PRDDFN',#59);
#575=PRODUCT_DEFINITION('','',#581,#578);
#576=PRODUCT_DEFINITION('','',#582,#579);
#577=PRODUCT_DEFINITION('','',#583,#580);
#578=PRODUCT_DEFINITION_CONTEXT('',#597,'design');
#579=PRODUCT_DEFINITION_CONTEXT('',#597,'design');
#580=PRODUCT_DEFINITION_CONTEXT('',#597,'design');
#581=PRODUCT_DEFINITION_FORMATION_WITH_SPECIFIED_SOURCE('','',#587,
 .NOT_KNOWN.);
#582=PRODUCT_DEFINITION_FORMATION_WITH_SPECIFIED_SOURCE('','',#588,
 .NOT_KNOWN.);
#583=PRODUCT_DEFINITION_FORMATION_WITH_SPECIFIED_SOURCE('','',#589,
 .NOT_KNOWN.);
#584=PRODUCT_RELATED_PRODUCT_CATEGORY('','',(#587));
#585=PRODUCT_RELATED_PRODUCT_CATEGORY('','',(#588));
#586=PRODUCT_RELATED_PRODUCT_CATEGORY('','',(#589));
#587=PRODUCT('150398 SIEN-M8NB-PO-K-L---(4_0)',
'150398 SIEN-M8NB-PO-K-L---(4_0)','150398 SIEN-M8NB-PO-K-L---(4_0)',(#593));
#588=PRODUCT('150398 SIEN-M8NB-PO-K-Lp---(4_0)',
'150398 SIEN-M8NB-PO-K-Lp---(4_0)','150398 SIEN-M8NB-PO-K-Lp---(4_0)',(#594));
#589=PRODUCT('DIN-439A -M8x1(F)','DIN-439A -M8x1(F)',
'DIN-439A -M8x1(F)',(#595));
#590=PRODUCT_CATEGORY('','');
#591=PRODUCT_CATEGORY('','');
#592=PRODUCT_CATEGORY('','');
#593=PRODUCT_CONTEXT('',#597,'mechanical');
#594=PRODUCT_CONTEXT('',#597,'mechanical');
#595=PRODUCT_CONTEXT('',#597,'mechanical');
#596=APPLICATION_PROTOCOL_DEFINITION('international standard',
'automotive_design',2010,#597);
#597=APPLICATION_CONTEXT(
'core data for automotive mechanical design processes');
ENDSEC;
END-ISO-10303-21;
