ISO-10303-21;
HEADER;
/* Generated by software containing ST-Developer
 * from STEP Tools, Inc. (www.steptools.com) 
 */
/* OPTION: using custom renumber hook */

FILE_DESCRIPTION(
/* description */ ('STEP AP214'),
/* implementation_level */ '2;1');

FILE_NAME(
/* name */ '151217_ISV-M5',
/* time_stamp */ '2024-08-29T14:15:19+02:00',
/* author */ ('License CC BY-ND 4.0'),
/* organization */ ('CADENAS'),
/* preprocessor_version */ 'ST-DEVELOPER v19.3',
/* originating_system */ 'PARTsolutions',
/* authorisation */ '  ');

FILE_SCHEMA (('AUTOMOTIVE_DESIGN {1 0 10303 214 3 1 1}'));
ENDSEC;

DATA;
#10=PROPERTY_DEFINITION_REPRESENTATION(#14,#12);
#11=PROPERTY_DEFINITION_REPRESENTATION(#15,#13);
#12=REPRESENTATION('',(#16),#583);
#13=REPRESENTATION('',(#17),#583);
#14=PROPERTY_DEFINITION('pmi validation property','',#588);
#15=PROPERTY_DEFINITION('pmi validation property','',#588);
#16=VALUE_REPRESENTATION_ITEM('number of annotations',COUNT_MEASURE(0.));
#17=VALUE_REPRESENTATION_ITEM('number of views',COUNT_MEASURE(0.));
#18=SHAPE_REPRESENTATION_RELATIONSHIP('','',#335,#19);
#19=ADVANCED_BREP_SHAPE_REPRESENTATION('',(#333),#583);
#20=B_SPLINE_CURVE_WITH_KNOTS('',3,(#514,#515,#516,#517,#518),
 .UNSPECIFIED.,.F.,.F.,(4,1,4),(2.30940107675419E-7,0.00230963201686618,
0.00461903309362468),.UNSPECIFIED.);
#21=B_SPLINE_CURVE_WITH_KNOTS('',3,(#522,#523,#524,#525,#526),
 .UNSPECIFIED.,.F.,.F.,(4,1,4),(0.00470667860059992,0.00700290231576902,
0.00929912603093812),.UNSPECIFIED.);
#22=B_SPLINE_CURVE_WITH_KNOTS('',3,(#530,#531,#532,#533,#534),
 .UNSPECIFIED.,.F.,.F.,(4,1,4),(2.30940107675825E-7,0.00230963201686618,
0.00461903309362468),.UNSPECIFIED.);
#23=B_SPLINE_CURVE_WITH_KNOTS('',3,(#538,#539,#540,#541,#542),
 .UNSPECIFIED.,.F.,.F.,(4,1,4),(2.30940107675419E-7,0.00230963201686618,
0.00461903309362468),.UNSPECIFIED.);
#24=B_SPLINE_CURVE_WITH_KNOTS('',3,(#546,#547,#548,#549,#550),
 .UNSPECIFIED.,.F.,.F.,(4,1,4),(0.00470667860059992,0.00700290231576902,
0.00929912603093812),.UNSPECIFIED.);
#25=B_SPLINE_CURVE_WITH_KNOTS('',3,(#554,#555,#556,#557,#558),
 .UNSPECIFIED.,.F.,.F.,(4,1,4),(2.30940107675969E-7,0.00230963201686618,
0.00461903309362468),.UNSPECIFIED.);
#26=LINE('',#499,#38);
#27=LINE('',#502,#39);
#28=LINE('',#504,#40);
#29=LINE('',#506,#41);
#30=LINE('',#508,#42);
#31=LINE('',#510,#43);
#32=LINE('',#512,#44);
#33=LINE('',#520,#45);
#34=LINE('',#528,#46);
#35=LINE('',#536,#47);
#36=LINE('',#544,#48);
#37=LINE('',#552,#49);
#38=VECTOR('',#415,1000.);
#39=VECTOR('',#416,1000.);
#40=VECTOR('',#417,1000.);
#41=VECTOR('',#418,1000.);
#42=VECTOR('',#419,1000.);
#43=VECTOR('',#420,1000.);
#44=VECTOR('',#423,1000.);
#45=VECTOR('',#424,1000.);
#46=VECTOR('',#427,1000.);
#47=VECTOR('',#430,1000.);
#48=VECTOR('',#433,1000.);
#49=VECTOR('',#436,1000.);
#50=TOROIDAL_SURFACE('',#348,2.44976799590774,0.5);
#51=CYLINDRICAL_SURFACE('',#342,2.5);
#52=CYLINDRICAL_SURFACE('',#352,3.46410323027626);
#53=CYLINDRICAL_SURFACE('',#366,3.85);
#54=CYLINDRICAL_SURFACE('',#369,1.);
#55=CYLINDRICAL_SURFACE('',#374,2.067);
#56=CONICAL_SURFACE('',#340,2.0095,0.785398163397449);
#57=CONICAL_SURFACE('',#346,2.31,0.78539816339745);
#58=CONICAL_SURFACE('',#364,3.85,0.785398163397449);
#59=CONICAL_SURFACE('',#368,5.,1.30899693899575);
#60=CONICAL_SURFACE('',#376,2.067,0.785398163397449);
#61=ORIENTED_EDGE('',*,*,#129,.F.);
#62=ORIENTED_EDGE('',*,*,#130,.T.);
#63=ORIENTED_EDGE('',*,*,#131,.F.);
#64=ORIENTED_EDGE('',*,*,#129,.T.);
#65=ORIENTED_EDGE('',*,*,#132,.F.);
#66=ORIENTED_EDGE('',*,*,#131,.T.);
#67=ORIENTED_EDGE('',*,*,#133,.F.);
#68=ORIENTED_EDGE('',*,*,#132,.T.);
#69=ORIENTED_EDGE('',*,*,#134,.F.);
#70=ORIENTED_EDGE('',*,*,#133,.T.);
#71=ORIENTED_EDGE('',*,*,#135,.F.);
#72=ORIENTED_EDGE('',*,*,#134,.T.);
#73=ORIENTED_EDGE('',*,*,#136,.F.);
#74=ORIENTED_EDGE('',*,*,#135,.T.);
#75=ORIENTED_EDGE('',*,*,#137,.F.);
#76=ORIENTED_EDGE('',*,*,#136,.T.);
#77=ORIENTED_EDGE('',*,*,#138,.T.);
#78=ORIENTED_EDGE('',*,*,#139,.T.);
#79=ORIENTED_EDGE('',*,*,#140,.T.);
#80=ORIENTED_EDGE('',*,*,#141,.T.);
#81=ORIENTED_EDGE('',*,*,#142,.T.);
#82=ORIENTED_EDGE('',*,*,#143,.T.);
#83=ORIENTED_EDGE('',*,*,#137,.T.);
#84=ORIENTED_EDGE('',*,*,#144,.F.);
#85=ORIENTED_EDGE('',*,*,#145,.F.);
#86=ORIENTED_EDGE('',*,*,#146,.T.);
#87=ORIENTED_EDGE('',*,*,#143,.F.);
#88=ORIENTED_EDGE('',*,*,#146,.F.);
#89=ORIENTED_EDGE('',*,*,#147,.F.);
#90=ORIENTED_EDGE('',*,*,#148,.T.);
#91=ORIENTED_EDGE('',*,*,#138,.F.);
#92=ORIENTED_EDGE('',*,*,#148,.F.);
#93=ORIENTED_EDGE('',*,*,#149,.F.);
#94=ORIENTED_EDGE('',*,*,#150,.T.);
#95=ORIENTED_EDGE('',*,*,#139,.F.);
#96=ORIENTED_EDGE('',*,*,#150,.F.);
#97=ORIENTED_EDGE('',*,*,#151,.F.);
#98=ORIENTED_EDGE('',*,*,#152,.T.);
#99=ORIENTED_EDGE('',*,*,#140,.F.);
#100=ORIENTED_EDGE('',*,*,#152,.F.);
#101=ORIENTED_EDGE('',*,*,#153,.F.);
#102=ORIENTED_EDGE('',*,*,#154,.T.);
#103=ORIENTED_EDGE('',*,*,#141,.F.);
#104=ORIENTED_EDGE('',*,*,#154,.F.);
#105=ORIENTED_EDGE('',*,*,#155,.F.);
#106=ORIENTED_EDGE('',*,*,#144,.T.);
#107=ORIENTED_EDGE('',*,*,#142,.F.);
#108=ORIENTED_EDGE('',*,*,#156,.F.);
#109=ORIENTED_EDGE('',*,*,#157,.T.);
#110=ORIENTED_EDGE('',*,*,#157,.F.);
#111=ORIENTED_EDGE('',*,*,#158,.T.);
#112=ORIENTED_EDGE('',*,*,#158,.F.);
#113=ORIENTED_EDGE('',*,*,#159,.T.);
#114=ORIENTED_EDGE('',*,*,#159,.F.);
#115=ORIENTED_EDGE('',*,*,#147,.T.);
#116=ORIENTED_EDGE('',*,*,#145,.T.);
#117=ORIENTED_EDGE('',*,*,#155,.T.);
#118=ORIENTED_EDGE('',*,*,#153,.T.);
#119=ORIENTED_EDGE('',*,*,#151,.T.);
#120=ORIENTED_EDGE('',*,*,#149,.T.);
#121=ORIENTED_EDGE('',*,*,#160,.T.);
#122=ORIENTED_EDGE('',*,*,#130,.F.);
#123=ORIENTED_EDGE('',*,*,#160,.F.);
#124=ORIENTED_EDGE('',*,*,#161,.T.);
#125=ORIENTED_EDGE('',*,*,#162,.T.);
#126=ORIENTED_EDGE('',*,*,#161,.F.);
#127=ORIENTED_EDGE('',*,*,#156,.T.);
#128=ORIENTED_EDGE('',*,*,#162,.F.);
#129=EDGE_CURVE('',#163,#163,#191,.T.);
#130=EDGE_CURVE('',#164,#164,#192,.T.);
#131=EDGE_CURVE('',#165,#165,#193,.T.);
#132=EDGE_CURVE('',#166,#166,#194,.T.);
#133=EDGE_CURVE('',#167,#167,#195,.T.);
#134=EDGE_CURVE('',#168,#168,#196,.T.);
#135=EDGE_CURVE('',#169,#169,#197,.T.);
#136=EDGE_CURVE('',#170,#170,#198,.T.);
#137=EDGE_CURVE('',#171,#171,#199,.T.);
#138=EDGE_CURVE('',#172,#173,#26,.T.);
#139=EDGE_CURVE('',#173,#174,#27,.T.);
#140=EDGE_CURVE('',#174,#175,#28,.T.);
#141=EDGE_CURVE('',#175,#176,#29,.T.);
#142=EDGE_CURVE('',#176,#177,#30,.T.);
#143=EDGE_CURVE('',#177,#172,#31,.T.);
#144=EDGE_CURVE('',#178,#177,#32,.T.);
#145=EDGE_CURVE('',#179,#178,#20,.T.);
#146=EDGE_CURVE('',#179,#172,#33,.T.);
#147=EDGE_CURVE('',#180,#179,#21,.T.);
#148=EDGE_CURVE('',#180,#173,#34,.T.);
#149=EDGE_CURVE('',#181,#180,#22,.T.);
#150=EDGE_CURVE('',#181,#174,#35,.T.);
#151=EDGE_CURVE('',#182,#181,#23,.T.);
#152=EDGE_CURVE('',#182,#175,#36,.T.);
#153=EDGE_CURVE('',#183,#182,#24,.T.);
#154=EDGE_CURVE('',#183,#176,#37,.T.);
#155=EDGE_CURVE('',#178,#183,#25,.T.);
#156=EDGE_CURVE('',#184,#184,#200,.T.);
#157=EDGE_CURVE('',#185,#185,#201,.T.);
#158=EDGE_CURVE('',#186,#186,#202,.T.);
#159=EDGE_CURVE('',#187,#187,#203,.T.);
#160=EDGE_CURVE('',#188,#188,#204,.T.);
#161=EDGE_CURVE('',#189,#189,#205,.T.);
#162=EDGE_CURVE('',#190,#190,#206,.T.);
#163=VERTEX_POINT('',#474);
#164=VERTEX_POINT('',#476);
#165=VERTEX_POINT('',#479);
#166=VERTEX_POINT('',#482);
#167=VERTEX_POINT('',#485);
#168=VERTEX_POINT('',#488);
#169=VERTEX_POINT('',#491);
#170=VERTEX_POINT('',#494);
#171=VERTEX_POINT('',#497);
#172=VERTEX_POINT('',#500);
#173=VERTEX_POINT('',#501);
#174=VERTEX_POINT('',#503);
#175=VERTEX_POINT('',#505);
#176=VERTEX_POINT('',#507);
#177=VERTEX_POINT('',#509);
#178=VERTEX_POINT('',#513);
#179=VERTEX_POINT('',#519);
#180=VERTEX_POINT('',#527);
#181=VERTEX_POINT('',#535);
#182=VERTEX_POINT('',#543);
#183=VERTEX_POINT('',#551);
#184=VERTEX_POINT('',#561);
#185=VERTEX_POINT('',#563);
#186=VERTEX_POINT('',#566);
#187=VERTEX_POINT('',#569);
#188=VERTEX_POINT('',#573);
#189=VERTEX_POINT('',#577);
#190=VERTEX_POINT('',#580);
#191=CIRCLE('',#338,2.0095);
#192=CIRCLE('',#339,1.);
#193=CIRCLE('',#341,2.5);
#194=CIRCLE('',#343,2.5);
#195=CIRCLE('',#345,2.31);
#196=CIRCLE('',#347,2.0095);
#197=CIRCLE('',#349,2.31);
#198=CIRCLE('',#351,3.46410323027626);
#199=CIRCLE('',#353,3.46410323027626);
#200=CIRCLE('',#362,2.5);
#201=CIRCLE('',#363,3.6025);
#202=CIRCLE('',#365,3.85);
#203=CIRCLE('',#367,3.85);
#204=CIRCLE('',#370,1.);
#205=CIRCLE('',#373,2.067);
#206=CIRCLE('',#375,2.067);
#207=EDGE_LOOP('',(#61));
#208=EDGE_LOOP('',(#62));
#209=EDGE_LOOP('',(#63));
#210=EDGE_LOOP('',(#64));
#211=EDGE_LOOP('',(#65));
#212=EDGE_LOOP('',(#66));
#213=EDGE_LOOP('',(#67));
#214=EDGE_LOOP('',(#68));
#215=EDGE_LOOP('',(#69));
#216=EDGE_LOOP('',(#70));
#217=EDGE_LOOP('',(#71));
#218=EDGE_LOOP('',(#72));
#219=EDGE_LOOP('',(#73));
#220=EDGE_LOOP('',(#74));
#221=EDGE_LOOP('',(#75));
#222=EDGE_LOOP('',(#76));
#223=EDGE_LOOP('',(#77,#78,#79,#80,#81,#82));
#224=EDGE_LOOP('',(#83));
#225=EDGE_LOOP('',(#84,#85,#86,#87));
#226=EDGE_LOOP('',(#88,#89,#90,#91));
#227=EDGE_LOOP('',(#92,#93,#94,#95));
#228=EDGE_LOOP('',(#96,#97,#98,#99));
#229=EDGE_LOOP('',(#100,#101,#102,#103));
#230=EDGE_LOOP('',(#104,#105,#106,#107));
#231=EDGE_LOOP('',(#108));
#232=EDGE_LOOP('',(#109));
#233=EDGE_LOOP('',(#110));
#234=EDGE_LOOP('',(#111));
#235=EDGE_LOOP('',(#112));
#236=EDGE_LOOP('',(#113));
#237=EDGE_LOOP('',(#114));
#238=EDGE_LOOP('',(#115,#116,#117,#118,#119,#120));
#239=EDGE_LOOP('',(#121));
#240=EDGE_LOOP('',(#122));
#241=EDGE_LOOP('',(#123));
#242=EDGE_LOOP('',(#124));
#243=EDGE_LOOP('',(#125));
#244=EDGE_LOOP('',(#126));
#245=EDGE_LOOP('',(#127));
#246=EDGE_LOOP('',(#128));
#247=FACE_BOUND('',#207,.T.);
#248=FACE_BOUND('',#208,.T.);
#249=FACE_BOUND('',#209,.T.);
#250=FACE_BOUND('',#210,.T.);
#251=FACE_BOUND('',#211,.T.);
#252=FACE_BOUND('',#212,.T.);
#253=FACE_BOUND('',#213,.T.);
#254=FACE_BOUND('',#214,.T.);
#255=FACE_BOUND('',#215,.T.);
#256=FACE_BOUND('',#216,.T.);
#257=FACE_BOUND('',#217,.T.);
#258=FACE_BOUND('',#218,.T.);
#259=FACE_BOUND('',#219,.T.);
#260=FACE_BOUND('',#220,.T.);
#261=FACE_BOUND('',#221,.T.);
#262=FACE_BOUND('',#222,.T.);
#263=FACE_BOUND('',#223,.T.);
#264=FACE_BOUND('',#224,.T.);
#265=FACE_BOUND('',#225,.T.);
#266=FACE_BOUND('',#226,.T.);
#267=FACE_BOUND('',#227,.T.);
#268=FACE_BOUND('',#228,.T.);
#269=FACE_BOUND('',#229,.T.);
#270=FACE_BOUND('',#230,.T.);
#271=FACE_BOUND('',#231,.T.);
#272=FACE_BOUND('',#232,.T.);
#273=FACE_BOUND('',#233,.T.);
#274=FACE_BOUND('',#234,.T.);
#275=FACE_BOUND('',#235,.T.);
#276=FACE_BOUND('',#236,.T.);
#277=FACE_BOUND('',#237,.T.);
#278=FACE_BOUND('',#238,.T.);
#279=FACE_BOUND('',#239,.T.);
#280=FACE_BOUND('',#240,.T.);
#281=FACE_BOUND('',#241,.T.);
#282=FACE_BOUND('',#242,.T.);
#283=FACE_BOUND('',#243,.T.);
#284=FACE_BOUND('',#244,.T.);
#285=FACE_BOUND('',#245,.T.);
#286=FACE_BOUND('',#246,.T.);
#287=PLANE('',#337);
#288=PLANE('',#344);
#289=PLANE('',#350);
#290=PLANE('',#354);
#291=PLANE('',#355);
#292=PLANE('',#356);
#293=PLANE('',#357);
#294=PLANE('',#358);
#295=PLANE('',#359);
#296=PLANE('',#360);
#297=PLANE('',#361);
#298=PLANE('',#371);
#299=PLANE('',#372);
#300=ADVANCED_FACE('',(#247,#248),#287,.F.);
#301=ADVANCED_FACE('',(#249,#250),#56,.T.);
#302=ADVANCED_FACE('',(#251,#252),#51,.T.);
#303=ADVANCED_FACE('',(#253,#254),#288,.F.);
#304=ADVANCED_FACE('',(#255,#256),#57,.T.);
#305=ADVANCED_FACE('',(#257,#258),#50,.F.);
#306=ADVANCED_FACE('',(#259,#260),#289,.F.);
#307=ADVANCED_FACE('',(#261,#262),#52,.T.);
#308=ADVANCED_FACE('',(#263,#264),#290,.F.);
#309=ADVANCED_FACE('',(#265),#291,.F.);
#310=ADVANCED_FACE('',(#266),#292,.F.);
#311=ADVANCED_FACE('',(#267),#293,.F.);
#312=ADVANCED_FACE('',(#268),#294,.F.);
#313=ADVANCED_FACE('',(#269),#295,.F.);
#314=ADVANCED_FACE('',(#270),#296,.F.);
#315=ADVANCED_FACE('',(#271,#272),#297,.F.);
#316=ADVANCED_FACE('',(#273,#274),#58,.T.);
#317=ADVANCED_FACE('',(#275,#276),#53,.T.);
#318=ADVANCED_FACE('',(#277,#278),#59,.T.);
#319=ADVANCED_FACE('',(#279,#280),#54,.F.);
#320=ADVANCED_FACE('',(#281),#298,.T.);
#321=ADVANCED_FACE('',(#282),#299,.T.);
#322=ADVANCED_FACE('',(#283,#284),#55,.F.);
#323=ADVANCED_FACE('',(#285,#286),#60,.F.);
#324=CLOSED_SHELL('',(#300,#301,#302,#303,#304,#305,#306,#307,#308,#309,
#310,#311,#312,#313,#314,#315,#316,#317,#318,#319,#320,#321,#322,#323));
#325=STYLED_ITEM('',(#326),#333);
#326=PRESENTATION_STYLE_ASSIGNMENT((#327));
#327=SURFACE_STYLE_USAGE(.BOTH.,#328);
#328=SURFACE_SIDE_STYLE('',(#329));
#329=SURFACE_STYLE_FILL_AREA(#330);
#330=FILL_AREA_STYLE('',(#331));
#331=FILL_AREA_STYLE_COLOUR('',#332);
#332=COLOUR_RGB('',0.689999997615814,0.689999997615814,0.689999997615814);
#333=MANIFOLD_SOLID_BREP('151217 ISV-M5',#324);
#334=SHAPE_DEFINITION_REPRESENTATION(#588,#335);
#335=SHAPE_REPRESENTATION('151217 ISV-M5',(#336),#583);
#336=AXIS2_PLACEMENT_3D('',#471,#377,#378);
#337=AXIS2_PLACEMENT_3D('',#472,#379,#380);
#338=AXIS2_PLACEMENT_3D('',#473,#381,#382);
#339=AXIS2_PLACEMENT_3D('',#475,#383,#384);
#340=AXIS2_PLACEMENT_3D('',#477,#385,#386);
#341=AXIS2_PLACEMENT_3D('',#478,#387,#388);
#342=AXIS2_PLACEMENT_3D('',#480,#389,#390);
#343=AXIS2_PLACEMENT_3D('',#481,#391,#392);
#344=AXIS2_PLACEMENT_3D('',#483,#393,#394);
#345=AXIS2_PLACEMENT_3D('',#484,#395,#396);
#346=AXIS2_PLACEMENT_3D('',#486,#397,#398);
#347=AXIS2_PLACEMENT_3D('',#487,#399,#400);
#348=AXIS2_PLACEMENT_3D('',#489,#401,#402);
#349=AXIS2_PLACEMENT_3D('',#490,#403,#404);
#350=AXIS2_PLACEMENT_3D('',#492,#405,#406);
#351=AXIS2_PLACEMENT_3D('',#493,#407,#408);
#352=AXIS2_PLACEMENT_3D('',#495,#409,#410);
#353=AXIS2_PLACEMENT_3D('',#496,#411,#412);
#354=AXIS2_PLACEMENT_3D('',#498,#413,#414);
#355=AXIS2_PLACEMENT_3D('',#511,#421,#422);
#356=AXIS2_PLACEMENT_3D('',#521,#425,#426);
#357=AXIS2_PLACEMENT_3D('',#529,#428,#429);
#358=AXIS2_PLACEMENT_3D('',#537,#431,#432);
#359=AXIS2_PLACEMENT_3D('',#545,#434,#435);
#360=AXIS2_PLACEMENT_3D('',#553,#437,#438);
#361=AXIS2_PLACEMENT_3D('',#559,#439,#440);
#362=AXIS2_PLACEMENT_3D('',#560,#441,#442);
#363=AXIS2_PLACEMENT_3D('',#562,#443,#444);
#364=AXIS2_PLACEMENT_3D('',#564,#445,#446);
#365=AXIS2_PLACEMENT_3D('',#565,#447,#448);
#366=AXIS2_PLACEMENT_3D('',#567,#449,#450);
#367=AXIS2_PLACEMENT_3D('',#568,#451,#452);
#368=AXIS2_PLACEMENT_3D('',#570,#453,#454);
#369=AXIS2_PLACEMENT_3D('',#571,#455,#456);
#370=AXIS2_PLACEMENT_3D('',#572,#457,#458);
#371=AXIS2_PLACEMENT_3D('',#574,#459,#460);
#372=AXIS2_PLACEMENT_3D('',#575,#461,#462);
#373=AXIS2_PLACEMENT_3D('',#576,#463,#464);
#374=AXIS2_PLACEMENT_3D('',#578,#465,#466);
#375=AXIS2_PLACEMENT_3D('',#579,#467,#468);
#376=AXIS2_PLACEMENT_3D('',#581,#469,#470);
#377=DIRECTION('',(0.,0.,1.));
#378=DIRECTION('',(1.,0.,0.));
#379=DIRECTION('',(1.,0.,0.));
#380=DIRECTION('',(0.,0.,-1.));
#381=DIRECTION('',(1.,0.,0.));
#382=DIRECTION('',(0.,0.,-1.));
#383=DIRECTION('',(1.,0.,0.));
#384=DIRECTION('',(0.,0.,-1.));
#385=DIRECTION('',(1.,0.,0.));
#386=DIRECTION('',(0.,0.,-1.));
#387=DIRECTION('',(1.,0.,0.));
#388=DIRECTION('',(0.,0.,-1.));
#389=DIRECTION('',(1.,0.,0.));
#390=DIRECTION('',(0.,0.,-1.));
#391=DIRECTION('',(1.,0.,0.));
#392=DIRECTION('',(0.,0.,-1.));
#393=DIRECTION('',(-1.,0.,0.));
#394=DIRECTION('',(0.,0.,1.));
#395=DIRECTION('',(1.,0.,0.));
#396=DIRECTION('',(0.,0.,-1.));
#397=DIRECTION('',(-1.,0.,0.));
#398=DIRECTION('',(0.,0.,1.));
#399=DIRECTION('',(1.,0.,0.));
#400=DIRECTION('',(0.,0.,-1.));
#401=DIRECTION('',(1.,0.,0.));
#402=DIRECTION('',(0.,0.,-1.));
#403=DIRECTION('',(1.,0.,0.));
#404=DIRECTION('',(0.,0.,-1.));
#405=DIRECTION('',(1.,0.,0.));
#406=DIRECTION('',(0.,0.,-1.));
#407=DIRECTION('',(1.,0.,0.));
#408=DIRECTION('',(0.,0.,-1.));
#409=DIRECTION('',(1.,0.,0.));
#410=DIRECTION('',(0.,0.,-1.));
#411=DIRECTION('',(1.,0.,0.));
#412=DIRECTION('',(0.,0.,-1.));
#413=DIRECTION('',(1.,0.,0.));
#414=DIRECTION('',(0.,0.,-1.));
#415=DIRECTION('',(0.,0.,-1.));
#416=DIRECTION('',(0.,-0.866025403784439,-0.5));
#417=DIRECTION('',(0.,-0.866025403784439,0.5));
#418=DIRECTION('',(0.,0.,1.));
#419=DIRECTION('',(0.,0.866025403784439,0.5));
#420=DIRECTION('',(0.,0.866025403784439,-0.5));
#421=DIRECTION('',(0.,-0.5,-0.866025403784438));
#422=DIRECTION('',(0.,0.866025403784439,-0.5));
#423=DIRECTION('',(-1.,0.,0.));
#424=DIRECTION('',(-1.,0.,0.));
#425=DIRECTION('',(0.,-1.,0.));
#426=DIRECTION('',(0.,0.,-1.));
#427=DIRECTION('',(-1.,0.,0.));
#428=DIRECTION('',(0.,-0.5,0.866025403784439));
#429=DIRECTION('',(0.,-0.866025403784439,-0.5));
#430=DIRECTION('',(-1.,0.,0.));
#431=DIRECTION('',(0.,0.5,0.866025403784438));
#432=DIRECTION('',(0.,-0.866025403784439,0.5));
#433=DIRECTION('',(-1.,0.,0.));
#434=DIRECTION('',(0.,1.,0.));
#435=DIRECTION('',(0.,0.,1.));
#436=DIRECTION('',(-1.,0.,0.));
#437=DIRECTION('',(0.,0.5,-0.866025403784439));
#438=DIRECTION('',(0.,0.866025403784439,0.5));
#439=DIRECTION('',(-1.,0.,0.));
#440=DIRECTION('',(0.,0.,1.));
#441=DIRECTION('',(1.,0.,0.));
#442=DIRECTION('',(0.,0.,-1.));
#443=DIRECTION('',(1.,0.,0.));
#444=DIRECTION('',(0.,0.,-1.));
#445=DIRECTION('',(-1.,0.,0.));
#446=DIRECTION('',(0.,0.,1.));
#447=DIRECTION('',(1.,0.,0.));
#448=DIRECTION('',(0.,0.,-1.));
#449=DIRECTION('',(1.,0.,0.));
#450=DIRECTION('',(0.,0.,-1.));
#451=DIRECTION('',(1.,0.,0.));
#452=DIRECTION('',(0.,0.,-1.));
#453=DIRECTION('',(-1.,0.,0.));
#454=DIRECTION('',(0.,0.,1.));
#455=DIRECTION('',(1.,0.,0.));
#456=DIRECTION('',(0.,0.,-1.));
#457=DIRECTION('',(1.,0.,0.));
#458=DIRECTION('',(0.,0.,-1.));
#459=DIRECTION('',(-1.,0.,0.));
#460=DIRECTION('',(0.,0.,1.));
#461=DIRECTION('',(1.,0.,0.));
#462=DIRECTION('',(0.,0.,-1.));
#463=DIRECTION('',(1.,0.,0.));
#464=DIRECTION('',(0.,0.,-1.));
#465=DIRECTION('',(1.,0.,0.));
#466=DIRECTION('',(0.,0.,-1.));
#467=DIRECTION('',(1.,0.,0.));
#468=DIRECTION('',(0.,0.,-1.));
#469=DIRECTION('',(1.,0.,0.));
#470=DIRECTION('',(0.,0.,-1.));
#471=CARTESIAN_POINT('',(0.,0.,0.));
#472=CARTESIAN_POINT('',(0.,0.,0.));
#473=CARTESIAN_POINT('',(0.,0.,0.));
#474=CARTESIAN_POINT('',(0.,0.,-2.0095));
#475=CARTESIAN_POINT('',(0.,0.,0.));
#476=CARTESIAN_POINT('',(0.,0.,-1.));
#477=CARTESIAN_POINT('',(0.,0.,0.));
#478=CARTESIAN_POINT('',(0.4905,0.,0.));
#479=CARTESIAN_POINT('',(0.4905,0.,-2.5));
#480=CARTESIAN_POINT('',(15.,0.,0.));
#481=CARTESIAN_POINT('',(3.2824427480916,0.,0.));
#482=CARTESIAN_POINT('',(3.2824427480916,0.,-2.5));
#483=CARTESIAN_POINT('',(3.2824427480916,2.5,0.));
#484=CARTESIAN_POINT('',(3.2824427480916,0.,0.));
#485=CARTESIAN_POINT('',(3.2824427480916,0.,-2.31));
#486=CARTESIAN_POINT('',(3.2824427480916,0.,0.));
#487=CARTESIAN_POINT('',(3.5829427480916,0.,0.));
#488=CARTESIAN_POINT('',(3.5829427480916,0.,-2.0095));
#489=CARTESIAN_POINT('',(3.81993239296956,0.,0.));
#490=CARTESIAN_POINT('',(4.3,0.,0.));
#491=CARTESIAN_POINT('',(4.3,0.,-2.31));
#492=CARTESIAN_POINT('',(4.3,2.31,0.));
#493=CARTESIAN_POINT('',(4.3,0.,0.));
#494=CARTESIAN_POINT('',(4.3,0.,-3.46410323027626));
#495=CARTESIAN_POINT('',(15.,0.,0.));
#496=CARTESIAN_POINT('',(4.558,0.,0.));
#497=CARTESIAN_POINT('',(4.558,0.,-3.46410323027626));
#498=CARTESIAN_POINT('',(4.558,3.46410323027626,0.));
#499=CARTESIAN_POINT('',(4.558,4.,0.));
#500=CARTESIAN_POINT('',(4.558,4.,2.3094010767585));
#501=CARTESIAN_POINT('',(4.558,4.,-2.3094010767585));
#502=CARTESIAN_POINT('',(4.558,4.5980774227072,-1.96410091576227));
#503=CARTESIAN_POINT('',(4.558,-1.73472347597681E-15,-4.61880215351701));
#504=CARTESIAN_POINT('',(4.558,0.598077422707195,-4.96410231451324));
#505=CARTESIAN_POINT('',(4.558,-4.,-2.3094010767585));
#506=CARTESIAN_POINT('',(4.558,-4.,0.));
#507=CARTESIAN_POINT('',(4.558,-4.,2.3094010767585));
#508=CARTESIAN_POINT('',(4.558,0.598077422707197,4.96410231451324));
#509=CARTESIAN_POINT('',(4.558,9.75781955236954E-16,4.61880215351701));
#510=CARTESIAN_POINT('',(4.558,4.5980774227072,1.96410091576226));
#511=CARTESIAN_POINT('',(15.,4.,2.3094010767585));
#512=CARTESIAN_POINT('',(15.,8.88178419700125E-16,4.61880215351701));
#513=CARTESIAN_POINT('',(9.79400008382581,8.88178419700125E-16,4.61880215351701));
#514=CARTESIAN_POINT('',(9.79400008382617,4.,2.3094010767585));
#515=CARTESIAN_POINT('',(9.89713377607901,3.33333333333333,2.69430125621825));
#516=CARTESIAN_POINT('',(10.0224814661917,2.,3.46410161513775));
#517=CARTESIAN_POINT('',(9.89713377607901,0.666666666666667,4.23390197405726));
#518=CARTESIAN_POINT('',(9.79400008382617,1.84229252437504E-16,4.61880215351701));
#519=CARTESIAN_POINT('',(9.79400008382581,4.,2.3094010767585));
#520=CARTESIAN_POINT('',(15.,4.,2.3094010767585));
#521=CARTESIAN_POINT('',(15.,4.,-2.3094010767585));
#522=CARTESIAN_POINT('',(9.79400008382581,4.,-2.30940107675851));
#523=CARTESIAN_POINT('',(9.89563994100047,4.,-1.55075085465879));
#524=CARTESIAN_POINT('',(10.0231196800093,4.,-0.0254395490440621));
#525=CARTESIAN_POINT('',(9.89731752541585,4.,1.53822919411437));
#526=CARTESIAN_POINT('',(9.79400008382581,4.,2.3094010767585));
#527=CARTESIAN_POINT('',(9.79400008382581,4.,-2.3094010767585));
#528=CARTESIAN_POINT('',(15.,4.,-2.3094010767585));
#529=CARTESIAN_POINT('',(15.,-8.88178419700125E-16,-4.61880215351701));
#530=CARTESIAN_POINT('',(9.79400008382617,-1.38231434293686E-15,-4.61880215351701));
#531=CARTESIAN_POINT('',(9.89713377607901,0.666666666666666,-4.23390197405726));
#532=CARTESIAN_POINT('',(10.0224814661917,2.,-3.46410161513775));
#533=CARTESIAN_POINT('',(9.89713377607901,3.33333333333333,-2.69430125621825));
#534=CARTESIAN_POINT('',(9.79400008382617,4.,-2.3094010767585));
#535=CARTESIAN_POINT('',(9.79400008382581,-1.73472347597681E-15,-4.61880215351701));
#536=CARTESIAN_POINT('',(15.,-1.73472347597681E-15,-4.61880215351701));
#537=CARTESIAN_POINT('',(15.,-4.,-2.3094010767585));
#538=CARTESIAN_POINT('',(9.79400008382617,-4.,-2.3094010767585));
#539=CARTESIAN_POINT('',(9.897133776079,-3.33333333333333,-2.69430125621825));
#540=CARTESIAN_POINT('',(10.0224814661917,-2.,-3.46410161513775));
#541=CARTESIAN_POINT('',(9.897133776079,-0.666666666666669,-4.23390197405725));
#542=CARTESIAN_POINT('',(9.79400008382617,-2.80299084114209E-15,-4.618802153517));
#543=CARTESIAN_POINT('',(9.79400008382581,-4.,-2.3094010767585));
#544=CARTESIAN_POINT('',(15.,-4.,-2.3094010767585));
#545=CARTESIAN_POINT('',(15.,-4.,2.3094010767585));
#546=CARTESIAN_POINT('',(9.79400008382581,-4.,2.30940107675851));
#547=CARTESIAN_POINT('',(9.89563994100047,-4.,1.55075085465879));
#548=CARTESIAN_POINT('',(10.0231196800093,-4.,0.0254395490440621));
#549=CARTESIAN_POINT('',(9.89731752541585,-4.,-1.53822919411437));
#550=CARTESIAN_POINT('',(9.79400008382581,-4.,-2.3094010767585));
#551=CARTESIAN_POINT('',(9.79400008382581,-4.,2.3094010767585));
#552=CARTESIAN_POINT('',(15.,-4.,2.3094010767585));
#553=CARTESIAN_POINT('',(15.,8.88178419700125E-16,4.61880215351701));
#554=CARTESIAN_POINT('',(9.79400008382617,8.2051353681585E-16,4.61880215351701));
#555=CARTESIAN_POINT('',(9.89713377607901,-0.666666666666666,4.23390197405726));
#556=CARTESIAN_POINT('',(10.0224814661917,-2.,3.46410161513775));
#557=CARTESIAN_POINT('',(9.89713377607901,-3.33333333333333,2.69430125621825));
#558=CARTESIAN_POINT('',(9.79400008382617,-4.,2.3094010767585));
#559=CARTESIAN_POINT('',(15.,3.6025,0.));
#560=CARTESIAN_POINT('',(15.,0.,0.));
#561=CARTESIAN_POINT('',(15.,0.,-2.5));
#562=CARTESIAN_POINT('',(15.,0.,0.));
#563=CARTESIAN_POINT('',(15.,0.,-3.6025));
#564=CARTESIAN_POINT('',(14.7525,0.,0.));
#565=CARTESIAN_POINT('',(14.7525,0.,0.));
#566=CARTESIAN_POINT('',(14.7525,0.,-3.85));
#567=CARTESIAN_POINT('',(15.,0.,0.));
#568=CARTESIAN_POINT('',(10.,0.,0.));
#569=CARTESIAN_POINT('',(10.,0.,-3.85));
#570=CARTESIAN_POINT('',(9.69185842870421,0.,0.));
#571=CARTESIAN_POINT('',(4.3,0.,0.));
#572=CARTESIAN_POINT('',(4.3,0.,0.));
#573=CARTESIAN_POINT('',(4.3,0.,-1.));
#574=CARTESIAN_POINT('',(4.3,1.,0.));
#575=CARTESIAN_POINT('',(9.5,0.,0.));
#576=CARTESIAN_POINT('',(9.5,0.,0.));
#577=CARTESIAN_POINT('',(9.5,0.,-2.067));
#578=CARTESIAN_POINT('',(15.,0.,0.));
#579=CARTESIAN_POINT('',(14.567,0.,0.));
#580=CARTESIAN_POINT('',(14.567,0.,-2.067));
#581=CARTESIAN_POINT('',(14.567,0.,0.));
#582=MECHANICAL_DESIGN_GEOMETRIC_PRESENTATION_REPRESENTATION('',(#325),
#583);
#583=(
GEOMETRIC_REPRESENTATION_CONTEXT(3)
GLOBAL_UNCERTAINTY_ASSIGNED_CONTEXT((#584))
GLOBAL_UNIT_ASSIGNED_CONTEXT((#587,#586,#585))
REPRESENTATION_CONTEXT('151217 ISV-M5','TOP_LEVEL_ASSEMBLY_PART')
);
#584=UNCERTAINTY_MEASURE_WITH_UNIT(LENGTH_MEASURE(0.005),#587,
'DISTANCE_ACCURACY_VALUE','Maximum Tolerance applied to model');
#585=(
NAMED_UNIT(*)
SI_UNIT($,.STERADIAN.)
SOLID_ANGLE_UNIT()
);
#586=(
NAMED_UNIT(*)
PLANE_ANGLE_UNIT()
SI_UNIT($,.RADIAN.)
);
#587=(
LENGTH_UNIT()
NAMED_UNIT(*)
SI_UNIT(.MILLI.,.METRE.)
);
#588=PRODUCT_DEFINITION_SHAPE('','',#589);
#589=PRODUCT_DEFINITION('','',#591,#590);
#590=PRODUCT_DEFINITION_CONTEXT('',#597,'design');
#591=PRODUCT_DEFINITION_FORMATION_WITH_SPECIFIED_SOURCE('','',#593,
 .NOT_KNOWN.);
#592=PRODUCT_RELATED_PRODUCT_CATEGORY('','',(#593));
#593=PRODUCT('151217 ISV-M5','151217 ISV-M5','151217 ISV-M5',(#595));
#594=PRODUCT_CATEGORY('','');
#595=PRODUCT_CONTEXT('',#597,'mechanical');
#596=APPLICATION_PROTOCOL_DEFINITION('international standard',
'automotive_design',2010,#597);
#597=APPLICATION_CONTEXT(
'core data for automotive mechanical design processes');
ENDSEC;
END-ISO-10303-21;
