ISO-10303-21;
HEADER;
/* Generated by software containing ST-Developer
 * from STEP Tools, Inc. (www.steptools.com) 
 */
/* OPTION: using custom renumber hook */

FILE_DESCRIPTION(
/* description */ ('STEP AP214'),
/* implementation_level */ '2;1');

FILE_NAME(
/* name */ '151994_EV-10_30-DP',
/* time_stamp */ '2024-08-23T08:54:26+02:00',
/* author */ ('License CC BY-ND 4.0'),
/* organization */ ('CADENAS'),
/* preprocessor_version */ 'ST-DEVELOPER v19.3',
/* originating_system */ 'PARTsolutions',
/* authorisation */ '  ');

FILE_SCHEMA (('AUTOMOTIVE_DESIGN {1 0 10303 214 3 1 1}'));
ENDSEC;

DATA;
#10=PROPERTY_DEFINITION_REPRESENTATION(#14,#12);
#11=PROPERTY_DEFINITION_REPRESENTATION(#15,#13);
#12=REPRESENTATION('',(#16),#349);
#13=REPRESENTATION('',(#17),#349);
#14=PROPERTY_DEFINITION('pmi validation property','',#354);
#15=PROPERTY_DEFINITION('pmi validation property','',#354);
#16=VALUE_REPRESENTATION_ITEM('number of annotations',COUNT_MEASURE(0.));
#17=VALUE_REPRESENTATION_ITEM('number of views',COUNT_MEASURE(0.));
#18=SHAPE_REPRESENTATION_RELATIONSHIP('','',#207,#19);
#19=ADVANCED_BREP_SHAPE_REPRESENTATION('',(#205),#349);
#20=DEGENERATE_TOROIDAL_SURFACE('',#232,0.499999999999999,0.5,.T.);
#21=TOROIDAL_SURFACE('',#221,0.750000000000002,0.250000000000002);
#22=TOROIDAL_SURFACE('',#225,0.5,0.5);
#23=TOROIDAL_SURFACE('',#228,0.750000000000002,0.250000000000002);
#24=CIRCLE('',#211,1.5);
#25=CIRCLE('',#212,1.5);
#26=CIRCLE('',#215,1.5);
#27=CIRCLE('',#216,1.5);
#28=CIRCLE('',#218,0.750000000000002);
#29=CIRCLE('',#219,0.750000000000002);
#30=CIRCLE('',#222,0.5);
#31=CIRCLE('',#224,0.5);
#32=CIRCLE('',#226,0.5);
#33=CIRCLE('',#229,0.5);
#34=CIRCLE('',#231,0.5);
#35=CIRCLE('',#233,0.5);
#36=CYLINDRICAL_SURFACE('',#210,1.5);
#37=CYLINDRICAL_SURFACE('',#214,1.5);
#38=CYLINDRICAL_SURFACE('',#223,0.5);
#39=CYLINDRICAL_SURFACE('',#230,0.5);
#40=ORIENTED_EDGE('',*,*,#80,.T.);
#41=ORIENTED_EDGE('',*,*,#81,.F.);
#42=ORIENTED_EDGE('',*,*,#82,.F.);
#43=ORIENTED_EDGE('',*,*,#83,.T.);
#44=ORIENTED_EDGE('',*,*,#84,.T.);
#45=ORIENTED_EDGE('',*,*,#85,.F.);
#46=ORIENTED_EDGE('',*,*,#86,.F.);
#47=ORIENTED_EDGE('',*,*,#81,.T.);
#48=ORIENTED_EDGE('',*,*,#87,.T.);
#49=ORIENTED_EDGE('',*,*,#88,.F.);
#50=ORIENTED_EDGE('',*,*,#89,.F.);
#51=ORIENTED_EDGE('',*,*,#85,.T.);
#52=ORIENTED_EDGE('',*,*,#90,.T.);
#53=ORIENTED_EDGE('',*,*,#83,.F.);
#54=ORIENTED_EDGE('',*,*,#91,.F.);
#55=ORIENTED_EDGE('',*,*,#88,.T.);
#56=ORIENTED_EDGE('',*,*,#92,.F.);
#57=ORIENTED_EDGE('',*,*,#93,.F.);
#58=ORIENTED_EDGE('',*,*,#82,.T.);
#59=ORIENTED_EDGE('',*,*,#86,.T.);
#60=ORIENTED_EDGE('',*,*,#89,.T.);
#61=ORIENTED_EDGE('',*,*,#91,.T.);
#62=ORIENTED_EDGE('',*,*,#80,.F.);
#63=ORIENTED_EDGE('',*,*,#90,.F.);
#64=ORIENTED_EDGE('',*,*,#87,.F.);
#65=ORIENTED_EDGE('',*,*,#84,.F.);
#66=ORIENTED_EDGE('',*,*,#94,.F.);
#67=ORIENTED_EDGE('',*,*,#93,.T.);
#68=ORIENTED_EDGE('',*,*,#95,.F.);
#69=ORIENTED_EDGE('',*,*,#94,.T.);
#70=ORIENTED_EDGE('',*,*,#95,.T.);
#71=ORIENTED_EDGE('',*,*,#96,.F.);
#72=ORIENTED_EDGE('',*,*,#96,.T.);
#73=ORIENTED_EDGE('',*,*,#97,.F.);
#74=ORIENTED_EDGE('',*,*,#92,.T.);
#75=ORIENTED_EDGE('',*,*,#98,.F.);
#76=ORIENTED_EDGE('',*,*,#97,.T.);
#77=ORIENTED_EDGE('',*,*,#98,.T.);
#78=ORIENTED_EDGE('',*,*,#99,.F.);
#79=ORIENTED_EDGE('',*,*,#99,.T.);
#80=EDGE_CURVE('',#100,#101,#116,.T.);
#81=EDGE_CURVE('',#102,#101,#117,.T.);
#82=EDGE_CURVE('',#103,#102,#118,.T.);
#83=EDGE_CURVE('',#103,#100,#119,.T.);
#84=EDGE_CURVE('',#101,#104,#24,.T.);
#85=EDGE_CURVE('',#105,#104,#120,.T.);
#86=EDGE_CURVE('',#102,#105,#25,.T.);
#87=EDGE_CURVE('',#104,#106,#121,.T.);
#88=EDGE_CURVE('',#107,#106,#122,.T.);
#89=EDGE_CURVE('',#105,#107,#123,.T.);
#90=EDGE_CURVE('',#106,#100,#26,.T.);
#91=EDGE_CURVE('',#107,#103,#27,.T.);
#92=EDGE_CURVE('',#108,#108,#28,.T.);
#93=EDGE_CURVE('',#109,#109,#29,.T.);
#94=EDGE_CURVE('',#110,#110,#30,.T.);
#95=EDGE_CURVE('',#111,#111,#31,.T.);
#96=EDGE_CURVE('',#112,#112,#32,.T.);
#97=EDGE_CURVE('',#113,#113,#33,.T.);
#98=EDGE_CURVE('',#114,#114,#34,.T.);
#99=EDGE_CURVE('',#115,#115,#35,.T.);
#100=VERTEX_POINT('',#300);
#101=VERTEX_POINT('',#301);
#102=VERTEX_POINT('',#303);
#103=VERTEX_POINT('',#305);
#104=VERTEX_POINT('',#309);
#105=VERTEX_POINT('',#311);
#106=VERTEX_POINT('',#315);
#107=VERTEX_POINT('',#317);
#108=VERTEX_POINT('',#324);
#109=VERTEX_POINT('',#326);
#110=VERTEX_POINT('',#330);
#111=VERTEX_POINT('',#333);
#112=VERTEX_POINT('',#336);
#113=VERTEX_POINT('',#340);
#114=VERTEX_POINT('',#343);
#115=VERTEX_POINT('',#346);
#116=LINE('',#299,#124);
#117=LINE('',#302,#125);
#118=LINE('',#304,#126);
#119=LINE('',#306,#127);
#120=LINE('',#310,#128);
#121=LINE('',#314,#129);
#122=LINE('',#316,#130);
#123=LINE('',#318,#131);
#124=VECTOR('',#239,1000.);
#125=VECTOR('',#240,1000.);
#126=VECTOR('',#241,1000.);
#127=VECTOR('',#242,1000.);
#128=VECTOR('',#247,1000.);
#129=VECTOR('',#252,1000.);
#130=VECTOR('',#253,1000.);
#131=VECTOR('',#254,1000.);
#132=EDGE_LOOP('',(#40,#41,#42,#43));
#133=EDGE_LOOP('',(#44,#45,#46,#47));
#134=EDGE_LOOP('',(#48,#49,#50,#51));
#135=EDGE_LOOP('',(#52,#53,#54,#55));
#136=EDGE_LOOP('',(#56));
#137=EDGE_LOOP('',(#57));
#138=EDGE_LOOP('',(#58,#59,#60,#61));
#139=EDGE_LOOP('',(#62,#63,#64,#65));
#140=EDGE_LOOP('',(#66));
#141=EDGE_LOOP('',(#67));
#142=EDGE_LOOP('',(#68));
#143=EDGE_LOOP('',(#69));
#144=EDGE_LOOP('',(#70));
#145=EDGE_LOOP('',(#71));
#146=EDGE_LOOP('',(#72));
#147=EDGE_LOOP('',(#73));
#148=EDGE_LOOP('',(#74));
#149=EDGE_LOOP('',(#75));
#150=EDGE_LOOP('',(#76));
#151=EDGE_LOOP('',(#77));
#152=EDGE_LOOP('',(#78));
#153=EDGE_LOOP('',(#79));
#154=FACE_BOUND('',#132,.T.);
#155=FACE_BOUND('',#133,.T.);
#156=FACE_BOUND('',#134,.T.);
#157=FACE_BOUND('',#135,.T.);
#158=FACE_BOUND('',#136,.T.);
#159=FACE_BOUND('',#137,.T.);
#160=FACE_BOUND('',#138,.T.);
#161=FACE_BOUND('',#139,.T.);
#162=FACE_BOUND('',#140,.T.);
#163=FACE_BOUND('',#141,.T.);
#164=FACE_BOUND('',#142,.T.);
#165=FACE_BOUND('',#143,.T.);
#166=FACE_BOUND('',#144,.T.);
#167=FACE_BOUND('',#145,.T.);
#168=FACE_BOUND('',#146,.T.);
#169=FACE_BOUND('',#147,.T.);
#170=FACE_BOUND('',#148,.T.);
#171=FACE_BOUND('',#149,.T.);
#172=FACE_BOUND('',#150,.T.);
#173=FACE_BOUND('',#151,.T.);
#174=FACE_BOUND('',#152,.T.);
#175=FACE_BOUND('',#153,.T.);
#176=PLANE('',#209);
#177=PLANE('',#213);
#178=PLANE('',#217);
#179=PLANE('',#220);
#180=PLANE('',#227);
#181=PLANE('',#234);
#182=ADVANCED_FACE('',(#154),#176,.F.);
#183=ADVANCED_FACE('',(#155),#36,.T.);
#184=ADVANCED_FACE('',(#156),#177,.F.);
#185=ADVANCED_FACE('',(#157),#37,.T.);
#186=ADVANCED_FACE('',(#158,#159,#160),#178,.T.);
#187=ADVANCED_FACE('',(#161),#179,.F.);
#188=ADVANCED_FACE('',(#162,#163),#21,.F.);
#189=ADVANCED_FACE('',(#164,#165),#38,.T.);
#190=ADVANCED_FACE('',(#166,#167),#22,.T.);
#191=ADVANCED_FACE('',(#168),#180,.F.);
#192=ADVANCED_FACE('',(#169,#170),#23,.F.);
#193=ADVANCED_FACE('',(#171,#172),#39,.T.);
#194=ADVANCED_FACE('',(#173,#174),#20,.T.);
#195=ADVANCED_FACE('',(#175),#181,.F.);
#196=CLOSED_SHELL('',(#182,#183,#184,#185,#186,#187,#188,#189,#190,#191,
#192,#193,#194,#195));
#197=STYLED_ITEM('',(#198),#205);
#198=PRESENTATION_STYLE_ASSIGNMENT((#199));
#199=SURFACE_STYLE_USAGE(.BOTH.,#200);
#200=SURFACE_SIDE_STYLE('',(#201));
#201=SURFACE_STYLE_FILL_AREA(#202);
#202=FILL_AREA_STYLE('',(#203));
#203=FILL_AREA_STYLE_COLOUR('',#204);
#204=COLOUR_RGB('',0.689999997615814,0.689999997615814,0.689999997615814);
#205=MANIFOLD_SOLID_BREP('151994 EV-10/30-DP---(DP)',#196);
#206=SHAPE_DEFINITION_REPRESENTATION(#354,#207);
#207=SHAPE_REPRESENTATION('151994 EV-10/30-DP---(DP)',(#208),#349);
#208=AXIS2_PLACEMENT_3D('',#297,#235,#236);
#209=AXIS2_PLACEMENT_3D('',#298,#237,#238);
#210=AXIS2_PLACEMENT_3D('',#307,#243,#244);
#211=AXIS2_PLACEMENT_3D('',#308,#245,#246);
#212=AXIS2_PLACEMENT_3D('',#312,#248,#249);
#213=AXIS2_PLACEMENT_3D('',#313,#250,#251);
#214=AXIS2_PLACEMENT_3D('',#319,#255,#256);
#215=AXIS2_PLACEMENT_3D('',#320,#257,#258);
#216=AXIS2_PLACEMENT_3D('',#321,#259,#260);
#217=AXIS2_PLACEMENT_3D('',#322,#261,#262);
#218=AXIS2_PLACEMENT_3D('',#323,#263,#264);
#219=AXIS2_PLACEMENT_3D('',#325,#265,#266);
#220=AXIS2_PLACEMENT_3D('',#327,#267,#268);
#221=AXIS2_PLACEMENT_3D('',#328,#269,#270);
#222=AXIS2_PLACEMENT_3D('',#329,#271,#272);
#223=AXIS2_PLACEMENT_3D('',#331,#273,#274);
#224=AXIS2_PLACEMENT_3D('',#332,#275,#276);
#225=AXIS2_PLACEMENT_3D('',#334,#277,#278);
#226=AXIS2_PLACEMENT_3D('',#335,#279,#280);
#227=AXIS2_PLACEMENT_3D('',#337,#281,#282);
#228=AXIS2_PLACEMENT_3D('',#338,#283,#284);
#229=AXIS2_PLACEMENT_3D('',#339,#285,#286);
#230=AXIS2_PLACEMENT_3D('',#341,#287,#288);
#231=AXIS2_PLACEMENT_3D('',#342,#289,#290);
#232=AXIS2_PLACEMENT_3D('',#344,#291,#292);
#233=AXIS2_PLACEMENT_3D('',#345,#293,#294);
#234=AXIS2_PLACEMENT_3D('',#347,#295,#296);
#235=DIRECTION('',(0.,0.,1.));
#236=DIRECTION('',(1.,0.,0.));
#237=DIRECTION('',(0.,-1.,0.));
#238=DIRECTION('',(0.,0.,-1.));
#239=DIRECTION('',(0.,0.,1.));
#240=DIRECTION('',(-1.,0.,0.));
#241=DIRECTION('',(0.,0.,1.));
#242=DIRECTION('',(-1.,0.,0.));
#243=DIRECTION('',(-1.,0.,0.));
#244=DIRECTION('',(0.,0.,1.));
#245=DIRECTION('',(1.,0.,0.));
#246=DIRECTION('',(0.,0.,-1.));
#247=DIRECTION('',(-1.,0.,0.));
#248=DIRECTION('',(1.,0.,0.));
#249=DIRECTION('',(0.,0.,-1.));
#250=DIRECTION('',(0.,1.,0.));
#251=DIRECTION('',(0.,0.,1.));
#252=DIRECTION('',(0.,0.,-1.));
#253=DIRECTION('',(-1.,0.,0.));
#254=DIRECTION('',(0.,0.,-1.));
#255=DIRECTION('',(-1.,0.,0.));
#256=DIRECTION('',(0.,0.,1.));
#257=DIRECTION('',(1.,0.,0.));
#258=DIRECTION('',(0.,0.,-1.));
#259=DIRECTION('',(1.,0.,0.));
#260=DIRECTION('',(0.,0.,-1.));
#261=DIRECTION('',(1.,0.,0.));
#262=DIRECTION('',(0.,0.,-1.));
#263=DIRECTION('',(1.,0.,0.));
#264=DIRECTION('',(0.,0.,-1.));
#265=DIRECTION('',(1.,0.,0.));
#266=DIRECTION('',(0.,0.,-1.));
#267=DIRECTION('',(1.,0.,0.));
#268=DIRECTION('',(0.,0.,-1.));
#269=DIRECTION('',(1.,0.,0.));
#270=DIRECTION('',(0.,0.,-1.));
#271=DIRECTION('',(1.,0.,0.));
#272=DIRECTION('',(0.,0.,-1.));
#273=DIRECTION('',(1.,0.,0.));
#274=DIRECTION('',(0.,0.,-1.));
#275=DIRECTION('',(1.,0.,0.));
#276=DIRECTION('',(0.,0.,-1.));
#277=DIRECTION('',(1.,0.,0.));
#278=DIRECTION('',(0.,0.,-1.));
#279=DIRECTION('',(1.,0.,0.));
#280=DIRECTION('',(0.,0.,-1.));
#281=DIRECTION('',(-1.,0.,0.));
#282=DIRECTION('',(0.,0.,1.));
#283=DIRECTION('',(1.,0.,0.));
#284=DIRECTION('',(0.,0.,-1.));
#285=DIRECTION('',(1.,0.,0.));
#286=DIRECTION('',(0.,0.,-1.));
#287=DIRECTION('',(1.,0.,0.));
#288=DIRECTION('',(0.,0.,-1.));
#289=DIRECTION('',(1.,0.,0.));
#290=DIRECTION('',(0.,0.,-1.));
#291=DIRECTION('',(1.,0.,0.));
#292=DIRECTION('',(0.,0.,-1.));
#293=DIRECTION('',(1.,0.,0.));
#294=DIRECTION('',(0.,0.,-1.));
#295=DIRECTION('',(-1.,0.,0.));
#296=DIRECTION('',(0.,0.,1.));
#297=CARTESIAN_POINT('',(0.,0.,0.));
#298=CARTESIAN_POINT('',(2.5,1.5,-8.));
#299=CARTESIAN_POINT('',(0.,1.5,-8.));
#300=CARTESIAN_POINT('',(0.,1.5,-8.));
#301=CARTESIAN_POINT('',(0.,1.5,8.));
#302=CARTESIAN_POINT('',(2.5,1.5,8.));
#303=CARTESIAN_POINT('',(2.5,1.5,8.));
#304=CARTESIAN_POINT('',(2.5,1.5,-8.));
#305=CARTESIAN_POINT('',(2.5,1.5,-8.));
#306=CARTESIAN_POINT('',(2.5,1.5,-8.));
#307=CARTESIAN_POINT('',(2.5,0.,8.));
#308=CARTESIAN_POINT('',(0.,0.,8.));
#309=CARTESIAN_POINT('',(0.,-1.5,8.));
#310=CARTESIAN_POINT('',(2.5,-1.5,8.));
#311=CARTESIAN_POINT('',(2.5,-1.5,8.));
#312=CARTESIAN_POINT('',(2.5,0.,8.));
#313=CARTESIAN_POINT('',(2.5,-1.5,8.));
#314=CARTESIAN_POINT('',(0.,-1.5,8.));
#315=CARTESIAN_POINT('',(0.,-1.5,-8.));
#316=CARTESIAN_POINT('',(2.5,-1.5,-8.));
#317=CARTESIAN_POINT('',(2.5,-1.5,-8.));
#318=CARTESIAN_POINT('',(2.5,-1.5,8.));
#319=CARTESIAN_POINT('',(2.5,2.16840434497101E-16,-8.));
#320=CARTESIAN_POINT('',(0.,2.16840434497101E-16,-8.));
#321=CARTESIAN_POINT('',(2.5,2.16840434497101E-16,-8.));
#322=CARTESIAN_POINT('',(2.5,0.,8.));
#323=CARTESIAN_POINT('',(2.5,0.,-7.));
#324=CARTESIAN_POINT('',(2.5,0.,-7.75));
#325=CARTESIAN_POINT('',(2.5,0.,7.));
#326=CARTESIAN_POINT('',(2.5,0.,6.25));
#327=CARTESIAN_POINT('',(0.,0.,8.));
#328=CARTESIAN_POINT('',(2.75,0.,7.));
#329=CARTESIAN_POINT('',(2.75,0.,7.));
#330=CARTESIAN_POINT('',(2.75,0.,6.5));
#331=CARTESIAN_POINT('',(5.,0.,7.));
#332=CARTESIAN_POINT('',(4.,0.,7.));
#333=CARTESIAN_POINT('',(4.,0.,6.5));
#334=CARTESIAN_POINT('',(4.5,0.,7.));
#335=CARTESIAN_POINT('',(5.,0.,7.));
#336=CARTESIAN_POINT('',(5.,0.,6.5));
#337=CARTESIAN_POINT('',(5.,0.,6.5));
#338=CARTESIAN_POINT('',(2.75,0.,-7.));
#339=CARTESIAN_POINT('',(2.75,0.,-7.));
#340=CARTESIAN_POINT('',(2.75,0.,-7.5));
#341=CARTESIAN_POINT('',(5.,0.,-7.));
#342=CARTESIAN_POINT('',(4.,0.,-7.));
#343=CARTESIAN_POINT('',(4.,0.,-7.5));
#344=CARTESIAN_POINT('',(4.5,0.,-7.));
#345=CARTESIAN_POINT('',(5.,0.,-7.));
#346=CARTESIAN_POINT('',(5.,0.,-7.5));
#347=CARTESIAN_POINT('',(5.,0.,-7.5));
#348=MECHANICAL_DESIGN_GEOMETRIC_PRESENTATION_REPRESENTATION('',(#197),
#349);
#349=(
GEOMETRIC_REPRESENTATION_CONTEXT(3)
GLOBAL_UNCERTAINTY_ASSIGNED_CONTEXT((#350))
GLOBAL_UNIT_ASSIGNED_CONTEXT((#353,#352,#351))
REPRESENTATION_CONTEXT('151994 EV-10/30-DP---(DP)',
'TOP_LEVEL_ASSEMBLY_PART')
);
#350=UNCERTAINTY_MEASURE_WITH_UNIT(LENGTH_MEASURE(0.005),#353,
'DISTANCE_ACCURACY_VALUE','Maximum Tolerance applied to model');
#351=(
NAMED_UNIT(*)
SI_UNIT($,.STERADIAN.)
SOLID_ANGLE_UNIT()
);
#352=(
NAMED_UNIT(*)
PLANE_ANGLE_UNIT()
SI_UNIT($,.RADIAN.)
);
#353=(
LENGTH_UNIT()
NAMED_UNIT(*)
SI_UNIT(.MILLI.,.METRE.)
);
#354=PRODUCT_DEFINITION_SHAPE('','',#355);
#355=PRODUCT_DEFINITION('','',#357,#356);
#356=PRODUCT_DEFINITION_CONTEXT('',#363,'design');
#357=PRODUCT_DEFINITION_FORMATION_WITH_SPECIFIED_SOURCE('','',#359,
 .NOT_KNOWN.);
#358=PRODUCT_RELATED_PRODUCT_CATEGORY('','',(#359));
#359=PRODUCT('151994 EV-10/30-DP---(DP)','151994 EV-10/30-DP---(DP)',
'151994 EV-10/30-DP---(DP)',(#361));
#360=PRODUCT_CATEGORY('','');
#361=PRODUCT_CONTEXT('',#363,'mechanical');
#362=APPLICATION_PROTOCOL_DEFINITION('international standard',
'automotive_design',2010,#363);
#363=APPLICATION_CONTEXT(
'core data for automotive mechanical design processes');
ENDSEC;
END-ISO-10303-21;
