ISO-10303-21;
HEADER;
/* Generated by software containing ST-Developer
 * from STEP Tools, Inc. (www.steptools.com) 
 */
/* OPTION: using custom renumber hook */

FILE_DESCRIPTION(
/* description */ ('STEP AP214'),
/* implementation_level */ '2;1');

FILE_NAME(
/* name */ '152825_PUN-10X15-DUO-SI',
/* time_stamp */ '2024-09-13T19:46:16+02:00',
/* author */ ('License CC BY-ND 4.0'),
/* organization */ ('CADENAS'),
/* preprocessor_version */ 'ST-DEVELOPER v19.3',
/* originating_system */ 'PARTsolutions',
/* authorisation */ '  ');

FILE_SCHEMA (('AUTOMOTIVE_DESIGN {1 0 10303 214 3 1 1}'));
ENDSEC;

DATA;
#10=PROPERTY_DEFINITION_REPRESENTATION(#14,#12);
#11=PROPERTY_DEFINITION_REPRESENTATION(#15,#13);
#12=REPRESENTATION('',(#16),#239);
#13=REPRESENTATION('',(#17),#239);
#14=PROPERTY_DEFINITION('pmi validation property','',#244);
#15=PROPERTY_DEFINITION('pmi validation property','',#244);
#16=VALUE_REPRESENTATION_ITEM('number of annotations',COUNT_MEASURE(0.));
#17=VALUE_REPRESENTATION_ITEM('number of views',COUNT_MEASURE(0.));
#18=SHAPE_REPRESENTATION_RELATIONSHIP('','',#147,#19);
#19=ADVANCED_BREP_SHAPE_REPRESENTATION('',(#145),#239);
#20=PLANE('',#161);
#21=PLANE('',#162);
#22=PLANE('',#163);
#23=PLANE('',#164);
#24=LINE('',#212,#30);
#25=LINE('',#217,#31);
#26=LINE('',#224,#32);
#27=LINE('',#226,#33);
#28=LINE('',#234,#34);
#29=LINE('',#236,#35);
#30=VECTOR('',#175,1000.);
#31=VECTOR('',#178,1000.);
#32=VECTOR('',#185,1000.);
#33=VECTOR('',#188,1000.);
#34=VECTOR('',#199,1000.);
#35=VECTOR('',#202,1000.);
#36=ELLIPSE('',#151,4.94974746830583,3.5);
#37=ELLIPSE('',#153,7.07106781186547,5.);
#38=ELLIPSE('',#156,7.07106781186547,5.);
#39=ELLIPSE('',#160,4.94974746830583,3.5);
#40=ORIENTED_EDGE('',*,*,#68,.T.);
#41=ORIENTED_EDGE('',*,*,#69,.F.);
#42=ORIENTED_EDGE('',*,*,#70,.F.);
#43=ORIENTED_EDGE('',*,*,#71,.T.);
#44=ORIENTED_EDGE('',*,*,#72,.T.);
#45=ORIENTED_EDGE('',*,*,#73,.F.);
#46=ORIENTED_EDGE('',*,*,#74,.T.);
#47=ORIENTED_EDGE('',*,*,#75,.T.);
#48=ORIENTED_EDGE('',*,*,#70,.T.);
#49=ORIENTED_EDGE('',*,*,#76,.F.);
#50=ORIENTED_EDGE('',*,*,#72,.F.);
#51=ORIENTED_EDGE('',*,*,#77,.F.);
#52=ORIENTED_EDGE('',*,*,#78,.T.);
#53=ORIENTED_EDGE('',*,*,#79,.F.);
#54=ORIENTED_EDGE('',*,*,#68,.F.);
#55=ORIENTED_EDGE('',*,*,#78,.F.);
#56=ORIENTED_EDGE('',*,*,#76,.T.);
#57=ORIENTED_EDGE('',*,*,#73,.T.);
#58=ORIENTED_EDGE('',*,*,#74,.F.);
#59=ORIENTED_EDGE('',*,*,#80,.T.);
#60=ORIENTED_EDGE('',*,*,#79,.T.);
#61=ORIENTED_EDGE('',*,*,#81,.F.);
#62=ORIENTED_EDGE('',*,*,#71,.F.);
#63=ORIENTED_EDGE('',*,*,#69,.T.);
#64=ORIENTED_EDGE('',*,*,#81,.T.);
#65=ORIENTED_EDGE('',*,*,#75,.F.);
#66=ORIENTED_EDGE('',*,*,#80,.F.);
#67=ORIENTED_EDGE('',*,*,#77,.T.);
#68=EDGE_CURVE('',#82,#82,#92,.T.);
#69=EDGE_CURVE('',#83,#83,#36,.F.);
#70=EDGE_CURVE('',#84,#85,#24,.T.);
#71=EDGE_CURVE('',#84,#86,#37,.F.);
#72=EDGE_CURVE('',#86,#87,#25,.T.);
#73=EDGE_CURVE('',#85,#87,#93,.T.);
#74=EDGE_CURVE('',#88,#89,#38,.F.);
#75=EDGE_CURVE('',#89,#84,#26,.T.);
#76=EDGE_CURVE('',#87,#85,#94,.T.);
#77=EDGE_CURVE('',#88,#86,#27,.T.);
#78=EDGE_CURVE('',#90,#90,#95,.T.);
#79=EDGE_CURVE('',#91,#91,#39,.F.);
#80=EDGE_CURVE('',#88,#89,#28,.T.);
#81=EDGE_CURVE('',#86,#84,#29,.T.);
#82=VERTEX_POINT('',#208);
#83=VERTEX_POINT('',#210);
#84=VERTEX_POINT('',#213);
#85=VERTEX_POINT('',#214);
#86=VERTEX_POINT('',#216);
#87=VERTEX_POINT('',#218);
#88=VERTEX_POINT('',#222);
#89=VERTEX_POINT('',#223);
#90=VERTEX_POINT('',#229);
#91=VERTEX_POINT('',#231);
#92=CIRCLE('',#150,3.5);
#93=CIRCLE('',#154,5.);
#94=CIRCLE('',#157,5.);
#95=CIRCLE('',#159,3.5);
#96=EDGE_LOOP('',(#40));
#97=EDGE_LOOP('',(#41));
#98=EDGE_LOOP('',(#42,#43,#44,#45));
#99=EDGE_LOOP('',(#46,#47,#48,#49,#50,#51));
#100=EDGE_LOOP('',(#52));
#101=EDGE_LOOP('',(#53));
#102=EDGE_LOOP('',(#54));
#103=EDGE_LOOP('',(#55));
#104=EDGE_LOOP('',(#56,#57));
#105=EDGE_LOOP('',(#58,#59));
#106=EDGE_LOOP('',(#60));
#107=EDGE_LOOP('',(#61,#62));
#108=EDGE_LOOP('',(#63));
#109=EDGE_LOOP('',(#64,#65,#66,#67));
#110=FACE_BOUND('',#96,.T.);
#111=FACE_BOUND('',#97,.T.);
#112=FACE_BOUND('',#98,.T.);
#113=FACE_BOUND('',#99,.T.);
#114=FACE_BOUND('',#100,.T.);
#115=FACE_BOUND('',#101,.T.);
#116=FACE_BOUND('',#102,.T.);
#117=FACE_BOUND('',#103,.T.);
#118=FACE_BOUND('',#104,.T.);
#119=FACE_BOUND('',#105,.T.);
#120=FACE_BOUND('',#106,.T.);
#121=FACE_BOUND('',#107,.T.);
#122=FACE_BOUND('',#108,.T.);
#123=FACE_BOUND('',#109,.T.);
#124=CYLINDRICAL_SURFACE('',#149,3.5);
#125=CYLINDRICAL_SURFACE('',#152,5.);
#126=CYLINDRICAL_SURFACE('',#155,5.);
#127=CYLINDRICAL_SURFACE('',#158,3.5);
#128=ADVANCED_FACE('',(#110,#111),#124,.F.);
#129=ADVANCED_FACE('',(#112),#125,.T.);
#130=ADVANCED_FACE('',(#113),#126,.T.);
#131=ADVANCED_FACE('',(#114,#115),#127,.F.);
#132=ADVANCED_FACE('',(#116,#117,#118),#20,.T.);
#133=ADVANCED_FACE('',(#119,#120),#21,.T.);
#134=ADVANCED_FACE('',(#121,#122),#22,.T.);
#135=ADVANCED_FACE('',(#123),#23,.T.);
#136=CLOSED_SHELL('',(#128,#129,#130,#131,#132,#133,#134,#135));
#137=STYLED_ITEM('',(#138),#145);
#138=PRESENTATION_STYLE_ASSIGNMENT((#139));
#139=SURFACE_STYLE_USAGE(.BOTH.,#140);
#140=SURFACE_SIDE_STYLE('',(#141));
#141=SURFACE_STYLE_FILL_AREA(#142);
#142=FILL_AREA_STYLE('',(#143));
#143=FILL_AREA_STYLE_COLOUR('',#144);
#144=COLOUR_RGB('',0.829999983310699,0.910000026226044,0.920000016689301);
#145=MANIFOLD_SOLID_BREP('152825 PUN-10X1,5-DUO-SI---(50)',#136);
#146=SHAPE_DEFINITION_REPRESENTATION(#244,#147);
#147=SHAPE_REPRESENTATION('152825 PUN-10X1,5-DUO-SI---(50)',(#148),#239);
#148=AXIS2_PLACEMENT_3D('',#205,#165,#166);
#149=AXIS2_PLACEMENT_3D('',#206,#167,#168);
#150=AXIS2_PLACEMENT_3D('',#207,#169,#170);
#151=AXIS2_PLACEMENT_3D('',#209,#171,#172);
#152=AXIS2_PLACEMENT_3D('',#211,#173,#174);
#153=AXIS2_PLACEMENT_3D('',#215,#176,#177);
#154=AXIS2_PLACEMENT_3D('',#219,#179,#180);
#155=AXIS2_PLACEMENT_3D('',#220,#181,#182);
#156=AXIS2_PLACEMENT_3D('',#221,#183,#184);
#157=AXIS2_PLACEMENT_3D('',#225,#186,#187);
#158=AXIS2_PLACEMENT_3D('',#227,#189,#190);
#159=AXIS2_PLACEMENT_3D('',#228,#191,#192);
#160=AXIS2_PLACEMENT_3D('',#230,#193,#194);
#161=AXIS2_PLACEMENT_3D('',#232,#195,#196);
#162=AXIS2_PLACEMENT_3D('',#233,#197,#198);
#163=AXIS2_PLACEMENT_3D('',#235,#200,#201);
#164=AXIS2_PLACEMENT_3D('',#237,#203,#204);
#165=DIRECTION('',(0.,0.,1.));
#166=DIRECTION('',(1.,0.,0.));
#167=DIRECTION('',(0.,0.,1.));
#168=DIRECTION('',(1.,0.,0.));
#169=DIRECTION('',(0.,0.,1.));
#170=DIRECTION('',(1.,0.,0.));
#171=DIRECTION('',(0.,0.707106781186547,-0.707106781186548));
#172=DIRECTION('',(0.,0.707106781186548,0.707106781186547));
#173=DIRECTION('',(0.,0.,1.));
#174=DIRECTION('',(1.,0.,0.));
#175=DIRECTION('',(0.,0.,1.));
#176=DIRECTION('',(0.,0.707106781186547,-0.707106781186548));
#177=DIRECTION('',(0.,0.707106781186548,0.707106781186547));
#178=DIRECTION('',(0.,0.,1.));
#179=DIRECTION('',(0.,0.,1.));
#180=DIRECTION('',(1.,0.,0.));
#181=DIRECTION('',(0.,0.,1.));
#182=DIRECTION('',(1.,0.,0.));
#183=DIRECTION('',(0.,0.707106781186547,-0.707106781186548));
#184=DIRECTION('',(0.,0.707106781186548,0.707106781186547));
#185=DIRECTION('',(0.,0.,1.));
#186=DIRECTION('',(0.,0.,1.));
#187=DIRECTION('',(1.,0.,0.));
#188=DIRECTION('',(0.,0.,1.));
#189=DIRECTION('',(0.,0.,1.));
#190=DIRECTION('',(1.,0.,0.));
#191=DIRECTION('',(0.,0.,1.));
#192=DIRECTION('',(1.,0.,0.));
#193=DIRECTION('',(0.,0.707106781186547,-0.707106781186548));
#194=DIRECTION('',(0.,0.707106781186548,0.707106781186547));
#195=DIRECTION('',(0.,0.,1.));
#196=DIRECTION('',(1.,0.,0.));
#197=DIRECTION('',(0.,0.707106781186547,-0.707106781186548));
#198=DIRECTION('',(0.,0.707106781186548,0.707106781186547));
#199=DIRECTION('',(-1.,0.,0.));
#200=DIRECTION('',(0.,0.707106781186547,-0.707106781186548));
#201=DIRECTION('',(0.,0.707106781186548,0.707106781186547));
#202=DIRECTION('',(-1.,0.,0.));
#203=DIRECTION('',(0.,-1.,0.));
#204=DIRECTION('',(0.,0.,-1.));
#205=CARTESIAN_POINT('',(0.,0.,0.));
#206=CARTESIAN_POINT('',(0.,-4.95,-80.));
#207=CARTESIAN_POINT('',(0.,-4.95,0.));
#208=CARTESIAN_POINT('',(3.5,-4.95,0.));
#209=CARTESIAN_POINT('',(0.,-4.95,-74.95));
#210=CARTESIAN_POINT('',(0.,-1.45,-71.45));
#211=CARTESIAN_POINT('',(1.0842021724855E-16,-4.95,-80.));
#212=CARTESIAN_POINT('',(-0.705336798983293,0.,-80.));
#213=CARTESIAN_POINT('',(-0.705336798983293,0.,-70.));
#214=CARTESIAN_POINT('',(-0.705336798983293,0.,0.));
#215=CARTESIAN_POINT('',(1.0842021724855E-16,-4.95,-74.95));
#216=CARTESIAN_POINT('',(0.705336798983293,0.,-70.));
#217=CARTESIAN_POINT('',(0.705336798983292,0.,-80.));
#218=CARTESIAN_POINT('',(0.705336798983292,0.,0.));
#219=CARTESIAN_POINT('',(1.0842021724855E-16,-4.95,0.));
#220=CARTESIAN_POINT('',(1.0842021724855E-16,4.95,-80.));
#221=CARTESIAN_POINT('',(1.0842021724855E-16,4.95,-75.05));
#222=CARTESIAN_POINT('',(0.705336798983293,0.,-80.));
#223=CARTESIAN_POINT('',(-0.705336798983292,0.,-80.));
#224=CARTESIAN_POINT('',(-0.705336798983293,0.,-80.));
#225=CARTESIAN_POINT('',(1.0842021724855E-16,4.95,0.));
#226=CARTESIAN_POINT('',(0.705336798983292,0.,-80.));
#227=CARTESIAN_POINT('',(0.,4.95,-80.));
#228=CARTESIAN_POINT('',(0.,4.95,0.));
#229=CARTESIAN_POINT('',(3.5,4.95,0.));
#230=CARTESIAN_POINT('',(0.,4.95,-75.05));
#231=CARTESIAN_POINT('',(0.,8.45,-71.55));
#232=CARTESIAN_POINT('',(1.0842021724855E-16,0.,0.));
#233=CARTESIAN_POINT('',(5.,10.,-70.));
#234=CARTESIAN_POINT('',(1.0842021724855E-16,0.,-80.));
#235=CARTESIAN_POINT('',(5.,0.,-70.));
#236=CARTESIAN_POINT('',(5.,0.,-70.));
#237=CARTESIAN_POINT('',(5.,0.,-90.));
#238=MECHANICAL_DESIGN_GEOMETRIC_PRESENTATION_REPRESENTATION('',(#137),
#239);
#239=(
GEOMETRIC_REPRESENTATION_CONTEXT(3)
GLOBAL_UNCERTAINTY_ASSIGNED_CONTEXT((#240))
GLOBAL_UNIT_ASSIGNED_CONTEXT((#243,#242,#241))
REPRESENTATION_CONTEXT('152825 PUN-10X1,5-DUO-SI---(50)',
'TOP_LEVEL_ASSEMBLY_PART')
);
#240=UNCERTAINTY_MEASURE_WITH_UNIT(LENGTH_MEASURE(0.005),#243,
'DISTANCE_ACCURACY_VALUE','Maximum Tolerance applied to model');
#241=(
NAMED_UNIT(*)
SI_UNIT($,.STERADIAN.)
SOLID_ANGLE_UNIT()
);
#242=(
NAMED_UNIT(*)
PLANE_ANGLE_UNIT()
SI_UNIT($,.RADIAN.)
);
#243=(
LENGTH_UNIT()
NAMED_UNIT(*)
SI_UNIT(.MILLI.,.METRE.)
);
#244=PRODUCT_DEFINITION_SHAPE('','',#245);
#245=PRODUCT_DEFINITION('','',#247,#246);
#246=PRODUCT_DEFINITION_CONTEXT('',#253,'design');
#247=PRODUCT_DEFINITION_FORMATION_WITH_SPECIFIED_SOURCE('','',#249,
 .NOT_KNOWN.);
#248=PRODUCT_RELATED_PRODUCT_CATEGORY('','',(#249));
#249=PRODUCT('152825 PUN-10X1,5-DUO-SI---(50)',
'152825 PUN-10X1,5-DUO-SI---(50)','152825 PUN-10X1,5-DUO-SI---(50)',(#251));
#250=PRODUCT_CATEGORY('','');
#251=PRODUCT_CONTEXT('',#253,'mechanical');
#252=APPLICATION_PROTOCOL_DEFINITION('international standard',
'automotive_design',2010,#253);
#253=APPLICATION_CONTEXT(
'core data for automotive mechanical design processes');
ENDSEC;
END-ISO-10303-21;
