ISO-10303-21;
HEADER;
/* Generated by software containing ST-Developer
 * from STEP Tools, Inc. (www.steptools.com) 
 */
/* OPTION: using custom renumber hook */

FILE_DESCRIPTION(
/* description */ ('STEP AP214'),
/* implementation_level */ '2;1');

FILE_NAME(
/* name */ '153041_QS-6H-4',
/* time_stamp */ '2024-09-11T17:10:07+02:00',
/* author */ ('License CC BY-ND 4.0'),
/* organization */ ('CADENAS'),
/* preprocessor_version */ 'ST-DEVELOPER v19.3',
/* originating_system */ 'PARTsolutions',
/* authorisation */ '  ');

FILE_SCHEMA (('AUTOMOTIVE_DESIGN {1 0 10303 214 3 1 1}'));
ENDSEC;

DATA;
#10=PROPERTY_DEFINITION_REPRESENTATION(#14,#12);
#11=PROPERTY_DEFINITION_REPRESENTATION(#15,#13);
#12=REPRESENTATION('',(#16),#760);
#13=REPRESENTATION('',(#17),#760);
#14=PROPERTY_DEFINITION('pmi validation property','',#765);
#15=PROPERTY_DEFINITION('pmi validation property','',#765);
#16=VALUE_REPRESENTATION_ITEM('number of annotations',COUNT_MEASURE(0.));
#17=VALUE_REPRESENTATION_ITEM('number of views',COUNT_MEASURE(0.));
#18=SHAPE_REPRESENTATION_RELATIONSHIP('','',#511,#19);
#19=ADVANCED_BREP_SHAPE_REPRESENTATION('',(#509),#760);
#20=PLANE('',#520);
#21=PLANE('',#524);
#22=PLANE('',#530);
#23=PLANE('',#534);
#24=PLANE('',#538);
#25=PLANE('',#544);
#26=PLANE('',#556);
#27=PLANE('',#562);
#28=CYLINDRICAL_SURFACE('',#518,2.);
#29=CYLINDRICAL_SURFACE('',#522,1.25);
#30=CYLINDRICAL_SURFACE('',#528,3.);
#31=CYLINDRICAL_SURFACE('',#532,5.);
#32=CYLINDRICAL_SURFACE('',#536,4.7);
#33=CYLINDRICAL_SURFACE('',#540,5.);
#34=CYLINDRICAL_SURFACE('',#546,4.85);
#35=CYLINDRICAL_SURFACE('',#552,4.85);
#36=CYLINDRICAL_SURFACE('',#558,2.5);
#37=CYLINDRICAL_SURFACE('',#564,4.95);
#38=TOROIDAL_SURFACE('',#516,2.29999999999999,0.299999999999988);
#39=TOROIDAL_SURFACE('',#526,2.8,0.2);
#40=TOROIDAL_SURFACE('',#560,2.84999999999998,0.349999999999984);
#41=TOROIDAL_SURFACE('',#566,4.75,0.199999999999999);
#42=ORIENTED_EDGE('',*,*,#96,.T.);
#43=ORIENTED_EDGE('',*,*,#97,.F.);
#44=ORIENTED_EDGE('',*,*,#98,.T.);
#45=ORIENTED_EDGE('',*,*,#96,.F.);
#46=ORIENTED_EDGE('',*,*,#99,.T.);
#47=ORIENTED_EDGE('',*,*,#98,.F.);
#48=ORIENTED_EDGE('',*,*,#100,.T.);
#49=ORIENTED_EDGE('',*,*,#99,.F.);
#50=ORIENTED_EDGE('',*,*,#101,.T.);
#51=ORIENTED_EDGE('',*,*,#100,.F.);
#52=ORIENTED_EDGE('',*,*,#102,.T.);
#53=ORIENTED_EDGE('',*,*,#101,.F.);
#54=ORIENTED_EDGE('',*,*,#103,.T.);
#55=ORIENTED_EDGE('',*,*,#102,.F.);
#56=ORIENTED_EDGE('',*,*,#104,.T.);
#57=ORIENTED_EDGE('',*,*,#103,.F.);
#58=ORIENTED_EDGE('',*,*,#105,.T.);
#59=ORIENTED_EDGE('',*,*,#104,.F.);
#60=ORIENTED_EDGE('',*,*,#106,.T.);
#61=ORIENTED_EDGE('',*,*,#105,.F.);
#62=ORIENTED_EDGE('',*,*,#107,.T.);
#63=ORIENTED_EDGE('',*,*,#106,.F.);
#64=ORIENTED_EDGE('',*,*,#108,.T.);
#65=ORIENTED_EDGE('',*,*,#107,.F.);
#66=ORIENTED_EDGE('',*,*,#109,.T.);
#67=ORIENTED_EDGE('',*,*,#108,.F.);
#68=ORIENTED_EDGE('',*,*,#110,.T.);
#69=ORIENTED_EDGE('',*,*,#109,.F.);
#70=ORIENTED_EDGE('',*,*,#111,.T.);
#71=ORIENTED_EDGE('',*,*,#110,.F.);
#72=ORIENTED_EDGE('',*,*,#112,.T.);
#73=ORIENTED_EDGE('',*,*,#111,.F.);
#74=ORIENTED_EDGE('',*,*,#113,.T.);
#75=ORIENTED_EDGE('',*,*,#112,.F.);
#76=ORIENTED_EDGE('',*,*,#114,.T.);
#77=ORIENTED_EDGE('',*,*,#113,.F.);
#78=ORIENTED_EDGE('',*,*,#115,.T.);
#79=ORIENTED_EDGE('',*,*,#114,.F.);
#80=ORIENTED_EDGE('',*,*,#116,.T.);
#81=ORIENTED_EDGE('',*,*,#115,.F.);
#82=ORIENTED_EDGE('',*,*,#117,.T.);
#83=ORIENTED_EDGE('',*,*,#116,.F.);
#84=ORIENTED_EDGE('',*,*,#118,.T.);
#85=ORIENTED_EDGE('',*,*,#117,.F.);
#86=ORIENTED_EDGE('',*,*,#119,.T.);
#87=ORIENTED_EDGE('',*,*,#118,.F.);
#88=ORIENTED_EDGE('',*,*,#119,.F.);
#89=ORIENTED_EDGE('',*,*,#120,.T.);
#90=ORIENTED_EDGE('',*,*,#121,.T.);
#91=ORIENTED_EDGE('',*,*,#120,.F.);
#92=ORIENTED_EDGE('',*,*,#122,.T.);
#93=ORIENTED_EDGE('',*,*,#121,.F.);
#94=ORIENTED_EDGE('',*,*,#97,.T.);
#95=ORIENTED_EDGE('',*,*,#122,.F.);
#96=EDGE_CURVE('',#123,#123,#150,.T.);
#97=EDGE_CURVE('',#124,#124,#151,.T.);
#98=EDGE_CURVE('',#125,#125,#152,.T.);
#99=EDGE_CURVE('',#126,#126,#153,.T.);
#100=EDGE_CURVE('',#127,#127,#154,.T.);
#101=EDGE_CURVE('',#128,#128,#155,.T.);
#102=EDGE_CURVE('',#129,#129,#156,.T.);
#103=EDGE_CURVE('',#130,#130,#157,.T.);
#104=EDGE_CURVE('',#131,#131,#158,.T.);
#105=EDGE_CURVE('',#132,#132,#159,.T.);
#106=EDGE_CURVE('',#133,#133,#160,.T.);
#107=EDGE_CURVE('',#134,#134,#161,.T.);
#108=EDGE_CURVE('',#135,#135,#162,.T.);
#109=EDGE_CURVE('',#136,#136,#163,.T.);
#110=EDGE_CURVE('',#137,#137,#164,.T.);
#111=EDGE_CURVE('',#138,#138,#165,.T.);
#112=EDGE_CURVE('',#139,#139,#166,.T.);
#113=EDGE_CURVE('',#140,#140,#167,.T.);
#114=EDGE_CURVE('',#141,#141,#168,.T.);
#115=EDGE_CURVE('',#142,#142,#169,.T.);
#116=EDGE_CURVE('',#143,#143,#170,.T.);
#117=EDGE_CURVE('',#144,#144,#171,.T.);
#118=EDGE_CURVE('',#145,#145,#172,.T.);
#119=EDGE_CURVE('',#146,#146,#173,.T.);
#120=EDGE_CURVE('',#147,#147,#174,.T.);
#121=EDGE_CURVE('',#148,#148,#175,.T.);
#122=EDGE_CURVE('',#149,#149,#176,.T.);
#123=VERTEX_POINT('',#680);
#124=VERTEX_POINT('',#682);
#125=VERTEX_POINT('',#685);
#126=VERTEX_POINT('',#688);
#127=VERTEX_POINT('',#691);
#128=VERTEX_POINT('',#694);
#129=VERTEX_POINT('',#697);
#130=VERTEX_POINT('',#700);
#131=VERTEX_POINT('',#703);
#132=VERTEX_POINT('',#706);
#133=VERTEX_POINT('',#709);
#134=VERTEX_POINT('',#712);
#135=VERTEX_POINT('',#715);
#136=VERTEX_POINT('',#718);
#137=VERTEX_POINT('',#721);
#138=VERTEX_POINT('',#724);
#139=VERTEX_POINT('',#727);
#140=VERTEX_POINT('',#730);
#141=VERTEX_POINT('',#733);
#142=VERTEX_POINT('',#736);
#143=VERTEX_POINT('',#739);
#144=VERTEX_POINT('',#742);
#145=VERTEX_POINT('',#745);
#146=VERTEX_POINT('',#748);
#147=VERTEX_POINT('',#751);
#148=VERTEX_POINT('',#754);
#149=VERTEX_POINT('',#757);
#150=CIRCLE('',#514,2.29999999999996);
#151=CIRCLE('',#515,4.78472963553339);
#152=CIRCLE('',#517,2.);
#153=CIRCLE('',#519,2.);
#154=CIRCLE('',#521,1.25);
#155=CIRCLE('',#523,1.25);
#156=CIRCLE('',#525,2.8);
#157=CIRCLE('',#527,3.);
#158=CIRCLE('',#529,3.);
#159=CIRCLE('',#531,5.);
#160=CIRCLE('',#533,5.);
#161=CIRCLE('',#535,4.7);
#162=CIRCLE('',#537,4.7);
#163=CIRCLE('',#539,5.);
#164=CIRCLE('',#541,5.);
#165=CIRCLE('',#543,4.91302008350776);
#166=CIRCLE('',#545,4.85);
#167=CIRCLE('',#547,4.85);
#168=CIRCLE('',#549,4.75);
#169=CIRCLE('',#551,4.85);
#170=CIRCLE('',#553,4.85);
#171=CIRCLE('',#555,4.70857864376269);
#172=CIRCLE('',#557,2.5);
#173=CIRCLE('',#559,2.5);
#174=CIRCLE('',#561,2.85);
#175=CIRCLE('',#563,4.95);
#176=CIRCLE('',#565,4.95);
#177=EDGE_LOOP('',(#42));
#178=EDGE_LOOP('',(#43));
#179=EDGE_LOOP('',(#44));
#180=EDGE_LOOP('',(#45));
#181=EDGE_LOOP('',(#46));
#182=EDGE_LOOP('',(#47));
#183=EDGE_LOOP('',(#48));
#184=EDGE_LOOP('',(#49));
#185=EDGE_LOOP('',(#50));
#186=EDGE_LOOP('',(#51));
#187=EDGE_LOOP('',(#52));
#188=EDGE_LOOP('',(#53));
#189=EDGE_LOOP('',(#54));
#190=EDGE_LOOP('',(#55));
#191=EDGE_LOOP('',(#56));
#192=EDGE_LOOP('',(#57));
#193=EDGE_LOOP('',(#58));
#194=EDGE_LOOP('',(#59));
#195=EDGE_LOOP('',(#60));
#196=EDGE_LOOP('',(#61));
#197=EDGE_LOOP('',(#62));
#198=EDGE_LOOP('',(#63));
#199=EDGE_LOOP('',(#64));
#200=EDGE_LOOP('',(#65));
#201=EDGE_LOOP('',(#66));
#202=EDGE_LOOP('',(#67));
#203=EDGE_LOOP('',(#68));
#204=EDGE_LOOP('',(#69));
#205=EDGE_LOOP('',(#70));
#206=EDGE_LOOP('',(#71));
#207=EDGE_LOOP('',(#72));
#208=EDGE_LOOP('',(#73));
#209=EDGE_LOOP('',(#74));
#210=EDGE_LOOP('',(#75));
#211=EDGE_LOOP('',(#76));
#212=EDGE_LOOP('',(#77));
#213=EDGE_LOOP('',(#78));
#214=EDGE_LOOP('',(#79));
#215=EDGE_LOOP('',(#80));
#216=EDGE_LOOP('',(#81));
#217=EDGE_LOOP('',(#82));
#218=EDGE_LOOP('',(#83));
#219=EDGE_LOOP('',(#84));
#220=EDGE_LOOP('',(#85));
#221=EDGE_LOOP('',(#86));
#222=EDGE_LOOP('',(#87));
#223=EDGE_LOOP('',(#88));
#224=EDGE_LOOP('',(#89));
#225=EDGE_LOOP('',(#90));
#226=EDGE_LOOP('',(#91));
#227=EDGE_LOOP('',(#92));
#228=EDGE_LOOP('',(#93));
#229=EDGE_LOOP('',(#94));
#230=EDGE_LOOP('',(#95));
#231=FACE_BOUND('',#177,.T.);
#232=FACE_BOUND('',#178,.T.);
#233=FACE_BOUND('',#179,.T.);
#234=FACE_BOUND('',#180,.T.);
#235=FACE_BOUND('',#181,.T.);
#236=FACE_BOUND('',#182,.T.);
#237=FACE_BOUND('',#183,.T.);
#238=FACE_BOUND('',#184,.T.);
#239=FACE_BOUND('',#185,.T.);
#240=FACE_BOUND('',#186,.T.);
#241=FACE_BOUND('',#187,.T.);
#242=FACE_BOUND('',#188,.T.);
#243=FACE_BOUND('',#189,.T.);
#244=FACE_BOUND('',#190,.T.);
#245=FACE_BOUND('',#191,.T.);
#246=FACE_BOUND('',#192,.T.);
#247=FACE_BOUND('',#193,.T.);
#248=FACE_BOUND('',#194,.T.);
#249=FACE_BOUND('',#195,.T.);
#250=FACE_BOUND('',#196,.T.);
#251=FACE_BOUND('',#197,.T.);
#252=FACE_BOUND('',#198,.T.);
#253=FACE_BOUND('',#199,.T.);
#254=FACE_BOUND('',#200,.T.);
#255=FACE_BOUND('',#201,.T.);
#256=FACE_BOUND('',#202,.T.);
#257=FACE_BOUND('',#203,.T.);
#258=FACE_BOUND('',#204,.T.);
#259=FACE_BOUND('',#205,.T.);
#260=FACE_BOUND('',#206,.T.);
#261=FACE_BOUND('',#207,.T.);
#262=FACE_BOUND('',#208,.T.);
#263=FACE_BOUND('',#209,.T.);
#264=FACE_BOUND('',#210,.T.);
#265=FACE_BOUND('',#211,.T.);
#266=FACE_BOUND('',#212,.T.);
#267=FACE_BOUND('',#213,.T.);
#268=FACE_BOUND('',#214,.T.);
#269=FACE_BOUND('',#215,.T.);
#270=FACE_BOUND('',#216,.T.);
#271=FACE_BOUND('',#217,.T.);
#272=FACE_BOUND('',#218,.T.);
#273=FACE_BOUND('',#219,.T.);
#274=FACE_BOUND('',#220,.T.);
#275=FACE_BOUND('',#221,.T.);
#276=FACE_BOUND('',#222,.T.);
#277=FACE_BOUND('',#223,.T.);
#278=FACE_BOUND('',#224,.T.);
#279=FACE_BOUND('',#225,.T.);
#280=FACE_BOUND('',#226,.T.);
#281=FACE_BOUND('',#227,.T.);
#282=FACE_BOUND('',#228,.T.);
#283=FACE_BOUND('',#229,.T.);
#284=FACE_BOUND('',#230,.T.);
#285=CONICAL_SURFACE('',#513,4.78472963553339,1.39626340159547);
#286=CONICAL_SURFACE('',#542,5.,0.0523598775598297);
#287=CONICAL_SURFACE('',#548,4.85,0.785398163397474);
#288=CONICAL_SURFACE('',#550,4.75,0.785398163397444);
#289=CONICAL_SURFACE('',#554,4.85,0.785398163397461);
#290=STYLED_ITEM('',(#317),#481);
#291=STYLED_ITEM('',(#318),#482);
#292=STYLED_ITEM('',(#319),#483);
#293=STYLED_ITEM('',(#320),#484);
#294=STYLED_ITEM('',(#321),#485);
#295=STYLED_ITEM('',(#322),#486);
#296=STYLED_ITEM('',(#323),#487);
#297=STYLED_ITEM('',(#324),#488);
#298=STYLED_ITEM('',(#325),#489);
#299=STYLED_ITEM('',(#326),#490);
#300=STYLED_ITEM('',(#327),#491);
#301=STYLED_ITEM('',(#328),#492);
#302=STYLED_ITEM('',(#329),#493);
#303=STYLED_ITEM('',(#330),#494);
#304=STYLED_ITEM('',(#331),#495);
#305=STYLED_ITEM('',(#332),#496);
#306=STYLED_ITEM('',(#333),#497);
#307=STYLED_ITEM('',(#334),#498);
#308=STYLED_ITEM('',(#335),#499);
#309=STYLED_ITEM('',(#336),#500);
#310=STYLED_ITEM('',(#337),#501);
#311=STYLED_ITEM('',(#338),#502);
#312=STYLED_ITEM('',(#339),#503);
#313=STYLED_ITEM('',(#340),#504);
#314=STYLED_ITEM('',(#341),#505);
#315=STYLED_ITEM('',(#342),#506);
#316=STYLED_ITEM('',(#343),#507);
#317=PRESENTATION_STYLE_ASSIGNMENT((#344));
#318=PRESENTATION_STYLE_ASSIGNMENT((#345));
#319=PRESENTATION_STYLE_ASSIGNMENT((#346));
#320=PRESENTATION_STYLE_ASSIGNMENT((#347));
#321=PRESENTATION_STYLE_ASSIGNMENT((#348));
#322=PRESENTATION_STYLE_ASSIGNMENT((#349));
#323=PRESENTATION_STYLE_ASSIGNMENT((#350));
#324=PRESENTATION_STYLE_ASSIGNMENT((#351));
#325=PRESENTATION_STYLE_ASSIGNMENT((#352));
#326=PRESENTATION_STYLE_ASSIGNMENT((#353));
#327=PRESENTATION_STYLE_ASSIGNMENT((#354));
#328=PRESENTATION_STYLE_ASSIGNMENT((#355));
#329=PRESENTATION_STYLE_ASSIGNMENT((#356));
#330=PRESENTATION_STYLE_ASSIGNMENT((#357));
#331=PRESENTATION_STYLE_ASSIGNMENT((#358));
#332=PRESENTATION_STYLE_ASSIGNMENT((#359));
#333=PRESENTATION_STYLE_ASSIGNMENT((#360));
#334=PRESENTATION_STYLE_ASSIGNMENT((#361));
#335=PRESENTATION_STYLE_ASSIGNMENT((#362));
#336=PRESENTATION_STYLE_ASSIGNMENT((#363));
#337=PRESENTATION_STYLE_ASSIGNMENT((#364));
#338=PRESENTATION_STYLE_ASSIGNMENT((#365));
#339=PRESENTATION_STYLE_ASSIGNMENT((#366));
#340=PRESENTATION_STYLE_ASSIGNMENT((#367));
#341=PRESENTATION_STYLE_ASSIGNMENT((#368));
#342=PRESENTATION_STYLE_ASSIGNMENT((#369));
#343=PRESENTATION_STYLE_ASSIGNMENT((#370));
#344=SURFACE_STYLE_USAGE(.BOTH.,#371);
#345=SURFACE_STYLE_USAGE(.BOTH.,#372);
#346=SURFACE_STYLE_USAGE(.BOTH.,#373);
#347=SURFACE_STYLE_USAGE(.BOTH.,#374);
#348=SURFACE_STYLE_USAGE(.BOTH.,#375);
#349=SURFACE_STYLE_USAGE(.BOTH.,#376);
#350=SURFACE_STYLE_USAGE(.BOTH.,#377);
#351=SURFACE_STYLE_USAGE(.BOTH.,#378);
#352=SURFACE_STYLE_USAGE(.BOTH.,#379);
#353=SURFACE_STYLE_USAGE(.BOTH.,#380);
#354=SURFACE_STYLE_USAGE(.BOTH.,#381);
#355=SURFACE_STYLE_USAGE(.BOTH.,#382);
#356=SURFACE_STYLE_USAGE(.BOTH.,#383);
#357=SURFACE_STYLE_USAGE(.BOTH.,#384);
#358=SURFACE_STYLE_USAGE(.BOTH.,#385);
#359=SURFACE_STYLE_USAGE(.BOTH.,#386);
#360=SURFACE_STYLE_USAGE(.BOTH.,#387);
#361=SURFACE_STYLE_USAGE(.BOTH.,#388);
#362=SURFACE_STYLE_USAGE(.BOTH.,#389);
#363=SURFACE_STYLE_USAGE(.BOTH.,#390);
#364=SURFACE_STYLE_USAGE(.BOTH.,#391);
#365=SURFACE_STYLE_USAGE(.BOTH.,#392);
#366=SURFACE_STYLE_USAGE(.BOTH.,#393);
#367=SURFACE_STYLE_USAGE(.BOTH.,#394);
#368=SURFACE_STYLE_USAGE(.BOTH.,#395);
#369=SURFACE_STYLE_USAGE(.BOTH.,#396);
#370=SURFACE_STYLE_USAGE(.BOTH.,#397);
#371=SURFACE_SIDE_STYLE('',(#398));
#372=SURFACE_SIDE_STYLE('',(#399));
#373=SURFACE_SIDE_STYLE('',(#400));
#374=SURFACE_SIDE_STYLE('',(#401));
#375=SURFACE_SIDE_STYLE('',(#402));
#376=SURFACE_SIDE_STYLE('',(#403));
#377=SURFACE_SIDE_STYLE('',(#404));
#378=SURFACE_SIDE_STYLE('',(#405));
#379=SURFACE_SIDE_STYLE('',(#406));
#380=SURFACE_SIDE_STYLE('',(#407));
#381=SURFACE_SIDE_STYLE('',(#408));
#382=SURFACE_SIDE_STYLE('',(#409));
#383=SURFACE_SIDE_STYLE('',(#410));
#384=SURFACE_SIDE_STYLE('',(#411));
#385=SURFACE_SIDE_STYLE('',(#412));
#386=SURFACE_SIDE_STYLE('',(#413));
#387=SURFACE_SIDE_STYLE('',(#414));
#388=SURFACE_SIDE_STYLE('',(#415));
#389=SURFACE_SIDE_STYLE('',(#416));
#390=SURFACE_SIDE_STYLE('',(#417));
#391=SURFACE_SIDE_STYLE('',(#418));
#392=SURFACE_SIDE_STYLE('',(#419));
#393=SURFACE_SIDE_STYLE('',(#420));
#394=SURFACE_SIDE_STYLE('',(#421));
#395=SURFACE_SIDE_STYLE('',(#422));
#396=SURFACE_SIDE_STYLE('',(#423));
#397=SURFACE_SIDE_STYLE('',(#424));
#398=SURFACE_STYLE_FILL_AREA(#425);
#399=SURFACE_STYLE_FILL_AREA(#426);
#400=SURFACE_STYLE_FILL_AREA(#427);
#401=SURFACE_STYLE_FILL_AREA(#428);
#402=SURFACE_STYLE_FILL_AREA(#429);
#403=SURFACE_STYLE_FILL_AREA(#430);
#404=SURFACE_STYLE_FILL_AREA(#431);
#405=SURFACE_STYLE_FILL_AREA(#432);
#406=SURFACE_STYLE_FILL_AREA(#433);
#407=SURFACE_STYLE_FILL_AREA(#434);
#408=SURFACE_STYLE_FILL_AREA(#435);
#409=SURFACE_STYLE_FILL_AREA(#436);
#410=SURFACE_STYLE_FILL_AREA(#437);
#411=SURFACE_STYLE_FILL_AREA(#438);
#412=SURFACE_STYLE_FILL_AREA(#439);
#413=SURFACE_STYLE_FILL_AREA(#440);
#414=SURFACE_STYLE_FILL_AREA(#441);
#415=SURFACE_STYLE_FILL_AREA(#442);
#416=SURFACE_STYLE_FILL_AREA(#443);
#417=SURFACE_STYLE_FILL_AREA(#444);
#418=SURFACE_STYLE_FILL_AREA(#445);
#419=SURFACE_STYLE_FILL_AREA(#446);
#420=SURFACE_STYLE_FILL_AREA(#447);
#421=SURFACE_STYLE_FILL_AREA(#448);
#422=SURFACE_STYLE_FILL_AREA(#449);
#423=SURFACE_STYLE_FILL_AREA(#450);
#424=SURFACE_STYLE_FILL_AREA(#451);
#425=FILL_AREA_STYLE('',(#452));
#426=FILL_AREA_STYLE('',(#453));
#427=FILL_AREA_STYLE('',(#454));
#428=FILL_AREA_STYLE('',(#455));
#429=FILL_AREA_STYLE('',(#456));
#430=FILL_AREA_STYLE('',(#457));
#431=FILL_AREA_STYLE('',(#458));
#432=FILL_AREA_STYLE('',(#459));
#433=FILL_AREA_STYLE('',(#460));
#434=FILL_AREA_STYLE('',(#461));
#435=FILL_AREA_STYLE('',(#462));
#436=FILL_AREA_STYLE('',(#463));
#437=FILL_AREA_STYLE('',(#464));
#438=FILL_AREA_STYLE('',(#465));
#439=FILL_AREA_STYLE('',(#466));
#440=FILL_AREA_STYLE('',(#467));
#441=FILL_AREA_STYLE('',(#468));
#442=FILL_AREA_STYLE('',(#469));
#443=FILL_AREA_STYLE('',(#470));
#444=FILL_AREA_STYLE('',(#471));
#445=FILL_AREA_STYLE('',(#472));
#446=FILL_AREA_STYLE('',(#473));
#447=FILL_AREA_STYLE('',(#474));
#448=FILL_AREA_STYLE('',(#475));
#449=FILL_AREA_STYLE('',(#476));
#450=FILL_AREA_STYLE('',(#477));
#451=FILL_AREA_STYLE('',(#478));
#452=FILL_AREA_STYLE_COLOUR('',#479);
#453=FILL_AREA_STYLE_COLOUR('',#479);
#454=FILL_AREA_STYLE_COLOUR('',#480);
#455=FILL_AREA_STYLE_COLOUR('',#480);
#456=FILL_AREA_STYLE_COLOUR('',#480);
#457=FILL_AREA_STYLE_COLOUR('',#480);
#458=FILL_AREA_STYLE_COLOUR('',#480);
#459=FILL_AREA_STYLE_COLOUR('',#480);
#460=FILL_AREA_STYLE_COLOUR('',#480);
#461=FILL_AREA_STYLE_COLOUR('',#480);
#462=FILL_AREA_STYLE_COLOUR('',#480);
#463=FILL_AREA_STYLE_COLOUR('',#480);
#464=FILL_AREA_STYLE_COLOUR('',#480);
#465=FILL_AREA_STYLE_COLOUR('',#480);
#466=FILL_AREA_STYLE_COLOUR('',#480);
#467=FILL_AREA_STYLE_COLOUR('',#480);
#468=FILL_AREA_STYLE_COLOUR('',#480);
#469=FILL_AREA_STYLE_COLOUR('',#480);
#470=FILL_AREA_STYLE_COLOUR('',#480);
#471=FILL_AREA_STYLE_COLOUR('',#480);
#472=FILL_AREA_STYLE_COLOUR('',#480);
#473=FILL_AREA_STYLE_COLOUR('',#480);
#474=FILL_AREA_STYLE_COLOUR('',#479);
#475=FILL_AREA_STYLE_COLOUR('',#479);
#476=FILL_AREA_STYLE_COLOUR('',#479);
#477=FILL_AREA_STYLE_COLOUR('',#479);
#478=FILL_AREA_STYLE_COLOUR('',#479);
#479=COLOUR_RGB('',0.,0.60000002384186,1.);
#480=COLOUR_RGB('',0.689999997615814,0.689999997615814,0.689999997615814);
#481=ADVANCED_FACE('',(#231,#232),#285,.T.);
#482=ADVANCED_FACE('',(#233,#234),#38,.T.);
#483=ADVANCED_FACE('',(#235,#236),#28,.F.);
#484=ADVANCED_FACE('',(#237,#238),#20,.T.);
#485=ADVANCED_FACE('',(#239,#240),#29,.F.);
#486=ADVANCED_FACE('',(#241,#242),#21,.T.);
#487=ADVANCED_FACE('',(#243,#244),#39,.T.);
#488=ADVANCED_FACE('',(#245,#246),#30,.T.);
#489=ADVANCED_FACE('',(#247,#248),#22,.T.);
#490=ADVANCED_FACE('',(#249,#250),#31,.T.);
#491=ADVANCED_FACE('',(#251,#252),#23,.T.);
#492=ADVANCED_FACE('',(#253,#254),#32,.T.);
#493=ADVANCED_FACE('',(#255,#256),#24,.T.);
#494=ADVANCED_FACE('',(#257,#258),#33,.T.);
#495=ADVANCED_FACE('',(#259,#260),#286,.T.);
#496=ADVANCED_FACE('',(#261,#262),#25,.T.);
#497=ADVANCED_FACE('',(#263,#264),#34,.T.);
#498=ADVANCED_FACE('',(#265,#266),#287,.T.);
#499=ADVANCED_FACE('',(#267,#268),#288,.T.);
#500=ADVANCED_FACE('',(#269,#270),#35,.T.);
#501=ADVANCED_FACE('',(#271,#272),#289,.T.);
#502=ADVANCED_FACE('',(#273,#274),#26,.T.);
#503=ADVANCED_FACE('',(#275,#276),#36,.T.);
#504=ADVANCED_FACE('',(#277,#278),#40,.F.);
#505=ADVANCED_FACE('',(#279,#280),#27,.T.);
#506=ADVANCED_FACE('',(#281,#282),#37,.T.);
#507=ADVANCED_FACE('',(#283,#284),#41,.T.);
#508=CLOSED_SHELL('',(#481,#482,#483,#484,#485,#486,#487,#488,#489,#490,
#491,#492,#493,#494,#495,#496,#497,#498,#499,#500,#501,#502,#503,#504,#505,
#506,#507));
#509=MANIFOLD_SOLID_BREP('153041 QS-6H-4',#508);
#510=SHAPE_DEFINITION_REPRESENTATION(#765,#511);
#511=SHAPE_REPRESENTATION('153041 QS-6H-4',(#512),#760);
#512=AXIS2_PLACEMENT_3D('',#677,#567,#568);
#513=AXIS2_PLACEMENT_3D('',#678,#569,#570);
#514=AXIS2_PLACEMENT_3D('',#679,#571,#572);
#515=AXIS2_PLACEMENT_3D('',#681,#573,#574);
#516=AXIS2_PLACEMENT_3D('',#683,#575,#576);
#517=AXIS2_PLACEMENT_3D('',#684,#577,#578);
#518=AXIS2_PLACEMENT_3D('',#686,#579,#580);
#519=AXIS2_PLACEMENT_3D('',#687,#581,#582);
#520=AXIS2_PLACEMENT_3D('',#689,#583,#584);
#521=AXIS2_PLACEMENT_3D('',#690,#585,#586);
#522=AXIS2_PLACEMENT_3D('',#692,#587,#588);
#523=AXIS2_PLACEMENT_3D('',#693,#589,#590);
#524=AXIS2_PLACEMENT_3D('',#695,#591,#592);
#525=AXIS2_PLACEMENT_3D('',#696,#593,#594);
#526=AXIS2_PLACEMENT_3D('',#698,#595,#596);
#527=AXIS2_PLACEMENT_3D('',#699,#597,#598);
#528=AXIS2_PLACEMENT_3D('',#701,#599,#600);
#529=AXIS2_PLACEMENT_3D('',#702,#601,#602);
#530=AXIS2_PLACEMENT_3D('',#704,#603,#604);
#531=AXIS2_PLACEMENT_3D('',#705,#605,#606);
#532=AXIS2_PLACEMENT_3D('',#707,#607,#608);
#533=AXIS2_PLACEMENT_3D('',#708,#609,#610);
#534=AXIS2_PLACEMENT_3D('',#710,#611,#612);
#535=AXIS2_PLACEMENT_3D('',#711,#613,#614);
#536=AXIS2_PLACEMENT_3D('',#713,#615,#616);
#537=AXIS2_PLACEMENT_3D('',#714,#617,#618);
#538=AXIS2_PLACEMENT_3D('',#716,#619,#620);
#539=AXIS2_PLACEMENT_3D('',#717,#621,#622);
#540=AXIS2_PLACEMENT_3D('',#719,#623,#624);
#541=AXIS2_PLACEMENT_3D('',#720,#625,#626);
#542=AXIS2_PLACEMENT_3D('',#722,#627,#628);
#543=AXIS2_PLACEMENT_3D('',#723,#629,#630);
#544=AXIS2_PLACEMENT_3D('',#725,#631,#632);
#545=AXIS2_PLACEMENT_3D('',#726,#633,#634);
#546=AXIS2_PLACEMENT_3D('',#728,#635,#636);
#547=AXIS2_PLACEMENT_3D('',#729,#637,#638);
#548=AXIS2_PLACEMENT_3D('',#731,#639,#640);
#549=AXIS2_PLACEMENT_3D('',#732,#641,#642);
#550=AXIS2_PLACEMENT_3D('',#734,#643,#644);
#551=AXIS2_PLACEMENT_3D('',#735,#645,#646);
#552=AXIS2_PLACEMENT_3D('',#737,#647,#648);
#553=AXIS2_PLACEMENT_3D('',#738,#649,#650);
#554=AXIS2_PLACEMENT_3D('',#740,#651,#652);
#555=AXIS2_PLACEMENT_3D('',#741,#653,#654);
#556=AXIS2_PLACEMENT_3D('',#743,#655,#656);
#557=AXIS2_PLACEMENT_3D('',#744,#657,#658);
#558=AXIS2_PLACEMENT_3D('',#746,#659,#660);
#559=AXIS2_PLACEMENT_3D('',#747,#661,#662);
#560=AXIS2_PLACEMENT_3D('',#749,#663,#664);
#561=AXIS2_PLACEMENT_3D('',#750,#665,#666);
#562=AXIS2_PLACEMENT_3D('',#752,#667,#668);
#563=AXIS2_PLACEMENT_3D('',#753,#669,#670);
#564=AXIS2_PLACEMENT_3D('',#755,#671,#672);
#565=AXIS2_PLACEMENT_3D('',#756,#673,#674);
#566=AXIS2_PLACEMENT_3D('',#758,#675,#676);
#567=DIRECTION('',(0.,0.,1.));
#568=DIRECTION('',(1.,0.,0.));
#569=DIRECTION('',(0.,0.,-1.));
#570=DIRECTION('',(-1.,0.,0.));
#571=DIRECTION('',(0.,0.,-1.));
#572=DIRECTION('',(-1.,0.,0.));
#573=DIRECTION('',(0.,0.,-1.));
#574=DIRECTION('',(-1.,0.,0.));
#575=DIRECTION('',(0.,0.,-1.));
#576=DIRECTION('',(-1.,0.,0.));
#577=DIRECTION('',(0.,0.,-1.));
#578=DIRECTION('',(-1.,0.,0.));
#579=DIRECTION('',(0.,0.,-1.));
#580=DIRECTION('',(-1.,0.,0.));
#581=DIRECTION('',(0.,0.,-1.));
#582=DIRECTION('',(-1.,0.,0.));
#583=DIRECTION('',(0.,0.,1.));
#584=DIRECTION('',(1.,0.,0.));
#585=DIRECTION('',(0.,0.,-1.));
#586=DIRECTION('',(-1.,0.,0.));
#587=DIRECTION('',(0.,0.,-1.));
#588=DIRECTION('',(-1.,0.,0.));
#589=DIRECTION('',(0.,0.,-1.));
#590=DIRECTION('',(-1.,0.,0.));
#591=DIRECTION('',(0.,0.,-1.));
#592=DIRECTION('',(-1.,0.,0.));
#593=DIRECTION('',(0.,0.,-1.));
#594=DIRECTION('',(-1.,0.,0.));
#595=DIRECTION('',(0.,0.,-1.));
#596=DIRECTION('',(-1.,0.,0.));
#597=DIRECTION('',(0.,0.,-1.));
#598=DIRECTION('',(-1.,0.,0.));
#599=DIRECTION('',(0.,0.,-1.));
#600=DIRECTION('',(-1.,0.,0.));
#601=DIRECTION('',(0.,0.,-1.));
#602=DIRECTION('',(-1.,0.,0.));
#603=DIRECTION('',(0.,0.,-1.));
#604=DIRECTION('',(-1.,0.,0.));
#605=DIRECTION('',(0.,0.,-1.));
#606=DIRECTION('',(-1.,0.,0.));
#607=DIRECTION('',(0.,0.,-1.));
#608=DIRECTION('',(-1.,0.,0.));
#609=DIRECTION('',(0.,0.,-1.));
#610=DIRECTION('',(-1.,0.,0.));
#611=DIRECTION('',(0.,0.,1.));
#612=DIRECTION('',(1.,0.,0.));
#613=DIRECTION('',(0.,0.,-1.));
#614=DIRECTION('',(-1.,0.,0.));
#615=DIRECTION('',(0.,0.,-1.));
#616=DIRECTION('',(-1.,0.,0.));
#617=DIRECTION('',(0.,0.,-1.));
#618=DIRECTION('',(-1.,0.,0.));
#619=DIRECTION('',(0.,0.,-1.));
#620=DIRECTION('',(-1.,0.,0.));
#621=DIRECTION('',(0.,0.,-1.));
#622=DIRECTION('',(-1.,0.,0.));
#623=DIRECTION('',(0.,0.,-1.));
#624=DIRECTION('',(-1.,0.,0.));
#625=DIRECTION('',(0.,0.,-1.));
#626=DIRECTION('',(-1.,0.,0.));
#627=DIRECTION('',(0.,0.,-1.));
#628=DIRECTION('',(-1.,0.,0.));
#629=DIRECTION('',(0.,0.,-1.));
#630=DIRECTION('',(-1.,0.,0.));
#631=DIRECTION('',(0.,0.,1.));
#632=DIRECTION('',(1.,0.,0.));
#633=DIRECTION('',(0.,0.,-1.));
#634=DIRECTION('',(-1.,0.,0.));
#635=DIRECTION('',(0.,0.,-1.));
#636=DIRECTION('',(-1.,0.,0.));
#637=DIRECTION('',(0.,0.,-1.));
#638=DIRECTION('',(-1.,0.,0.));
#639=DIRECTION('',(0.,0.,-1.));
#640=DIRECTION('',(-1.,0.,0.));
#641=DIRECTION('',(0.,0.,-1.));
#642=DIRECTION('',(-1.,0.,0.));
#643=DIRECTION('',(0.,0.,1.));
#644=DIRECTION('',(1.,0.,0.));
#645=DIRECTION('',(0.,0.,-1.));
#646=DIRECTION('',(-1.,0.,0.));
#647=DIRECTION('',(0.,0.,-1.));
#648=DIRECTION('',(-1.,0.,0.));
#649=DIRECTION('',(0.,0.,-1.));
#650=DIRECTION('',(-1.,0.,0.));
#651=DIRECTION('',(0.,0.,-1.));
#652=DIRECTION('',(-1.,0.,0.));
#653=DIRECTION('',(0.,0.,-1.));
#654=DIRECTION('',(-1.,0.,0.));
#655=DIRECTION('',(0.,0.,1.));
#656=DIRECTION('',(1.,0.,0.));
#657=DIRECTION('',(0.,0.,-1.));
#658=DIRECTION('',(-1.,0.,0.));
#659=DIRECTION('',(0.,0.,-1.));
#660=DIRECTION('',(-1.,0.,0.));
#661=DIRECTION('',(0.,0.,-1.));
#662=DIRECTION('',(-1.,0.,0.));
#663=DIRECTION('',(0.,0.,-1.));
#664=DIRECTION('',(-1.,0.,0.));
#665=DIRECTION('',(0.,0.,-1.));
#666=DIRECTION('',(-1.,0.,0.));
#667=DIRECTION('',(0.,0.,-1.));
#668=DIRECTION('',(-1.,0.,0.));
#669=DIRECTION('',(0.,0.,-1.));
#670=DIRECTION('',(-1.,0.,0.));
#671=DIRECTION('',(0.,0.,-1.));
#672=DIRECTION('',(-1.,0.,0.));
#673=DIRECTION('',(0.,0.,-1.));
#674=DIRECTION('',(-1.,0.,0.));
#675=DIRECTION('',(0.,0.,-1.));
#676=DIRECTION('',(-1.,0.,0.));
#677=CARTESIAN_POINT('',(0.,0.,0.));
#678=CARTESIAN_POINT('',(0.,0.,37.2618751254896));
#679=CARTESIAN_POINT('',(0.,0.,37.7));
#680=CARTESIAN_POINT('',(-2.29999999999996,0.,37.7));
#681=CARTESIAN_POINT('',(0.,0.,37.2618751254896));
#682=CARTESIAN_POINT('',(-4.78472963553339,0.,37.2618751254896));
#683=CARTESIAN_POINT('',(0.,0.,37.4));
#684=CARTESIAN_POINT('',(0.,0.,37.4));
#685=CARTESIAN_POINT('',(-2.,0.,37.4));
#686=CARTESIAN_POINT('',(0.,0.,0.));
#687=CARTESIAN_POINT('',(0.,0.,22.8));
#688=CARTESIAN_POINT('',(-2.,0.,22.8));
#689=CARTESIAN_POINT('',(0.,2.,22.8));
#690=CARTESIAN_POINT('',(0.,0.,22.8));
#691=CARTESIAN_POINT('',(-1.25,0.,22.8));
#692=CARTESIAN_POINT('',(0.,0.,0.));
#693=CARTESIAN_POINT('',(0.,0.,3.46944695195361E-15));
#694=CARTESIAN_POINT('',(-1.25,0.,3.46944695195361E-15));
#695=CARTESIAN_POINT('',(0.,1.25,1.73472347597681E-15));
#696=CARTESIAN_POINT('',(0.,0.,0.));
#697=CARTESIAN_POINT('',(-2.8,0.,0.));
#698=CARTESIAN_POINT('',(0.,0.,0.2));
#699=CARTESIAN_POINT('',(0.,0.,0.2));
#700=CARTESIAN_POINT('',(-3.,0.,0.2));
#701=CARTESIAN_POINT('',(0.,0.,0.));
#702=CARTESIAN_POINT('',(0.,0.,22.5));
#703=CARTESIAN_POINT('',(-3.,0.,22.5));
#704=CARTESIAN_POINT('',(0.,3.,22.5));
#705=CARTESIAN_POINT('',(0.,0.,22.5));
#706=CARTESIAN_POINT('',(-5.,0.,22.5));
#707=CARTESIAN_POINT('',(0.,0.,0.));
#708=CARTESIAN_POINT('',(0.,0.,27.5666666666667));
#709=CARTESIAN_POINT('',(-5.,0.,27.5666666666667));
#710=CARTESIAN_POINT('',(0.,5.,27.5666666666667));
#711=CARTESIAN_POINT('',(0.,0.,27.5666666666667));
#712=CARTESIAN_POINT('',(-4.7,0.,27.5666666666667));
#713=CARTESIAN_POINT('',(0.,0.,0.));
#714=CARTESIAN_POINT('',(0.,0.,28.0666666666667));
#715=CARTESIAN_POINT('',(-4.7,0.,28.0666666666667));
#716=CARTESIAN_POINT('',(0.,4.7,28.0666666666667));
#717=CARTESIAN_POINT('',(0.,0.,28.0666666666667));
#718=CARTESIAN_POINT('',(-5.,0.,28.0666666666667));
#719=CARTESIAN_POINT('',(0.,0.,0.));
#720=CARTESIAN_POINT('',(0.,0.,32.7702702702703));
#721=CARTESIAN_POINT('',(-5.,0.,32.7702702702703));
#722=CARTESIAN_POINT('',(0.,0.,32.7702702702703));
#723=CARTESIAN_POINT('',(0.,0.,34.4299459459459));
#724=CARTESIAN_POINT('',(-4.91302008350776,0.,34.4299459459459));
#725=CARTESIAN_POINT('',(0.,4.91302008350776,34.4299459459459));
#726=CARTESIAN_POINT('',(0.,0.,34.4299459459459));
#727=CARTESIAN_POINT('',(-4.85,0.,34.4299459459459));
#728=CARTESIAN_POINT('',(0.,0.,0.));
#729=CARTESIAN_POINT('',(0.,0.,34.9379459459459));
#730=CARTESIAN_POINT('',(-4.85,0.,34.9379459459459));
#731=CARTESIAN_POINT('',(0.,0.,34.9379459459459));
#732=CARTESIAN_POINT('',(0.,0.,35.0379459459459));
#733=CARTESIAN_POINT('',(-4.75,0.,35.0379459459459));
#734=CARTESIAN_POINT('',(0.,0.,35.0379459459459));
#735=CARTESIAN_POINT('',(0.,0.,35.137945945946));
#736=CARTESIAN_POINT('',(-4.85,0.,35.137945945946));
#737=CARTESIAN_POINT('',(0.,0.,0.));
#738=CARTESIAN_POINT('',(0.,0.,35.5045245897086));
#739=CARTESIAN_POINT('',(-4.85,0.,35.5045245897086));
#740=CARTESIAN_POINT('',(0.,0.,35.5045245897086));
#741=CARTESIAN_POINT('',(0.,0.,35.6459459459459));
#742=CARTESIAN_POINT('',(-4.70857864376269,0.,35.6459459459459));
#743=CARTESIAN_POINT('',(0.,4.70857864376269,35.6459459459459));
#744=CARTESIAN_POINT('',(0.,0.,35.6459459459459));
#745=CARTESIAN_POINT('',(-2.5,0.,35.6459459459459));
#746=CARTESIAN_POINT('',(0.,0.,0.));
#747=CARTESIAN_POINT('',(0.,0.,36.1175675675676));
#748=CARTESIAN_POINT('',(-2.5,0.,36.1175675675676));
#749=CARTESIAN_POINT('',(0.,0.,36.1175675675676));
#750=CARTESIAN_POINT('',(0.,0.,36.4675675675676));
#751=CARTESIAN_POINT('',(-2.85,0.,36.4675675675676));
#752=CARTESIAN_POINT('',(0.,2.85,36.4675675675676));
#753=CARTESIAN_POINT('',(0.,0.,36.4675675675676));
#754=CARTESIAN_POINT('',(-4.95,0.,36.4675675675676));
#755=CARTESIAN_POINT('',(0.,0.,0.));
#756=CARTESIAN_POINT('',(0.,0.,37.0649135748871));
#757=CARTESIAN_POINT('',(-4.95,0.,37.0649135748871));
#758=CARTESIAN_POINT('',(0.,0.,37.0649135748871));
#759=MECHANICAL_DESIGN_GEOMETRIC_PRESENTATION_REPRESENTATION('',(#290,#291,
#292,#293,#294,#295,#296,#297,#298,#299,#300,#301,#302,#303,#304,#305,#306,
#307,#308,#309,#310,#311,#312,#313,#314,#315,#316),#760);
#760=(
GEOMETRIC_REPRESENTATION_CONTEXT(3)
GLOBAL_UNCERTAINTY_ASSIGNED_CONTEXT((#761))
GLOBAL_UNIT_ASSIGNED_CONTEXT((#764,#763,#762))
REPRESENTATION_CONTEXT('153041 QS-6H-4','TOP_LEVEL_ASSEMBLY_PART')
);
#761=UNCERTAINTY_MEASURE_WITH_UNIT(LENGTH_MEASURE(0.005),#764,
'DISTANCE_ACCURACY_VALUE','Maximum Tolerance applied to model');
#762=(
NAMED_UNIT(*)
SI_UNIT($,.STERADIAN.)
SOLID_ANGLE_UNIT()
);
#763=(
NAMED_UNIT(*)
PLANE_ANGLE_UNIT()
SI_UNIT($,.RADIAN.)
);
#764=(
LENGTH_UNIT()
NAMED_UNIT(*)
SI_UNIT(.MILLI.,.METRE.)
);
#765=PRODUCT_DEFINITION_SHAPE('','',#766);
#766=PRODUCT_DEFINITION('','',#768,#767);
#767=PRODUCT_DEFINITION_CONTEXT('',#774,'design');
#768=PRODUCT_DEFINITION_FORMATION_WITH_SPECIFIED_SOURCE('','',#770,
 .NOT_KNOWN.);
#769=PRODUCT_RELATED_PRODUCT_CATEGORY('','',(#770));
#770=PRODUCT('153041 QS-6H-4','153041 QS-6H-4','153041 QS-6H-4',(#772));
#771=PRODUCT_CATEGORY('','');
#772=PRODUCT_CONTEXT('',#774,'mechanical');
#773=APPLICATION_PROTOCOL_DEFINITION('international standard',
'automotive_design',2010,#774);
#774=APPLICATION_CONTEXT(
'core data for automotive mechanical design processes');
ENDSEC;
END-ISO-10303-21;
