ISO-10303-21;
HEADER;
/* Generated by software containing ST-Developer
 * from STEP Tools, Inc. (www.steptools.com) 
 */
/* OPTION: using custom renumber hook */

FILE_DESCRIPTION(
/* description */ ('STEP AP214'),
/* implementation_level */ '2;1');

FILE_NAME(
/* name */ '153266_QSC-12',
/* time_stamp */ '2024-09-14T06:36:05+02:00',
/* author */ ('License CC BY-ND 4.0'),
/* organization */ ('CADENAS'),
/* preprocessor_version */ 'ST-DEVELOPER v19.3',
/* originating_system */ 'PARTsolutions',
/* authorisation */ '  ');

FILE_SCHEMA (('AUTOMOTIVE_DESIGN {1 0 10303 214 3 1 1}'));
ENDSEC;

DATA;
#10=PROPERTY_DEFINITION_REPRESENTATION(#14,#12);
#11=PROPERTY_DEFINITION_REPRESENTATION(#15,#13);
#12=REPRESENTATION('',(#16),#464);
#13=REPRESENTATION('',(#17),#464);
#14=PROPERTY_DEFINITION('pmi validation property','',#469);
#15=PROPERTY_DEFINITION('pmi validation property','',#469);
#16=VALUE_REPRESENTATION_ITEM('number of annotations',COUNT_MEASURE(0.));
#17=VALUE_REPRESENTATION_ITEM('number of views',COUNT_MEASURE(0.));
#18=SHAPE_REPRESENTATION_RELATIONSHIP('','',#314,#19);
#19=ADVANCED_BREP_SHAPE_REPRESENTATION('',(#312),#464);
#20=CONICAL_SURFACE('',#323,8.,0.785398163397448);
#21=CONICAL_SURFACE('',#341,10.5847296355334,1.39626340159546);
#22=CONICAL_SURFACE('',#345,6.13261454415799,0.174532925199437);
#23=CYLINDRICAL_SURFACE('',#321,8.);
#24=CYLINDRICAL_SURFACE('',#325,10.75);
#25=CYLINDRICAL_SURFACE('',#329,10.25);
#26=CYLINDRICAL_SURFACE('',#333,7.525);
#27=CYLINDRICAL_SURFACE('',#337,10.75);
#28=CYLINDRICAL_SURFACE('',#347,6.);
#29=TOROIDAL_SURFACE('',#319,6.4,1.6);
#30=TOROIDAL_SURFACE('',#339,10.55,0.200000000000002);
#31=TOROIDAL_SURFACE('',#343,6.42805687006164,0.299999999999988);
#32=ORIENTED_EDGE('',*,*,#64,.F.);
#33=ORIENTED_EDGE('',*,*,#65,.T.);
#34=ORIENTED_EDGE('',*,*,#64,.T.);
#35=ORIENTED_EDGE('',*,*,#66,.F.);
#36=ORIENTED_EDGE('',*,*,#67,.F.);
#37=ORIENTED_EDGE('',*,*,#66,.T.);
#38=ORIENTED_EDGE('',*,*,#68,.F.);
#39=ORIENTED_EDGE('',*,*,#67,.T.);
#40=ORIENTED_EDGE('',*,*,#69,.F.);
#41=ORIENTED_EDGE('',*,*,#68,.T.);
#42=ORIENTED_EDGE('',*,*,#70,.F.);
#43=ORIENTED_EDGE('',*,*,#69,.T.);
#44=ORIENTED_EDGE('',*,*,#71,.F.);
#45=ORIENTED_EDGE('',*,*,#70,.T.);
#46=ORIENTED_EDGE('',*,*,#72,.F.);
#47=ORIENTED_EDGE('',*,*,#71,.T.);
#48=ORIENTED_EDGE('',*,*,#73,.F.);
#49=ORIENTED_EDGE('',*,*,#72,.T.);
#50=ORIENTED_EDGE('',*,*,#74,.F.);
#51=ORIENTED_EDGE('',*,*,#73,.T.);
#52=ORIENTED_EDGE('',*,*,#75,.F.);
#53=ORIENTED_EDGE('',*,*,#74,.T.);
#54=ORIENTED_EDGE('',*,*,#75,.T.);
#55=ORIENTED_EDGE('',*,*,#76,.F.);
#56=ORIENTED_EDGE('',*,*,#77,.F.);
#57=ORIENTED_EDGE('',*,*,#76,.T.);
#58=ORIENTED_EDGE('',*,*,#77,.T.);
#59=ORIENTED_EDGE('',*,*,#78,.F.);
#60=ORIENTED_EDGE('',*,*,#79,.F.);
#61=ORIENTED_EDGE('',*,*,#78,.T.);
#62=ORIENTED_EDGE('',*,*,#65,.F.);
#63=ORIENTED_EDGE('',*,*,#79,.T.);
#64=EDGE_CURVE('',#80,#80,#96,.T.);
#65=EDGE_CURVE('',#81,#81,#97,.T.);
#66=EDGE_CURVE('',#82,#82,#98,.T.);
#67=EDGE_CURVE('',#83,#83,#99,.T.);
#68=EDGE_CURVE('',#84,#84,#100,.T.);
#69=EDGE_CURVE('',#85,#85,#101,.T.);
#70=EDGE_CURVE('',#86,#86,#102,.T.);
#71=EDGE_CURVE('',#87,#87,#103,.T.);
#72=EDGE_CURVE('',#88,#88,#104,.T.);
#73=EDGE_CURVE('',#89,#89,#105,.T.);
#74=EDGE_CURVE('',#90,#90,#106,.T.);
#75=EDGE_CURVE('',#91,#91,#107,.T.);
#76=EDGE_CURVE('',#92,#92,#108,.T.);
#77=EDGE_CURVE('',#93,#93,#109,.T.);
#78=EDGE_CURVE('',#94,#94,#110,.T.);
#79=EDGE_CURVE('',#95,#95,#111,.T.);
#80=VERTEX_POINT('',#417);
#81=VERTEX_POINT('',#419);
#82=VERTEX_POINT('',#422);
#83=VERTEX_POINT('',#425);
#84=VERTEX_POINT('',#428);
#85=VERTEX_POINT('',#431);
#86=VERTEX_POINT('',#434);
#87=VERTEX_POINT('',#437);
#88=VERTEX_POINT('',#440);
#89=VERTEX_POINT('',#443);
#90=VERTEX_POINT('',#446);
#91=VERTEX_POINT('',#449);
#92=VERTEX_POINT('',#452);
#93=VERTEX_POINT('',#455);
#94=VERTEX_POINT('',#458);
#95=VERTEX_POINT('',#461);
#96=CIRCLE('',#317,6.4);
#97=CIRCLE('',#318,6.);
#98=CIRCLE('',#320,8.);
#99=CIRCLE('',#322,8.);
#100=CIRCLE('',#324,10.75);
#101=CIRCLE('',#326,10.75);
#102=CIRCLE('',#328,10.25);
#103=CIRCLE('',#330,10.25);
#104=CIRCLE('',#332,7.525);
#105=CIRCLE('',#334,7.525);
#106=CIRCLE('',#336,10.75);
#107=CIRCLE('',#338,10.75);
#108=CIRCLE('',#340,10.5847296355334);
#109=CIRCLE('',#342,6.42805687006166);
#110=CIRCLE('',#344,6.13261454415799);
#111=CIRCLE('',#346,6.);
#112=EDGE_LOOP('',(#32));
#113=EDGE_LOOP('',(#33));
#114=EDGE_LOOP('',(#34));
#115=EDGE_LOOP('',(#35));
#116=EDGE_LOOP('',(#36));
#117=EDGE_LOOP('',(#37));
#118=EDGE_LOOP('',(#38));
#119=EDGE_LOOP('',(#39));
#120=EDGE_LOOP('',(#40));
#121=EDGE_LOOP('',(#41));
#122=EDGE_LOOP('',(#42));
#123=EDGE_LOOP('',(#43));
#124=EDGE_LOOP('',(#44));
#125=EDGE_LOOP('',(#45));
#126=EDGE_LOOP('',(#46));
#127=EDGE_LOOP('',(#47));
#128=EDGE_LOOP('',(#48));
#129=EDGE_LOOP('',(#49));
#130=EDGE_LOOP('',(#50));
#131=EDGE_LOOP('',(#51));
#132=EDGE_LOOP('',(#52));
#133=EDGE_LOOP('',(#53));
#134=EDGE_LOOP('',(#54));
#135=EDGE_LOOP('',(#55));
#136=EDGE_LOOP('',(#56));
#137=EDGE_LOOP('',(#57));
#138=EDGE_LOOP('',(#58));
#139=EDGE_LOOP('',(#59));
#140=EDGE_LOOP('',(#60));
#141=EDGE_LOOP('',(#61));
#142=EDGE_LOOP('',(#62));
#143=EDGE_LOOP('',(#63));
#144=FACE_BOUND('',#112,.T.);
#145=FACE_BOUND('',#113,.T.);
#146=FACE_BOUND('',#114,.T.);
#147=FACE_BOUND('',#115,.T.);
#148=FACE_BOUND('',#116,.T.);
#149=FACE_BOUND('',#117,.T.);
#150=FACE_BOUND('',#118,.T.);
#151=FACE_BOUND('',#119,.T.);
#152=FACE_BOUND('',#120,.T.);
#153=FACE_BOUND('',#121,.T.);
#154=FACE_BOUND('',#122,.T.);
#155=FACE_BOUND('',#123,.T.);
#156=FACE_BOUND('',#124,.T.);
#157=FACE_BOUND('',#125,.T.);
#158=FACE_BOUND('',#126,.T.);
#159=FACE_BOUND('',#127,.T.);
#160=FACE_BOUND('',#128,.T.);
#161=FACE_BOUND('',#129,.T.);
#162=FACE_BOUND('',#130,.T.);
#163=FACE_BOUND('',#131,.T.);
#164=FACE_BOUND('',#132,.T.);
#165=FACE_BOUND('',#133,.T.);
#166=FACE_BOUND('',#134,.T.);
#167=FACE_BOUND('',#135,.T.);
#168=FACE_BOUND('',#136,.T.);
#169=FACE_BOUND('',#137,.T.);
#170=FACE_BOUND('',#138,.T.);
#171=FACE_BOUND('',#139,.T.);
#172=FACE_BOUND('',#140,.T.);
#173=FACE_BOUND('',#141,.T.);
#174=FACE_BOUND('',#142,.T.);
#175=FACE_BOUND('',#143,.T.);
#176=PLANE('',#316);
#177=PLANE('',#327);
#178=PLANE('',#331);
#179=PLANE('',#335);
#180=STYLED_ITEM('',(#196),#295);
#181=STYLED_ITEM('',(#197),#296);
#182=STYLED_ITEM('',(#198),#297);
#183=STYLED_ITEM('',(#199),#298);
#184=STYLED_ITEM('',(#200),#299);
#185=STYLED_ITEM('',(#201),#300);
#186=STYLED_ITEM('',(#202),#301);
#187=STYLED_ITEM('',(#203),#302);
#188=STYLED_ITEM('',(#204),#303);
#189=STYLED_ITEM('',(#205),#304);
#190=STYLED_ITEM('',(#206),#305);
#191=STYLED_ITEM('',(#207),#306);
#192=STYLED_ITEM('',(#208),#307);
#193=STYLED_ITEM('',(#209),#308);
#194=STYLED_ITEM('',(#210),#309);
#195=STYLED_ITEM('',(#211),#310);
#196=PRESENTATION_STYLE_ASSIGNMENT((#212));
#197=PRESENTATION_STYLE_ASSIGNMENT((#213));
#198=PRESENTATION_STYLE_ASSIGNMENT((#214));
#199=PRESENTATION_STYLE_ASSIGNMENT((#215));
#200=PRESENTATION_STYLE_ASSIGNMENT((#216));
#201=PRESENTATION_STYLE_ASSIGNMENT((#217));
#202=PRESENTATION_STYLE_ASSIGNMENT((#218));
#203=PRESENTATION_STYLE_ASSIGNMENT((#219));
#204=PRESENTATION_STYLE_ASSIGNMENT((#220));
#205=PRESENTATION_STYLE_ASSIGNMENT((#221));
#206=PRESENTATION_STYLE_ASSIGNMENT((#222));
#207=PRESENTATION_STYLE_ASSIGNMENT((#223));
#208=PRESENTATION_STYLE_ASSIGNMENT((#224));
#209=PRESENTATION_STYLE_ASSIGNMENT((#225));
#210=PRESENTATION_STYLE_ASSIGNMENT((#226));
#211=PRESENTATION_STYLE_ASSIGNMENT((#227));
#212=SURFACE_STYLE_USAGE(.BOTH.,#228);
#213=SURFACE_STYLE_USAGE(.BOTH.,#229);
#214=SURFACE_STYLE_USAGE(.BOTH.,#230);
#215=SURFACE_STYLE_USAGE(.BOTH.,#231);
#216=SURFACE_STYLE_USAGE(.BOTH.,#232);
#217=SURFACE_STYLE_USAGE(.BOTH.,#233);
#218=SURFACE_STYLE_USAGE(.BOTH.,#234);
#219=SURFACE_STYLE_USAGE(.BOTH.,#235);
#220=SURFACE_STYLE_USAGE(.BOTH.,#236);
#221=SURFACE_STYLE_USAGE(.BOTH.,#237);
#222=SURFACE_STYLE_USAGE(.BOTH.,#238);
#223=SURFACE_STYLE_USAGE(.BOTH.,#239);
#224=SURFACE_STYLE_USAGE(.BOTH.,#240);
#225=SURFACE_STYLE_USAGE(.BOTH.,#241);
#226=SURFACE_STYLE_USAGE(.BOTH.,#242);
#227=SURFACE_STYLE_USAGE(.BOTH.,#243);
#228=SURFACE_SIDE_STYLE('',(#244));
#229=SURFACE_SIDE_STYLE('',(#245));
#230=SURFACE_SIDE_STYLE('',(#246));
#231=SURFACE_SIDE_STYLE('',(#247));
#232=SURFACE_SIDE_STYLE('',(#248));
#233=SURFACE_SIDE_STYLE('',(#249));
#234=SURFACE_SIDE_STYLE('',(#250));
#235=SURFACE_SIDE_STYLE('',(#251));
#236=SURFACE_SIDE_STYLE('',(#252));
#237=SURFACE_SIDE_STYLE('',(#253));
#238=SURFACE_SIDE_STYLE('',(#254));
#239=SURFACE_SIDE_STYLE('',(#255));
#240=SURFACE_SIDE_STYLE('',(#256));
#241=SURFACE_SIDE_STYLE('',(#257));
#242=SURFACE_SIDE_STYLE('',(#258));
#243=SURFACE_SIDE_STYLE('',(#259));
#244=SURFACE_STYLE_FILL_AREA(#260);
#245=SURFACE_STYLE_FILL_AREA(#261);
#246=SURFACE_STYLE_FILL_AREA(#262);
#247=SURFACE_STYLE_FILL_AREA(#263);
#248=SURFACE_STYLE_FILL_AREA(#264);
#249=SURFACE_STYLE_FILL_AREA(#265);
#250=SURFACE_STYLE_FILL_AREA(#266);
#251=SURFACE_STYLE_FILL_AREA(#267);
#252=SURFACE_STYLE_FILL_AREA(#268);
#253=SURFACE_STYLE_FILL_AREA(#269);
#254=SURFACE_STYLE_FILL_AREA(#270);
#255=SURFACE_STYLE_FILL_AREA(#271);
#256=SURFACE_STYLE_FILL_AREA(#272);
#257=SURFACE_STYLE_FILL_AREA(#273);
#258=SURFACE_STYLE_FILL_AREA(#274);
#259=SURFACE_STYLE_FILL_AREA(#275);
#260=FILL_AREA_STYLE('',(#276));
#261=FILL_AREA_STYLE('',(#277));
#262=FILL_AREA_STYLE('',(#278));
#263=FILL_AREA_STYLE('',(#279));
#264=FILL_AREA_STYLE('',(#280));
#265=FILL_AREA_STYLE('',(#281));
#266=FILL_AREA_STYLE('',(#282));
#267=FILL_AREA_STYLE('',(#283));
#268=FILL_AREA_STYLE('',(#284));
#269=FILL_AREA_STYLE('',(#285));
#270=FILL_AREA_STYLE('',(#286));
#271=FILL_AREA_STYLE('',(#287));
#272=FILL_AREA_STYLE('',(#288));
#273=FILL_AREA_STYLE('',(#289));
#274=FILL_AREA_STYLE('',(#290));
#275=FILL_AREA_STYLE('',(#291));
#276=FILL_AREA_STYLE_COLOUR('',#292);
#277=FILL_AREA_STYLE_COLOUR('',#292);
#278=FILL_AREA_STYLE_COLOUR('',#292);
#279=FILL_AREA_STYLE_COLOUR('',#292);
#280=FILL_AREA_STYLE_COLOUR('',#292);
#281=FILL_AREA_STYLE_COLOUR('',#292);
#282=FILL_AREA_STYLE_COLOUR('',#293);
#283=FILL_AREA_STYLE_COLOUR('',#293);
#284=FILL_AREA_STYLE_COLOUR('',#294);
#285=FILL_AREA_STYLE_COLOUR('',#294);
#286=FILL_AREA_STYLE_COLOUR('',#294);
#287=FILL_AREA_STYLE_COLOUR('',#294);
#288=FILL_AREA_STYLE_COLOUR('',#294);
#289=FILL_AREA_STYLE_COLOUR('',#294);
#290=FILL_AREA_STYLE_COLOUR('',#292);
#291=FILL_AREA_STYLE_COLOUR('',#292);
#292=COLOUR_RGB('',0.310000002384186,0.310000002384186,0.310000002384186);
#293=COLOUR_RGB('',0.75300002098083,0.75300002098083,0.75300002098083);
#294=COLOUR_RGB('',0.,0.56900000572205,0.8629999756813);
#295=ADVANCED_FACE('',(#144,#145),#176,.F.);
#296=ADVANCED_FACE('',(#146,#147),#29,.T.);
#297=ADVANCED_FACE('',(#148,#149),#23,.T.);
#298=ADVANCED_FACE('',(#150,#151),#20,.T.);
#299=ADVANCED_FACE('',(#152,#153),#24,.T.);
#300=ADVANCED_FACE('',(#154,#155),#177,.F.);
#301=ADVANCED_FACE('',(#156,#157),#25,.T.);
#302=ADVANCED_FACE('',(#158,#159),#178,.F.);
#303=ADVANCED_FACE('',(#160,#161),#26,.T.);
#304=ADVANCED_FACE('',(#162,#163),#179,.F.);
#305=ADVANCED_FACE('',(#164,#165),#27,.T.);
#306=ADVANCED_FACE('',(#166,#167),#30,.T.);
#307=ADVANCED_FACE('',(#168,#169),#21,.T.);
#308=ADVANCED_FACE('',(#170,#171),#31,.T.);
#309=ADVANCED_FACE('',(#172,#173),#22,.F.);
#310=ADVANCED_FACE('',(#174,#175),#28,.F.);
#311=CLOSED_SHELL('',(#295,#296,#297,#298,#299,#300,#301,#302,#303,#304,
#305,#306,#307,#308,#309,#310));
#312=MANIFOLD_SOLID_BREP('153266 QSC-12',#311);
#313=SHAPE_DEFINITION_REPRESENTATION(#469,#314);
#314=SHAPE_REPRESENTATION('153266 QSC-12',(#315),#464);
#315=AXIS2_PLACEMENT_3D('',#414,#348,#349);
#316=AXIS2_PLACEMENT_3D('',#415,#350,#351);
#317=AXIS2_PLACEMENT_3D('',#416,#352,#353);
#318=AXIS2_PLACEMENT_3D('',#418,#354,#355);
#319=AXIS2_PLACEMENT_3D('',#420,#356,#357);
#320=AXIS2_PLACEMENT_3D('',#421,#358,#359);
#321=AXIS2_PLACEMENT_3D('',#423,#360,#361);
#322=AXIS2_PLACEMENT_3D('',#424,#362,#363);
#323=AXIS2_PLACEMENT_3D('',#426,#364,#365);
#324=AXIS2_PLACEMENT_3D('',#427,#366,#367);
#325=AXIS2_PLACEMENT_3D('',#429,#368,#369);
#326=AXIS2_PLACEMENT_3D('',#430,#370,#371);
#327=AXIS2_PLACEMENT_3D('',#432,#372,#373);
#328=AXIS2_PLACEMENT_3D('',#433,#374,#375);
#329=AXIS2_PLACEMENT_3D('',#435,#376,#377);
#330=AXIS2_PLACEMENT_3D('',#436,#378,#379);
#331=AXIS2_PLACEMENT_3D('',#438,#380,#381);
#332=AXIS2_PLACEMENT_3D('',#439,#382,#383);
#333=AXIS2_PLACEMENT_3D('',#441,#384,#385);
#334=AXIS2_PLACEMENT_3D('',#442,#386,#387);
#335=AXIS2_PLACEMENT_3D('',#444,#388,#389);
#336=AXIS2_PLACEMENT_3D('',#445,#390,#391);
#337=AXIS2_PLACEMENT_3D('',#447,#392,#393);
#338=AXIS2_PLACEMENT_3D('',#448,#394,#395);
#339=AXIS2_PLACEMENT_3D('',#450,#396,#397);
#340=AXIS2_PLACEMENT_3D('',#451,#398,#399);
#341=AXIS2_PLACEMENT_3D('',#453,#400,#401);
#342=AXIS2_PLACEMENT_3D('',#454,#402,#403);
#343=AXIS2_PLACEMENT_3D('',#456,#404,#405);
#344=AXIS2_PLACEMENT_3D('',#457,#406,#407);
#345=AXIS2_PLACEMENT_3D('',#459,#408,#409);
#346=AXIS2_PLACEMENT_3D('',#460,#410,#411);
#347=AXIS2_PLACEMENT_3D('',#462,#412,#413);
#348=DIRECTION('',(0.,0.,1.));
#349=DIRECTION('',(1.,0.,0.));
#350=DIRECTION('',(1.,0.,0.));
#351=DIRECTION('',(0.,0.,-1.));
#352=DIRECTION('',(1.,0.,0.));
#353=DIRECTION('',(0.,0.,-1.));
#354=DIRECTION('',(1.,0.,0.));
#355=DIRECTION('',(0.,0.,-1.));
#356=DIRECTION('',(1.,0.,0.));
#357=DIRECTION('',(0.,0.,-1.));
#358=DIRECTION('',(1.,0.,0.));
#359=DIRECTION('',(0.,0.,-1.));
#360=DIRECTION('',(1.,0.,0.));
#361=DIRECTION('',(0.,0.,-1.));
#362=DIRECTION('',(1.,0.,0.));
#363=DIRECTION('',(0.,0.,-1.));
#364=DIRECTION('',(1.,0.,0.));
#365=DIRECTION('',(0.,0.,-1.));
#366=DIRECTION('',(1.,0.,0.));
#367=DIRECTION('',(0.,0.,-1.));
#368=DIRECTION('',(1.,0.,0.));
#369=DIRECTION('',(0.,0.,-1.));
#370=DIRECTION('',(1.,0.,0.));
#371=DIRECTION('',(0.,0.,-1.));
#372=DIRECTION('',(-1.,0.,0.));
#373=DIRECTION('',(0.,0.,1.));
#374=DIRECTION('',(1.,0.,0.));
#375=DIRECTION('',(0.,0.,-1.));
#376=DIRECTION('',(1.,0.,0.));
#377=DIRECTION('',(0.,0.,-1.));
#378=DIRECTION('',(1.,0.,0.));
#379=DIRECTION('',(0.,0.,-1.));
#380=DIRECTION('',(-1.,0.,0.));
#381=DIRECTION('',(0.,0.,1.));
#382=DIRECTION('',(1.,0.,0.));
#383=DIRECTION('',(0.,0.,-1.));
#384=DIRECTION('',(1.,0.,0.));
#385=DIRECTION('',(0.,0.,-1.));
#386=DIRECTION('',(1.,0.,0.));
#387=DIRECTION('',(0.,0.,-1.));
#388=DIRECTION('',(1.,0.,0.));
#389=DIRECTION('',(0.,0.,-1.));
#390=DIRECTION('',(1.,0.,0.));
#391=DIRECTION('',(0.,0.,-1.));
#392=DIRECTION('',(1.,0.,0.));
#393=DIRECTION('',(0.,0.,-1.));
#394=DIRECTION('',(1.,0.,0.));
#395=DIRECTION('',(0.,0.,-1.));
#396=DIRECTION('',(1.,0.,0.));
#397=DIRECTION('',(0.,0.,-1.));
#398=DIRECTION('',(1.,0.,0.));
#399=DIRECTION('',(0.,0.,-1.));
#400=DIRECTION('',(-1.,0.,0.));
#401=DIRECTION('',(0.,0.,1.));
#402=DIRECTION('',(1.,0.,0.));
#403=DIRECTION('',(0.,0.,-1.));
#404=DIRECTION('',(1.,0.,0.));
#405=DIRECTION('',(0.,0.,-1.));
#406=DIRECTION('',(1.,0.,0.));
#407=DIRECTION('',(0.,0.,-1.));
#408=DIRECTION('',(1.,0.,0.));
#409=DIRECTION('',(0.,0.,-1.));
#410=DIRECTION('',(1.,0.,0.));
#411=DIRECTION('',(0.,0.,-1.));
#412=DIRECTION('',(1.,0.,0.));
#413=DIRECTION('',(0.,0.,-1.));
#414=CARTESIAN_POINT('',(0.,0.,0.));
#415=CARTESIAN_POINT('',(0.,0.,0.));
#416=CARTESIAN_POINT('',(0.,0.,0.));
#417=CARTESIAN_POINT('',(0.,0.,-6.4));
#418=CARTESIAN_POINT('',(0.,0.,0.));
#419=CARTESIAN_POINT('',(0.,0.,-6.));
#420=CARTESIAN_POINT('',(1.6,0.,0.));
#421=CARTESIAN_POINT('',(1.6,0.,0.));
#422=CARTESIAN_POINT('',(1.6,0.,-8.));
#423=CARTESIAN_POINT('',(23.,0.,0.));
#424=CARTESIAN_POINT('',(4.6,0.,0.));
#425=CARTESIAN_POINT('',(4.6,0.,-8.));
#426=CARTESIAN_POINT('',(4.6,0.,0.));
#427=CARTESIAN_POINT('',(7.35,0.,0.));
#428=CARTESIAN_POINT('',(7.35,0.,-10.75));
#429=CARTESIAN_POINT('',(23.,0.,0.));
#430=CARTESIAN_POINT('',(17.25,0.,0.));
#431=CARTESIAN_POINT('',(17.25,0.,-10.75));
#432=CARTESIAN_POINT('',(17.25,10.75,0.));
#433=CARTESIAN_POINT('',(17.25,0.,0.));
#434=CARTESIAN_POINT('',(17.25,0.,-10.25));
#435=CARTESIAN_POINT('',(23.,0.,0.));
#436=CARTESIAN_POINT('',(18.6875,0.,0.));
#437=CARTESIAN_POINT('',(18.6875,0.,-10.25));
#438=CARTESIAN_POINT('',(18.6875,10.25,0.));
#439=CARTESIAN_POINT('',(18.6875,0.,0.));
#440=CARTESIAN_POINT('',(18.6875,0.,-7.525));
#441=CARTESIAN_POINT('',(23.,0.,0.));
#442=CARTESIAN_POINT('',(20.125,0.,0.));
#443=CARTESIAN_POINT('',(20.125,0.,-7.525));
#444=CARTESIAN_POINT('',(20.125,7.525,0.));
#445=CARTESIAN_POINT('',(20.125,0.,0.));
#446=CARTESIAN_POINT('',(20.125,0.,-10.75));
#447=CARTESIAN_POINT('',(23.,0.,0.));
#448=CARTESIAN_POINT('',(22.0701048908688,0.,0.));
#449=CARTESIAN_POINT('',(22.0701048908688,0.,-10.75));
#450=CARTESIAN_POINT('',(22.0701048908688,0.,0.));
#451=CARTESIAN_POINT('',(22.2670664414713,0.,0.));
#452=CARTESIAN_POINT('',(22.2670664414713,0.,-10.5847296355334));
#453=CARTESIAN_POINT('',(22.2670664414713,0.,0.));
#454=CARTESIAN_POINT('',(23.,0.,0.));
#455=CARTESIAN_POINT('',(23.,0.,-6.42805687006166));
#456=CARTESIAN_POINT('',(22.7,0.,0.));
#457=CARTESIAN_POINT('',(22.7520944533001,0.,0.));
#458=CARTESIAN_POINT('',(22.7520944533001,0.,-6.13261454415799));
#459=CARTESIAN_POINT('',(22.7520944533001,0.,0.));
#460=CARTESIAN_POINT('',(22.,0.,0.));
#461=CARTESIAN_POINT('',(22.,0.,-6.));
#462=CARTESIAN_POINT('',(23.,0.,0.));
#463=MECHANICAL_DESIGN_GEOMETRIC_PRESENTATION_REPRESENTATION('',(#180,#181,
#182,#183,#184,#185,#186,#187,#188,#189,#190,#191,#192,#193,#194,#195),
#464);
#464=(
GEOMETRIC_REPRESENTATION_CONTEXT(3)
GLOBAL_UNCERTAINTY_ASSIGNED_CONTEXT((#465))
GLOBAL_UNIT_ASSIGNED_CONTEXT((#468,#467,#466))
REPRESENTATION_CONTEXT('153266 QSC-12','TOP_LEVEL_ASSEMBLY_PART')
);
#465=UNCERTAINTY_MEASURE_WITH_UNIT(LENGTH_MEASURE(0.005),#468,
'DISTANCE_ACCURACY_VALUE','Maximum Tolerance applied to model');
#466=(
NAMED_UNIT(*)
SI_UNIT($,.STERADIAN.)
SOLID_ANGLE_UNIT()
);
#467=(
NAMED_UNIT(*)
PLANE_ANGLE_UNIT()
SI_UNIT($,.RADIAN.)
);
#468=(
LENGTH_UNIT()
NAMED_UNIT(*)
SI_UNIT(.MILLI.,.METRE.)
);
#469=PRODUCT_DEFINITION_SHAPE('','',#470);
#470=PRODUCT_DEFINITION('','',#472,#471);
#471=PRODUCT_DEFINITION_CONTEXT('',#478,'design');
#472=PRODUCT_DEFINITION_FORMATION_WITH_SPECIFIED_SOURCE('','',#474,
 .NOT_KNOWN.);
#473=PRODUCT_RELATED_PRODUCT_CATEGORY('','',(#474));
#474=PRODUCT('153266 QSC-12','153266 QSC-12','153266 QSC-12',(#476));
#475=PRODUCT_CATEGORY('','');
#476=PRODUCT_CONTEXT('',#478,'mechanical');
#477=APPLICATION_PROTOCOL_DEFINITION('international standard',
'automotive_design',2010,#478);
#478=APPLICATION_CONTEXT(
'core data for automotive mechanical design processes');
ENDSEC;
END-ISO-10303-21;
