ISO-10303-21;
HEADER;
/* Generated by software containing ST-Developer
 * from STEP Tools, Inc. (www.steptools.com) 
 */
/* OPTION: using custom renumber hook */

FILE_DESCRIPTION(
/* description */ ('STEP AP214'),
/* implementation_level */ '2;1');

FILE_NAME(
/* name */ '153832_QSC-3_8-U',
/* time_stamp */ '2024-09-14T06:37:58+02:00',
/* author */ ('License CC BY-ND 4.0'),
/* organization */ ('CADENAS'),
/* preprocessor_version */ 'ST-DEVELOPER v19.3',
/* originating_system */ 'PARTsolutions',
/* authorisation */ '  ');

FILE_SCHEMA (('AUTOMOTIVE_DESIGN {1 0 10303 214 3 1 1}'));
ENDSEC;

DATA;
#10=PROPERTY_DEFINITION_REPRESENTATION(#14,#12);
#11=PROPERTY_DEFINITION_REPRESENTATION(#15,#13);
#12=REPRESENTATION('',(#16),#477);
#13=REPRESENTATION('',(#17),#477);
#14=PROPERTY_DEFINITION('pmi validation property','',#482);
#15=PROPERTY_DEFINITION('pmi validation property','',#482);
#16=VALUE_REPRESENTATION_ITEM('number of annotations',COUNT_MEASURE(0.));
#17=VALUE_REPRESENTATION_ITEM('number of views',COUNT_MEASURE(0.));
#18=SHAPE_REPRESENTATION_RELATIONSHIP('','',#323,#19);
#19=ADVANCED_BREP_SHAPE_REPRESENTATION('',(#321),#477);
#20=CONICAL_SURFACE('',#331,6.5,0.785398163397449);
#21=CONICAL_SURFACE('',#349,8.83472963553339,1.39626340159546);
#22=CONICAL_SURFACE('',#353,4.89511454415799,0.174532925199432);
#23=CYLINDRICAL_SURFACE('',#329,6.5);
#24=CYLINDRICAL_SURFACE('',#333,9.);
#25=CYLINDRICAL_SURFACE('',#337,8.5);
#26=CYLINDRICAL_SURFACE('',#341,6.3);
#27=CYLINDRICAL_SURFACE('',#345,9.);
#28=CYLINDRICAL_SURFACE('',#355,4.7625);
#29=TOROIDAL_SURFACE('',#327,5.2,1.3);
#30=TOROIDAL_SURFACE('',#347,8.8,0.200000000000006);
#31=TOROIDAL_SURFACE('',#351,5.19055687006164,0.299999999999984);
#32=ORIENTED_EDGE('',*,*,#64,.F.);
#33=ORIENTED_EDGE('',*,*,#64,.T.);
#34=ORIENTED_EDGE('',*,*,#65,.F.);
#35=ORIENTED_EDGE('',*,*,#66,.F.);
#36=ORIENTED_EDGE('',*,*,#65,.T.);
#37=ORIENTED_EDGE('',*,*,#67,.F.);
#38=ORIENTED_EDGE('',*,*,#66,.T.);
#39=ORIENTED_EDGE('',*,*,#68,.F.);
#40=ORIENTED_EDGE('',*,*,#67,.T.);
#41=ORIENTED_EDGE('',*,*,#69,.F.);
#42=ORIENTED_EDGE('',*,*,#68,.T.);
#43=ORIENTED_EDGE('',*,*,#70,.F.);
#44=ORIENTED_EDGE('',*,*,#69,.T.);
#45=ORIENTED_EDGE('',*,*,#71,.F.);
#46=ORIENTED_EDGE('',*,*,#70,.T.);
#47=ORIENTED_EDGE('',*,*,#72,.F.);
#48=ORIENTED_EDGE('',*,*,#71,.T.);
#49=ORIENTED_EDGE('',*,*,#73,.F.);
#50=ORIENTED_EDGE('',*,*,#72,.T.);
#51=ORIENTED_EDGE('',*,*,#74,.F.);
#52=ORIENTED_EDGE('',*,*,#73,.T.);
#53=ORIENTED_EDGE('',*,*,#74,.T.);
#54=ORIENTED_EDGE('',*,*,#75,.F.);
#55=ORIENTED_EDGE('',*,*,#76,.F.);
#56=ORIENTED_EDGE('',*,*,#75,.T.);
#57=ORIENTED_EDGE('',*,*,#76,.T.);
#58=ORIENTED_EDGE('',*,*,#77,.F.);
#59=ORIENTED_EDGE('',*,*,#78,.F.);
#60=ORIENTED_EDGE('',*,*,#77,.T.);
#61=ORIENTED_EDGE('',*,*,#79,.F.);
#62=ORIENTED_EDGE('',*,*,#78,.T.);
#63=ORIENTED_EDGE('',*,*,#79,.T.);
#64=EDGE_CURVE('',#80,#80,#96,.T.);
#65=EDGE_CURVE('',#81,#81,#97,.T.);
#66=EDGE_CURVE('',#82,#82,#98,.T.);
#67=EDGE_CURVE('',#83,#83,#99,.T.);
#68=EDGE_CURVE('',#84,#84,#100,.T.);
#69=EDGE_CURVE('',#85,#85,#101,.T.);
#70=EDGE_CURVE('',#86,#86,#102,.T.);
#71=EDGE_CURVE('',#87,#87,#103,.T.);
#72=EDGE_CURVE('',#88,#88,#104,.T.);
#73=EDGE_CURVE('',#89,#89,#105,.T.);
#74=EDGE_CURVE('',#90,#90,#106,.T.);
#75=EDGE_CURVE('',#91,#91,#107,.T.);
#76=EDGE_CURVE('',#92,#92,#108,.T.);
#77=EDGE_CURVE('',#93,#93,#109,.T.);
#78=EDGE_CURVE('',#94,#94,#110,.T.);
#79=EDGE_CURVE('',#95,#95,#111,.T.);
#80=VERTEX_POINT('',#429);
#81=VERTEX_POINT('',#432);
#82=VERTEX_POINT('',#435);
#83=VERTEX_POINT('',#438);
#84=VERTEX_POINT('',#441);
#85=VERTEX_POINT('',#444);
#86=VERTEX_POINT('',#447);
#87=VERTEX_POINT('',#450);
#88=VERTEX_POINT('',#453);
#89=VERTEX_POINT('',#456);
#90=VERTEX_POINT('',#459);
#91=VERTEX_POINT('',#462);
#92=VERTEX_POINT('',#465);
#93=VERTEX_POINT('',#468);
#94=VERTEX_POINT('',#471);
#95=VERTEX_POINT('',#474);
#96=CIRCLE('',#326,5.2);
#97=CIRCLE('',#328,6.5);
#98=CIRCLE('',#330,6.5);
#99=CIRCLE('',#332,9.);
#100=CIRCLE('',#334,9.);
#101=CIRCLE('',#336,8.5);
#102=CIRCLE('',#338,8.5);
#103=CIRCLE('',#340,6.3);
#104=CIRCLE('',#342,6.3);
#105=CIRCLE('',#344,9.);
#106=CIRCLE('',#346,9.);
#107=CIRCLE('',#348,8.83472963553339);
#108=CIRCLE('',#350,5.19055687006166);
#109=CIRCLE('',#352,4.89511454415799);
#110=CIRCLE('',#354,4.7625);
#111=CIRCLE('',#356,4.7625);
#112=EDGE_LOOP('',(#32));
#113=EDGE_LOOP('',(#33));
#114=EDGE_LOOP('',(#34));
#115=EDGE_LOOP('',(#35));
#116=EDGE_LOOP('',(#36));
#117=EDGE_LOOP('',(#37));
#118=EDGE_LOOP('',(#38));
#119=EDGE_LOOP('',(#39));
#120=EDGE_LOOP('',(#40));
#121=EDGE_LOOP('',(#41));
#122=EDGE_LOOP('',(#42));
#123=EDGE_LOOP('',(#43));
#124=EDGE_LOOP('',(#44));
#125=EDGE_LOOP('',(#45));
#126=EDGE_LOOP('',(#46));
#127=EDGE_LOOP('',(#47));
#128=EDGE_LOOP('',(#48));
#129=EDGE_LOOP('',(#49));
#130=EDGE_LOOP('',(#50));
#131=EDGE_LOOP('',(#51));
#132=EDGE_LOOP('',(#52));
#133=EDGE_LOOP('',(#53));
#134=EDGE_LOOP('',(#54));
#135=EDGE_LOOP('',(#55));
#136=EDGE_LOOP('',(#56));
#137=EDGE_LOOP('',(#57));
#138=EDGE_LOOP('',(#58));
#139=EDGE_LOOP('',(#59));
#140=EDGE_LOOP('',(#60));
#141=EDGE_LOOP('',(#61));
#142=EDGE_LOOP('',(#62));
#143=EDGE_LOOP('',(#63));
#144=FACE_BOUND('',#112,.T.);
#145=FACE_BOUND('',#113,.T.);
#146=FACE_BOUND('',#114,.T.);
#147=FACE_BOUND('',#115,.T.);
#148=FACE_BOUND('',#116,.T.);
#149=FACE_BOUND('',#117,.T.);
#150=FACE_BOUND('',#118,.T.);
#151=FACE_BOUND('',#119,.T.);
#152=FACE_BOUND('',#120,.T.);
#153=FACE_BOUND('',#121,.T.);
#154=FACE_BOUND('',#122,.T.);
#155=FACE_BOUND('',#123,.T.);
#156=FACE_BOUND('',#124,.T.);
#157=FACE_BOUND('',#125,.T.);
#158=FACE_BOUND('',#126,.T.);
#159=FACE_BOUND('',#127,.T.);
#160=FACE_BOUND('',#128,.T.);
#161=FACE_BOUND('',#129,.T.);
#162=FACE_BOUND('',#130,.T.);
#163=FACE_BOUND('',#131,.T.);
#164=FACE_BOUND('',#132,.T.);
#165=FACE_BOUND('',#133,.T.);
#166=FACE_BOUND('',#134,.T.);
#167=FACE_BOUND('',#135,.T.);
#168=FACE_BOUND('',#136,.T.);
#169=FACE_BOUND('',#137,.T.);
#170=FACE_BOUND('',#138,.T.);
#171=FACE_BOUND('',#139,.T.);
#172=FACE_BOUND('',#140,.T.);
#173=FACE_BOUND('',#141,.T.);
#174=FACE_BOUND('',#142,.T.);
#175=FACE_BOUND('',#143,.T.);
#176=PLANE('',#325);
#177=PLANE('',#335);
#178=PLANE('',#339);
#179=PLANE('',#343);
#180=PLANE('',#357);
#181=STYLED_ITEM('',(#198),#303);
#182=STYLED_ITEM('',(#199),#304);
#183=STYLED_ITEM('',(#200),#305);
#184=STYLED_ITEM('',(#201),#306);
#185=STYLED_ITEM('',(#202),#307);
#186=STYLED_ITEM('',(#203),#308);
#187=STYLED_ITEM('',(#204),#309);
#188=STYLED_ITEM('',(#205),#310);
#189=STYLED_ITEM('',(#206),#311);
#190=STYLED_ITEM('',(#207),#312);
#191=STYLED_ITEM('',(#208),#313);
#192=STYLED_ITEM('',(#209),#314);
#193=STYLED_ITEM('',(#210),#315);
#194=STYLED_ITEM('',(#211),#316);
#195=STYLED_ITEM('',(#212),#317);
#196=STYLED_ITEM('',(#213),#318);
#197=STYLED_ITEM('',(#214),#319);
#198=PRESENTATION_STYLE_ASSIGNMENT((#215));
#199=PRESENTATION_STYLE_ASSIGNMENT((#216));
#200=PRESENTATION_STYLE_ASSIGNMENT((#217));
#201=PRESENTATION_STYLE_ASSIGNMENT((#218));
#202=PRESENTATION_STYLE_ASSIGNMENT((#219));
#203=PRESENTATION_STYLE_ASSIGNMENT((#220));
#204=PRESENTATION_STYLE_ASSIGNMENT((#221));
#205=PRESENTATION_STYLE_ASSIGNMENT((#222));
#206=PRESENTATION_STYLE_ASSIGNMENT((#223));
#207=PRESENTATION_STYLE_ASSIGNMENT((#224));
#208=PRESENTATION_STYLE_ASSIGNMENT((#225));
#209=PRESENTATION_STYLE_ASSIGNMENT((#226));
#210=PRESENTATION_STYLE_ASSIGNMENT((#227));
#211=PRESENTATION_STYLE_ASSIGNMENT((#228));
#212=PRESENTATION_STYLE_ASSIGNMENT((#229));
#213=PRESENTATION_STYLE_ASSIGNMENT((#230));
#214=PRESENTATION_STYLE_ASSIGNMENT((#231));
#215=SURFACE_STYLE_USAGE(.BOTH.,#232);
#216=SURFACE_STYLE_USAGE(.BOTH.,#233);
#217=SURFACE_STYLE_USAGE(.BOTH.,#234);
#218=SURFACE_STYLE_USAGE(.BOTH.,#235);
#219=SURFACE_STYLE_USAGE(.BOTH.,#236);
#220=SURFACE_STYLE_USAGE(.BOTH.,#237);
#221=SURFACE_STYLE_USAGE(.BOTH.,#238);
#222=SURFACE_STYLE_USAGE(.BOTH.,#239);
#223=SURFACE_STYLE_USAGE(.BOTH.,#240);
#224=SURFACE_STYLE_USAGE(.BOTH.,#241);
#225=SURFACE_STYLE_USAGE(.BOTH.,#242);
#226=SURFACE_STYLE_USAGE(.BOTH.,#243);
#227=SURFACE_STYLE_USAGE(.BOTH.,#244);
#228=SURFACE_STYLE_USAGE(.BOTH.,#245);
#229=SURFACE_STYLE_USAGE(.BOTH.,#246);
#230=SURFACE_STYLE_USAGE(.BOTH.,#247);
#231=SURFACE_STYLE_USAGE(.BOTH.,#248);
#232=SURFACE_SIDE_STYLE('',(#249));
#233=SURFACE_SIDE_STYLE('',(#250));
#234=SURFACE_SIDE_STYLE('',(#251));
#235=SURFACE_SIDE_STYLE('',(#252));
#236=SURFACE_SIDE_STYLE('',(#253));
#237=SURFACE_SIDE_STYLE('',(#254));
#238=SURFACE_SIDE_STYLE('',(#255));
#239=SURFACE_SIDE_STYLE('',(#256));
#240=SURFACE_SIDE_STYLE('',(#257));
#241=SURFACE_SIDE_STYLE('',(#258));
#242=SURFACE_SIDE_STYLE('',(#259));
#243=SURFACE_SIDE_STYLE('',(#260));
#244=SURFACE_SIDE_STYLE('',(#261));
#245=SURFACE_SIDE_STYLE('',(#262));
#246=SURFACE_SIDE_STYLE('',(#263));
#247=SURFACE_SIDE_STYLE('',(#264));
#248=SURFACE_SIDE_STYLE('',(#265));
#249=SURFACE_STYLE_FILL_AREA(#266);
#250=SURFACE_STYLE_FILL_AREA(#267);
#251=SURFACE_STYLE_FILL_AREA(#268);
#252=SURFACE_STYLE_FILL_AREA(#269);
#253=SURFACE_STYLE_FILL_AREA(#270);
#254=SURFACE_STYLE_FILL_AREA(#271);
#255=SURFACE_STYLE_FILL_AREA(#272);
#256=SURFACE_STYLE_FILL_AREA(#273);
#257=SURFACE_STYLE_FILL_AREA(#274);
#258=SURFACE_STYLE_FILL_AREA(#275);
#259=SURFACE_STYLE_FILL_AREA(#276);
#260=SURFACE_STYLE_FILL_AREA(#277);
#261=SURFACE_STYLE_FILL_AREA(#278);
#262=SURFACE_STYLE_FILL_AREA(#279);
#263=SURFACE_STYLE_FILL_AREA(#280);
#264=SURFACE_STYLE_FILL_AREA(#281);
#265=SURFACE_STYLE_FILL_AREA(#282);
#266=FILL_AREA_STYLE('',(#283));
#267=FILL_AREA_STYLE('',(#284));
#268=FILL_AREA_STYLE('',(#285));
#269=FILL_AREA_STYLE('',(#286));
#270=FILL_AREA_STYLE('',(#287));
#271=FILL_AREA_STYLE('',(#288));
#272=FILL_AREA_STYLE('',(#289));
#273=FILL_AREA_STYLE('',(#290));
#274=FILL_AREA_STYLE('',(#291));
#275=FILL_AREA_STYLE('',(#292));
#276=FILL_AREA_STYLE('',(#293));
#277=FILL_AREA_STYLE('',(#294));
#278=FILL_AREA_STYLE('',(#295));
#279=FILL_AREA_STYLE('',(#296));
#280=FILL_AREA_STYLE('',(#297));
#281=FILL_AREA_STYLE('',(#298));
#282=FILL_AREA_STYLE('',(#299));
#283=FILL_AREA_STYLE_COLOUR('',#300);
#284=FILL_AREA_STYLE_COLOUR('',#300);
#285=FILL_AREA_STYLE_COLOUR('',#300);
#286=FILL_AREA_STYLE_COLOUR('',#300);
#287=FILL_AREA_STYLE_COLOUR('',#300);
#288=FILL_AREA_STYLE_COLOUR('',#300);
#289=FILL_AREA_STYLE_COLOUR('',#301);
#290=FILL_AREA_STYLE_COLOUR('',#301);
#291=FILL_AREA_STYLE_COLOUR('',#302);
#292=FILL_AREA_STYLE_COLOUR('',#302);
#293=FILL_AREA_STYLE_COLOUR('',#302);
#294=FILL_AREA_STYLE_COLOUR('',#302);
#295=FILL_AREA_STYLE_COLOUR('',#302);
#296=FILL_AREA_STYLE_COLOUR('',#302);
#297=FILL_AREA_STYLE_COLOUR('',#300);
#298=FILL_AREA_STYLE_COLOUR('',#300);
#299=FILL_AREA_STYLE_COLOUR('',#300);
#300=COLOUR_RGB('',0.310000002384186,0.310000002384186,0.310000002384186);
#301=COLOUR_RGB('',0.75300002098083,0.75300002098083,0.75300002098083);
#302=COLOUR_RGB('',0.,0.56900000572205,0.8629999756813);
#303=ADVANCED_FACE('',(#144),#176,.F.);
#304=ADVANCED_FACE('',(#145,#146),#29,.T.);
#305=ADVANCED_FACE('',(#147,#148),#23,.T.);
#306=ADVANCED_FACE('',(#149,#150),#20,.T.);
#307=ADVANCED_FACE('',(#151,#152),#24,.T.);
#308=ADVANCED_FACE('',(#153,#154),#177,.F.);
#309=ADVANCED_FACE('',(#155,#156),#25,.T.);
#310=ADVANCED_FACE('',(#157,#158),#178,.F.);
#311=ADVANCED_FACE('',(#159,#160),#26,.T.);
#312=ADVANCED_FACE('',(#161,#162),#179,.F.);
#313=ADVANCED_FACE('',(#163,#164),#27,.T.);
#314=ADVANCED_FACE('',(#165,#166),#30,.T.);
#315=ADVANCED_FACE('',(#167,#168),#21,.T.);
#316=ADVANCED_FACE('',(#169,#170),#31,.T.);
#317=ADVANCED_FACE('',(#171,#172),#22,.F.);
#318=ADVANCED_FACE('',(#173,#174),#28,.F.);
#319=ADVANCED_FACE('',(#175),#180,.T.);
#320=CLOSED_SHELL('',(#303,#304,#305,#306,#307,#308,#309,#310,#311,#312,
#313,#314,#315,#316,#317,#318,#319));
#321=MANIFOLD_SOLID_BREP('153832 QSC-3/8-U',#320);
#322=SHAPE_DEFINITION_REPRESENTATION(#482,#323);
#323=SHAPE_REPRESENTATION('153832 QSC-3/8-U',(#324),#477);
#324=AXIS2_PLACEMENT_3D('',#426,#358,#359);
#325=AXIS2_PLACEMENT_3D('',#427,#360,#361);
#326=AXIS2_PLACEMENT_3D('',#428,#362,#363);
#327=AXIS2_PLACEMENT_3D('',#430,#364,#365);
#328=AXIS2_PLACEMENT_3D('',#431,#366,#367);
#329=AXIS2_PLACEMENT_3D('',#433,#368,#369);
#330=AXIS2_PLACEMENT_3D('',#434,#370,#371);
#331=AXIS2_PLACEMENT_3D('',#436,#372,#373);
#332=AXIS2_PLACEMENT_3D('',#437,#374,#375);
#333=AXIS2_PLACEMENT_3D('',#439,#376,#377);
#334=AXIS2_PLACEMENT_3D('',#440,#378,#379);
#335=AXIS2_PLACEMENT_3D('',#442,#380,#381);
#336=AXIS2_PLACEMENT_3D('',#443,#382,#383);
#337=AXIS2_PLACEMENT_3D('',#445,#384,#385);
#338=AXIS2_PLACEMENT_3D('',#446,#386,#387);
#339=AXIS2_PLACEMENT_3D('',#448,#388,#389);
#340=AXIS2_PLACEMENT_3D('',#449,#390,#391);
#341=AXIS2_PLACEMENT_3D('',#451,#392,#393);
#342=AXIS2_PLACEMENT_3D('',#452,#394,#395);
#343=AXIS2_PLACEMENT_3D('',#454,#396,#397);
#344=AXIS2_PLACEMENT_3D('',#455,#398,#399);
#345=AXIS2_PLACEMENT_3D('',#457,#400,#401);
#346=AXIS2_PLACEMENT_3D('',#458,#402,#403);
#347=AXIS2_PLACEMENT_3D('',#460,#404,#405);
#348=AXIS2_PLACEMENT_3D('',#461,#406,#407);
#349=AXIS2_PLACEMENT_3D('',#463,#408,#409);
#350=AXIS2_PLACEMENT_3D('',#464,#410,#411);
#351=AXIS2_PLACEMENT_3D('',#466,#412,#413);
#352=AXIS2_PLACEMENT_3D('',#467,#414,#415);
#353=AXIS2_PLACEMENT_3D('',#469,#416,#417);
#354=AXIS2_PLACEMENT_3D('',#470,#418,#419);
#355=AXIS2_PLACEMENT_3D('',#472,#420,#421);
#356=AXIS2_PLACEMENT_3D('',#473,#422,#423);
#357=AXIS2_PLACEMENT_3D('',#475,#424,#425);
#358=DIRECTION('',(0.,0.,1.));
#359=DIRECTION('',(1.,0.,0.));
#360=DIRECTION('',(0.,0.,-1.));
#361=DIRECTION('',(-1.,0.,0.));
#362=DIRECTION('',(0.,0.,-1.));
#363=DIRECTION('',(-1.,0.,0.));
#364=DIRECTION('',(0.,0.,-1.));
#365=DIRECTION('',(-1.,0.,0.));
#366=DIRECTION('',(0.,0.,-1.));
#367=DIRECTION('',(-1.,0.,0.));
#368=DIRECTION('',(0.,0.,-1.));
#369=DIRECTION('',(-1.,0.,0.));
#370=DIRECTION('',(0.,0.,-1.));
#371=DIRECTION('',(-1.,0.,0.));
#372=DIRECTION('',(0.,0.,-1.));
#373=DIRECTION('',(-1.,0.,0.));
#374=DIRECTION('',(0.,0.,-1.));
#375=DIRECTION('',(-1.,0.,0.));
#376=DIRECTION('',(0.,0.,-1.));
#377=DIRECTION('',(-1.,0.,0.));
#378=DIRECTION('',(0.,0.,-1.));
#379=DIRECTION('',(-1.,0.,0.));
#380=DIRECTION('',(0.,0.,1.));
#381=DIRECTION('',(1.,0.,0.));
#382=DIRECTION('',(0.,0.,-1.));
#383=DIRECTION('',(-1.,0.,0.));
#384=DIRECTION('',(0.,0.,-1.));
#385=DIRECTION('',(-1.,0.,0.));
#386=DIRECTION('',(0.,0.,-1.));
#387=DIRECTION('',(-1.,0.,0.));
#388=DIRECTION('',(0.,0.,1.));
#389=DIRECTION('',(1.,0.,0.));
#390=DIRECTION('',(0.,0.,-1.));
#391=DIRECTION('',(-1.,0.,0.));
#392=DIRECTION('',(0.,0.,-1.));
#393=DIRECTION('',(-1.,0.,0.));
#394=DIRECTION('',(0.,0.,-1.));
#395=DIRECTION('',(-1.,0.,0.));
#396=DIRECTION('',(0.,0.,-1.));
#397=DIRECTION('',(-1.,0.,0.));
#398=DIRECTION('',(0.,0.,-1.));
#399=DIRECTION('',(-1.,0.,0.));
#400=DIRECTION('',(0.,0.,-1.));
#401=DIRECTION('',(-1.,0.,0.));
#402=DIRECTION('',(0.,0.,-1.));
#403=DIRECTION('',(-1.,0.,0.));
#404=DIRECTION('',(0.,0.,-1.));
#405=DIRECTION('',(-1.,0.,0.));
#406=DIRECTION('',(0.,0.,-1.));
#407=DIRECTION('',(-1.,0.,0.));
#408=DIRECTION('',(0.,0.,1.));
#409=DIRECTION('',(1.,0.,0.));
#410=DIRECTION('',(0.,0.,-1.));
#411=DIRECTION('',(-1.,0.,0.));
#412=DIRECTION('',(0.,0.,-1.));
#413=DIRECTION('',(-1.,0.,0.));
#414=DIRECTION('',(0.,0.,-1.));
#415=DIRECTION('',(-1.,0.,0.));
#416=DIRECTION('',(0.,0.,-1.));
#417=DIRECTION('',(-1.,0.,0.));
#418=DIRECTION('',(0.,0.,-1.));
#419=DIRECTION('',(-1.,0.,0.));
#420=DIRECTION('',(0.,0.,-1.));
#421=DIRECTION('',(-1.,0.,0.));
#422=DIRECTION('',(0.,0.,-1.));
#423=DIRECTION('',(-1.,0.,0.));
#424=DIRECTION('',(0.,0.,-1.));
#425=DIRECTION('',(-1.,0.,0.));
#426=CARTESIAN_POINT('',(0.,0.,0.));
#427=CARTESIAN_POINT('',(0.,0.,0.));
#428=CARTESIAN_POINT('',(0.,0.,0.));
#429=CARTESIAN_POINT('',(-5.2,0.,0.));
#430=CARTESIAN_POINT('',(0.,0.,-1.3));
#431=CARTESIAN_POINT('',(0.,0.,-1.3));
#432=CARTESIAN_POINT('',(-6.5,0.,-1.3));
#433=CARTESIAN_POINT('',(0.,0.,-22.5));
#434=CARTESIAN_POINT('',(0.,0.,-4.5));
#435=CARTESIAN_POINT('',(-6.5,0.,-4.5));
#436=CARTESIAN_POINT('',(0.,0.,-4.5));
#437=CARTESIAN_POINT('',(0.,0.,-7.));
#438=CARTESIAN_POINT('',(-9.,0.,-7.));
#439=CARTESIAN_POINT('',(0.,0.,-22.5));
#440=CARTESIAN_POINT('',(0.,0.,-16.875));
#441=CARTESIAN_POINT('',(-9.,0.,-16.875));
#442=CARTESIAN_POINT('',(0.,9.,-16.875));
#443=CARTESIAN_POINT('',(0.,0.,-16.875));
#444=CARTESIAN_POINT('',(-8.5,0.,-16.875));
#445=CARTESIAN_POINT('',(0.,0.,-22.5));
#446=CARTESIAN_POINT('',(0.,0.,-18.28125));
#447=CARTESIAN_POINT('',(-8.5,0.,-18.28125));
#448=CARTESIAN_POINT('',(0.,8.5,-18.28125));
#449=CARTESIAN_POINT('',(0.,0.,-18.28125));
#450=CARTESIAN_POINT('',(-6.3,0.,-18.28125));
#451=CARTESIAN_POINT('',(0.,0.,-22.5));
#452=CARTESIAN_POINT('',(0.,0.,-19.6875));
#453=CARTESIAN_POINT('',(-6.3,0.,-19.6875));
#454=CARTESIAN_POINT('',(0.,6.3,-19.6875));
#455=CARTESIAN_POINT('',(0.,0.,-19.6875));
#456=CARTESIAN_POINT('',(-9.,0.,-19.6875));
#457=CARTESIAN_POINT('',(0.,0.,-22.5));
#458=CARTESIAN_POINT('',(0.,0.,-21.6604724684819));
#459=CARTESIAN_POINT('',(-9.,0.,-21.6604724684819));
#460=CARTESIAN_POINT('',(0.,0.,-21.6604724684819));
#461=CARTESIAN_POINT('',(0.,0.,-21.8574340190843));
#462=CARTESIAN_POINT('',(-8.83472963553339,0.,-21.8574340190843));
#463=CARTESIAN_POINT('',(0.,0.,-21.8574340190843));
#464=CARTESIAN_POINT('',(0.,0.,-22.5));
#465=CARTESIAN_POINT('',(-5.19055687006166,0.,-22.5));
#466=CARTESIAN_POINT('',(0.,0.,-22.2));
#467=CARTESIAN_POINT('',(0.,0.,-22.2520944533001));
#468=CARTESIAN_POINT('',(-4.89511454415799,0.,-22.2520944533001));
#469=CARTESIAN_POINT('',(0.,0.,-22.2520944533001));
#470=CARTESIAN_POINT('',(0.,0.,-21.5));
#471=CARTESIAN_POINT('',(-4.7625,0.,-21.5));
#472=CARTESIAN_POINT('',(0.,0.,-22.5));
#473=CARTESIAN_POINT('',(0.,0.,-2.));
#474=CARTESIAN_POINT('',(-4.7625,0.,-2.));
#475=CARTESIAN_POINT('',(0.,0.,-2.));
#476=MECHANICAL_DESIGN_GEOMETRIC_PRESENTATION_REPRESENTATION('',(#181,#182,
#183,#184,#185,#186,#187,#188,#189,#190,#191,#192,#193,#194,#195,#196,#197),
#477);
#477=(
GEOMETRIC_REPRESENTATION_CONTEXT(3)
GLOBAL_UNCERTAINTY_ASSIGNED_CONTEXT((#478))
GLOBAL_UNIT_ASSIGNED_CONTEXT((#481,#480,#479))
REPRESENTATION_CONTEXT('153832 QSC-3/8-U','TOP_LEVEL_ASSEMBLY_PART')
);
#478=UNCERTAINTY_MEASURE_WITH_UNIT(LENGTH_MEASURE(0.005),#481,
'DISTANCE_ACCURACY_VALUE','Maximum Tolerance applied to model');
#479=(
NAMED_UNIT(*)
SI_UNIT($,.STERADIAN.)
SOLID_ANGLE_UNIT()
);
#480=(
NAMED_UNIT(*)
PLANE_ANGLE_UNIT()
SI_UNIT($,.RADIAN.)
);
#481=(
LENGTH_UNIT()
NAMED_UNIT(*)
SI_UNIT(.MILLI.,.METRE.)
);
#482=PRODUCT_DEFINITION_SHAPE('','',#483);
#483=PRODUCT_DEFINITION('','',#485,#484);
#484=PRODUCT_DEFINITION_CONTEXT('',#491,'design');
#485=PRODUCT_DEFINITION_FORMATION_WITH_SPECIFIED_SOURCE('','',#487,
 .NOT_KNOWN.);
#486=PRODUCT_RELATED_PRODUCT_CATEGORY('','',(#487));
#487=PRODUCT('153832 QSC-3/8-U','153832 QSC-3/8-U','153832 QSC-3/8-U',(#489));
#488=PRODUCT_CATEGORY('','');
#489=PRODUCT_CONTEXT('',#491,'mechanical');
#490=APPLICATION_PROTOCOL_DEFINITION('international standard',
'automotive_design',2010,#491);
#491=APPLICATION_CONTEXT(
'core data for automotive mechanical design processes');
ENDSEC;
END-ISO-10303-21;
