ISO-10303-21;
HEADER;
/* Generated by software containing ST-Developer
 * from STEP Tools, Inc. (www.steptools.com) 
 */
/* OPTION: using custom renumber hook */

FILE_DESCRIPTION(
/* description */ ('STEP AP214'),
/* implementation_level */ '2;1');

FILE_NAME(
/* name */ '159642_FRB-D-MINI',
/* time_stamp */ '2024-08-28T15:19:10+02:00',
/* author */ ('License CC BY-ND 4.0'),
/* organization */ ('CADENAS'),
/* preprocessor_version */ 'ST-DEVELOPER v19.3',
/* originating_system */ 'PARTsolutions',
/* authorisation */ '  ');

FILE_SCHEMA (('AUTOMOTIVE_DESIGN {1 0 10303 214 3 1 1}'));
ENDSEC;

DATA;
#10=PROPERTY_DEFINITION_REPRESENTATION(#14,#12);
#11=PROPERTY_DEFINITION_REPRESENTATION(#15,#13);
#12=REPRESENTATION('',(#16),#325);
#13=REPRESENTATION('',(#17),#325);
#14=PROPERTY_DEFINITION('pmi validation property','',#332);
#15=PROPERTY_DEFINITION('pmi validation property','',#332);
#16=VALUE_REPRESENTATION_ITEM('number of annotations',COUNT_MEASURE(0.));
#17=VALUE_REPRESENTATION_ITEM('number of views',COUNT_MEASURE(0.));
#18=CONTEXT_DEPENDENT_SHAPE_REPRESENTATION(#22,#334);
#19=CONTEXT_DEPENDENT_SHAPE_REPRESENTATION(#23,#335);
#20=NEXT_ASSEMBLY_USAGE_OCCURRENCE('NAUO1','355622 FRB-D-MINI',
'355622 FRB-D-MINI',#336,#337,'');
#21=NEXT_ASSEMBLY_USAGE_OCCURRENCE('NAUO2','355622 FRB-D-MINI',
'355622 FRB-D-MINI',#336,#337,'');
#22=(
REPRESENTATION_RELATIONSHIP(' ',' ',#189,#188)
REPRESENTATION_RELATIONSHIP_WITH_TRANSFORMATION(#24)
SHAPE_REPRESENTATION_RELATIONSHIP()
);
#23=(
REPRESENTATION_RELATIONSHIP(' ',' ',#189,#188)
REPRESENTATION_RELATIONSHIP_WITH_TRANSFORMATION(#25)
SHAPE_REPRESENTATION_RELATIONSHIP()
);
#24=ITEM_DEFINED_TRANSFORMATION(' ',' ',#190,#218);
#25=ITEM_DEFINED_TRANSFORMATION(' ',' ',#190,#219);
#26=SHAPE_REPRESENTATION_RELATIONSHIP('','',#189,#27);
#27=ADVANCED_BREP_SHAPE_REPRESENTATION('',(#185),#326);
#28=TOROIDAL_SURFACE('',#205,2.45000000000001,1.);
#29=TOROIDAL_SURFACE('',#209,1.65000000000005,0.200000000000045);
#30=VERTEX_LOOP('',#86);
#31=CONICAL_SURFACE('',#200,2.6,0.785398163397448);
#32=CONICAL_SURFACE('',#204,1.621,1.0471975511966);
#33=CONICAL_SURFACE('',#211,1.50857864376269,0.785398163397452);
#34=CONICAL_SURFACE('',#215,2.,0.785398163397451);
#35=CYLINDRICAL_SURFACE('',#194,3.);
#36=CYLINDRICAL_SURFACE('',#198,2.6);
#37=CYLINDRICAL_SURFACE('',#202,1.621);
#38=CYLINDRICAL_SURFACE('',#207,1.45);
#39=CYLINDRICAL_SURFACE('',#213,2.);
#40=ORIENTED_EDGE('',*,*,#66,.F.);
#41=ORIENTED_EDGE('',*,*,#67,.T.);
#42=ORIENTED_EDGE('',*,*,#68,.F.);
#43=ORIENTED_EDGE('',*,*,#66,.T.);
#44=ORIENTED_EDGE('',*,*,#69,.F.);
#45=ORIENTED_EDGE('',*,*,#68,.T.);
#46=ORIENTED_EDGE('',*,*,#70,.T.);
#47=ORIENTED_EDGE('',*,*,#67,.F.);
#48=ORIENTED_EDGE('',*,*,#71,.T.);
#49=ORIENTED_EDGE('',*,*,#70,.F.);
#50=ORIENTED_EDGE('',*,*,#72,.T.);
#51=ORIENTED_EDGE('',*,*,#71,.F.);
#52=ORIENTED_EDGE('',*,*,#72,.F.);
#53=ORIENTED_EDGE('',*,*,#73,.F.);
#54=ORIENTED_EDGE('',*,*,#69,.T.);
#55=ORIENTED_EDGE('',*,*,#74,.F.);
#56=ORIENTED_EDGE('',*,*,#73,.T.);
#57=ORIENTED_EDGE('',*,*,#75,.F.);
#58=ORIENTED_EDGE('',*,*,#74,.T.);
#59=ORIENTED_EDGE('',*,*,#76,.F.);
#60=ORIENTED_EDGE('',*,*,#75,.T.);
#61=ORIENTED_EDGE('',*,*,#77,.F.);
#62=ORIENTED_EDGE('',*,*,#76,.T.);
#63=ORIENTED_EDGE('',*,*,#78,.F.);
#64=ORIENTED_EDGE('',*,*,#77,.T.);
#65=ORIENTED_EDGE('',*,*,#78,.T.);
#66=EDGE_CURVE('',#79,#79,#93,.T.);
#67=EDGE_CURVE('',#80,#80,#94,.T.);
#68=EDGE_CURVE('',#81,#81,#95,.T.);
#69=EDGE_CURVE('',#82,#82,#96,.T.);
#70=EDGE_CURVE('',#83,#83,#97,.T.);
#71=EDGE_CURVE('',#84,#84,#98,.T.);
#72=EDGE_CURVE('',#85,#85,#99,.T.);
#73=EDGE_CURVE('',#87,#87,#100,.T.);
#74=EDGE_CURVE('',#88,#88,#101,.T.);
#75=EDGE_CURVE('',#89,#89,#102,.T.);
#76=EDGE_CURVE('',#90,#90,#103,.T.);
#77=EDGE_CURVE('',#91,#91,#104,.T.);
#78=EDGE_CURVE('',#92,#92,#105,.T.);
#79=VERTEX_POINT('',#283);
#80=VERTEX_POINT('',#285);
#81=VERTEX_POINT('',#288);
#82=VERTEX_POINT('',#291);
#83=VERTEX_POINT('',#294);
#84=VERTEX_POINT('',#297);
#85=VERTEX_POINT('',#300);
#86=VERTEX_POINT('',#302);
#87=VERTEX_POINT('',#305);
#88=VERTEX_POINT('',#308);
#89=VERTEX_POINT('',#311);
#90=VERTEX_POINT('',#314);
#91=VERTEX_POINT('',#317);
#92=VERTEX_POINT('',#320);
#93=CIRCLE('',#192,3.);
#94=CIRCLE('',#193,2.6);
#95=CIRCLE('',#195,3.);
#96=CIRCLE('',#197,2.45);
#97=CIRCLE('',#199,2.6);
#98=CIRCLE('',#201,1.621);
#99=CIRCLE('',#203,1.621);
#100=CIRCLE('',#206,1.45);
#101=CIRCLE('',#208,1.45);
#102=CIRCLE('',#210,1.50857864376269);
#103=CIRCLE('',#212,2.);
#104=CIRCLE('',#214,2.);
#105=CIRCLE('',#216,1.6);
#106=EDGE_LOOP('',(#40));
#107=EDGE_LOOP('',(#41));
#108=EDGE_LOOP('',(#42));
#109=EDGE_LOOP('',(#43));
#110=EDGE_LOOP('',(#44));
#111=EDGE_LOOP('',(#45));
#112=EDGE_LOOP('',(#46));
#113=EDGE_LOOP('',(#47));
#114=EDGE_LOOP('',(#48));
#115=EDGE_LOOP('',(#49));
#116=EDGE_LOOP('',(#50));
#117=EDGE_LOOP('',(#51));
#118=EDGE_LOOP('',(#52));
#119=EDGE_LOOP('',(#53));
#120=EDGE_LOOP('',(#54));
#121=EDGE_LOOP('',(#55));
#122=EDGE_LOOP('',(#56));
#123=EDGE_LOOP('',(#57));
#124=EDGE_LOOP('',(#58));
#125=EDGE_LOOP('',(#59));
#126=EDGE_LOOP('',(#60));
#127=EDGE_LOOP('',(#61));
#128=EDGE_LOOP('',(#62));
#129=EDGE_LOOP('',(#63));
#130=EDGE_LOOP('',(#64));
#131=EDGE_LOOP('',(#65));
#132=FACE_BOUND('',#106,.T.);
#133=FACE_BOUND('',#107,.T.);
#134=FACE_BOUND('',#108,.T.);
#135=FACE_BOUND('',#109,.T.);
#136=FACE_BOUND('',#110,.T.);
#137=FACE_BOUND('',#111,.T.);
#138=FACE_BOUND('',#112,.T.);
#139=FACE_BOUND('',#113,.T.);
#140=FACE_BOUND('',#114,.T.);
#141=FACE_BOUND('',#115,.T.);
#142=FACE_BOUND('',#116,.T.);
#143=FACE_BOUND('',#117,.T.);
#144=FACE_BOUND('',#30,.T.);
#145=FACE_BOUND('',#118,.T.);
#146=FACE_BOUND('',#119,.T.);
#147=FACE_BOUND('',#120,.T.);
#148=FACE_BOUND('',#121,.T.);
#149=FACE_BOUND('',#122,.T.);
#150=FACE_BOUND('',#123,.T.);
#151=FACE_BOUND('',#124,.T.);
#152=FACE_BOUND('',#125,.T.);
#153=FACE_BOUND('',#126,.T.);
#154=FACE_BOUND('',#127,.T.);
#155=FACE_BOUND('',#128,.T.);
#156=FACE_BOUND('',#129,.T.);
#157=FACE_BOUND('',#130,.T.);
#158=FACE_BOUND('',#131,.T.);
#159=PLANE('',#191);
#160=PLANE('',#196);
#161=PLANE('',#217);
#162=ADVANCED_FACE('',(#132,#133),#159,.F.);
#163=ADVANCED_FACE('',(#134,#135),#35,.T.);
#164=ADVANCED_FACE('',(#136,#137),#160,.F.);
#165=ADVANCED_FACE('',(#138,#139),#36,.F.);
#166=ADVANCED_FACE('',(#140,#141),#31,.F.);
#167=ADVANCED_FACE('',(#142,#143),#37,.F.);
#168=ADVANCED_FACE('',(#144,#145),#32,.F.);
#169=ADVANCED_FACE('',(#146,#147),#28,.F.);
#170=ADVANCED_FACE('',(#148,#149),#38,.T.);
#171=ADVANCED_FACE('',(#150,#151),#29,.F.);
#172=ADVANCED_FACE('',(#152,#153),#33,.T.);
#173=ADVANCED_FACE('',(#154,#155),#39,.T.);
#174=ADVANCED_FACE('',(#156,#157),#34,.T.);
#175=ADVANCED_FACE('',(#158),#161,.F.);
#176=CLOSED_SHELL('',(#162,#163,#164,#165,#166,#167,#168,#169,#170,#171,
#172,#173,#174,#175));
#177=STYLED_ITEM('',(#178),#185);
#178=PRESENTATION_STYLE_ASSIGNMENT((#179));
#179=SURFACE_STYLE_USAGE(.BOTH.,#180);
#180=SURFACE_SIDE_STYLE('',(#181));
#181=SURFACE_STYLE_FILL_AREA(#182);
#182=FILL_AREA_STYLE('',(#183));
#183=FILL_AREA_STYLE_COLOUR('',#184);
#184=COLOUR_RGB('',0.689999997615814,0.689999997615814,0.689999997615814);
#185=MANIFOLD_SOLID_BREP('355622 FRB-D-MINI',#176);
#186=SHAPE_DEFINITION_REPRESENTATION(#332,#188);
#187=SHAPE_DEFINITION_REPRESENTATION(#333,#189);
#188=SHAPE_REPRESENTATION('159642 FRB-D-MINI',(#190,#218,#219),#325);
#189=SHAPE_REPRESENTATION('355622 FRB-D-MINI',(#190),#326);
#190=AXIS2_PLACEMENT_3D('',#280,#220,#221);
#191=AXIS2_PLACEMENT_3D('',#281,#222,#223);
#192=AXIS2_PLACEMENT_3D('',#282,#224,#225);
#193=AXIS2_PLACEMENT_3D('',#284,#226,#227);
#194=AXIS2_PLACEMENT_3D('',#286,#228,#229);
#195=AXIS2_PLACEMENT_3D('',#287,#230,#231);
#196=AXIS2_PLACEMENT_3D('',#289,#232,#233);
#197=AXIS2_PLACEMENT_3D('',#290,#234,#235);
#198=AXIS2_PLACEMENT_3D('',#292,#236,#237);
#199=AXIS2_PLACEMENT_3D('',#293,#238,#239);
#200=AXIS2_PLACEMENT_3D('',#295,#240,#241);
#201=AXIS2_PLACEMENT_3D('',#296,#242,#243);
#202=AXIS2_PLACEMENT_3D('',#298,#244,#245);
#203=AXIS2_PLACEMENT_3D('',#299,#246,#247);
#204=AXIS2_PLACEMENT_3D('',#301,#248,#249);
#205=AXIS2_PLACEMENT_3D('',#303,#250,#251);
#206=AXIS2_PLACEMENT_3D('',#304,#252,#253);
#207=AXIS2_PLACEMENT_3D('',#306,#254,#255);
#208=AXIS2_PLACEMENT_3D('',#307,#256,#257);
#209=AXIS2_PLACEMENT_3D('',#309,#258,#259);
#210=AXIS2_PLACEMENT_3D('',#310,#260,#261);
#211=AXIS2_PLACEMENT_3D('',#312,#262,#263);
#212=AXIS2_PLACEMENT_3D('',#313,#264,#265);
#213=AXIS2_PLACEMENT_3D('',#315,#266,#267);
#214=AXIS2_PLACEMENT_3D('',#316,#268,#269);
#215=AXIS2_PLACEMENT_3D('',#318,#270,#271);
#216=AXIS2_PLACEMENT_3D('',#319,#272,#273);
#217=AXIS2_PLACEMENT_3D('',#321,#274,#275);
#218=AXIS2_PLACEMENT_3D('',#322,#276,#277);
#219=AXIS2_PLACEMENT_3D('',#323,#278,#279);
#220=DIRECTION('',(0.,0.,1.));
#221=DIRECTION('',(1.,0.,0.));
#222=DIRECTION('',(1.,0.,0.));
#223=DIRECTION('',(0.,0.,-1.));
#224=DIRECTION('',(1.,0.,0.));
#225=DIRECTION('',(0.,0.,-1.));
#226=DIRECTION('',(1.,-1.99166224758132E-18,0.));
#227=DIRECTION('',(1.99166224758132E-18,1.,0.));
#228=DIRECTION('',(1.,0.,0.));
#229=DIRECTION('',(0.,0.,-1.));
#230=DIRECTION('',(1.,0.,0.));
#231=DIRECTION('',(0.,0.,-1.));
#232=DIRECTION('',(-1.,0.,0.));
#233=DIRECTION('',(0.,0.,1.));
#234=DIRECTION('',(1.,0.,0.));
#235=DIRECTION('',(0.,0.,-1.));
#236=DIRECTION('',(1.,-1.99166224758132E-18,0.));
#237=DIRECTION('',(1.99166224758132E-18,1.,0.));
#238=DIRECTION('',(1.,-1.99166224758132E-18,0.));
#239=DIRECTION('',(1.99166224758132E-18,1.,0.));
#240=DIRECTION('',(-1.,1.99166224758132E-18,0.));
#241=DIRECTION('',(-1.99166224758132E-18,-1.,0.));
#242=DIRECTION('',(1.,-1.99166224758132E-18,0.));
#243=DIRECTION('',(1.99166224758132E-18,1.,0.));
#244=DIRECTION('',(1.,-1.99166224758132E-18,0.));
#245=DIRECTION('',(1.99166224758132E-18,1.,0.));
#246=DIRECTION('',(1.,-1.99166224758132E-18,0.));
#247=DIRECTION('',(1.99166224758132E-18,1.,0.));
#248=DIRECTION('',(-1.,1.99166224758132E-18,0.));
#249=DIRECTION('',(-1.99166224758132E-18,-1.,0.));
#250=DIRECTION('',(1.,0.,0.));
#251=DIRECTION('',(0.,0.,-1.));
#252=DIRECTION('',(1.,0.,0.));
#253=DIRECTION('',(0.,0.,-1.));
#254=DIRECTION('',(1.,0.,0.));
#255=DIRECTION('',(0.,0.,-1.));
#256=DIRECTION('',(1.,0.,0.));
#257=DIRECTION('',(0.,0.,-1.));
#258=DIRECTION('',(1.,0.,0.));
#259=DIRECTION('',(0.,0.,-1.));
#260=DIRECTION('',(1.,0.,0.));
#261=DIRECTION('',(0.,0.,-1.));
#262=DIRECTION('',(1.,0.,0.));
#263=DIRECTION('',(0.,0.,-1.));
#264=DIRECTION('',(1.,0.,0.));
#265=DIRECTION('',(0.,0.,-1.));
#266=DIRECTION('',(1.,0.,0.));
#267=DIRECTION('',(0.,0.,-1.));
#268=DIRECTION('',(1.,0.,0.));
#269=DIRECTION('',(0.,0.,-1.));
#270=DIRECTION('',(-1.,0.,0.));
#271=DIRECTION('',(0.,0.,1.));
#272=DIRECTION('',(1.,0.,0.));
#273=DIRECTION('',(0.,0.,-1.));
#274=DIRECTION('',(-1.,0.,0.));
#275=DIRECTION('',(0.,0.,1.));
#276=DIRECTION('',(-1.,0.,0.));
#277=DIRECTION('',(0.,0.,1.));
#278=DIRECTION('',(-1.,0.,0.));
#279=DIRECTION('',(0.,0.,1.));
#280=CARTESIAN_POINT('',(0.,0.,0.));
#281=CARTESIAN_POINT('',(0.,0.,0.));
#282=CARTESIAN_POINT('',(0.,0.,0.));
#283=CARTESIAN_POINT('',(0.,0.,-3.));
#284=CARTESIAN_POINT('',(0.,0.,0.));
#285=CARTESIAN_POINT('',(5.17832184371144E-18,2.6,0.));
#286=CARTESIAN_POINT('',(39.8,0.,0.));
#287=CARTESIAN_POINT('',(39.8,0.,0.));
#288=CARTESIAN_POINT('',(39.8,0.,-3.));
#289=CARTESIAN_POINT('',(39.8,3.,0.));
#290=CARTESIAN_POINT('',(39.8,0.,0.));
#291=CARTESIAN_POINT('',(39.8,0.,-2.45));
#292=CARTESIAN_POINT('',(13.9358847863564,-2.77555756156289E-17,0.));
#293=CARTESIAN_POINT('',(0.5,-9.95831123790663E-19,0.));
#294=CARTESIAN_POINT('',(0.5,2.6,0.));
#295=CARTESIAN_POINT('',(0.5,-9.95831123790663E-19,0.));
#296=CARTESIAN_POINT('',(1.479,-2.94566846417278E-18,0.));
#297=CARTESIAN_POINT('',(1.479,1.621,0.));
#298=CARTESIAN_POINT('',(13.9358847863564,-2.77555756156289E-17,0.));
#299=CARTESIAN_POINT('',(13.,-2.58916092185572E-17,0.));
#300=CARTESIAN_POINT('',(13.,1.621,0.));
#301=CARTESIAN_POINT('',(13.,-2.58916092185572E-17,0.));
#302=CARTESIAN_POINT('',(13.9358847863564,-2.16840434497101E-16,0.));
#303=CARTESIAN_POINT('',(40.8,0.,0.));
#304=CARTESIAN_POINT('',(40.8,0.,0.));
#305=CARTESIAN_POINT('',(40.8,0.,-1.45));
#306=CARTESIAN_POINT('',(47.3,0.,0.));
#307=CARTESIAN_POINT('',(40.9171572875254,0.,0.));
#308=CARTESIAN_POINT('',(40.9171572875254,0.,-1.45));
#309=CARTESIAN_POINT('',(40.9171572875254,0.,0.));
#310=CARTESIAN_POINT('',(41.0585786437627,0.,0.));
#311=CARTESIAN_POINT('',(41.0585786437627,0.,-1.50857864376269));
#312=CARTESIAN_POINT('',(41.0585786437627,0.,0.));
#313=CARTESIAN_POINT('',(41.55,0.,0.));
#314=CARTESIAN_POINT('',(41.55,0.,-2.));
#315=CARTESIAN_POINT('',(47.3,0.,0.));
#316=CARTESIAN_POINT('',(46.9,0.,0.));
#317=CARTESIAN_POINT('',(46.9,0.,-2.));
#318=CARTESIAN_POINT('',(46.9,0.,0.));
#319=CARTESIAN_POINT('',(47.3,0.,0.));
#320=CARTESIAN_POINT('',(47.3,0.,-1.6));
#321=CARTESIAN_POINT('',(47.3,1.6,0.));
#322=CARTESIAN_POINT('',(-15.,0.,0.));
#323=CARTESIAN_POINT('',(15.,0.,0.));
#324=MECHANICAL_DESIGN_GEOMETRIC_PRESENTATION_REPRESENTATION('',(#177),
#325);
#325=(
GEOMETRIC_REPRESENTATION_CONTEXT(3)
GLOBAL_UNCERTAINTY_ASSIGNED_CONTEXT((#327))
GLOBAL_UNIT_ASSIGNED_CONTEXT((#331,#330,#329))
REPRESENTATION_CONTEXT('159642 FRB-D-MINI','TOP_LEVEL_ASSEMBLY_PART')
);
#326=(
GEOMETRIC_REPRESENTATION_CONTEXT(3)
GLOBAL_UNCERTAINTY_ASSIGNED_CONTEXT((#328))
GLOBAL_UNIT_ASSIGNED_CONTEXT((#331,#330,#329))
REPRESENTATION_CONTEXT('355622 FRB-D-MINI','COMPONENT_PART')
);
#327=UNCERTAINTY_MEASURE_WITH_UNIT(LENGTH_MEASURE(0.005),#331,
'DISTANCE_ACCURACY_VALUE','Maximum Tolerance applied to model');
#328=UNCERTAINTY_MEASURE_WITH_UNIT(LENGTH_MEASURE(0.005),#331,
'DISTANCE_ACCURACY_VALUE','Maximum Tolerance applied to model');
#329=(
NAMED_UNIT(*)
SI_UNIT($,.STERADIAN.)
SOLID_ANGLE_UNIT()
);
#330=(
NAMED_UNIT(*)
PLANE_ANGLE_UNIT()
SI_UNIT($,.RADIAN.)
);
#331=(
LENGTH_UNIT()
NAMED_UNIT(*)
SI_UNIT(.MILLI.,.METRE.)
);
#332=PRODUCT_DEFINITION_SHAPE('','',#336);
#333=PRODUCT_DEFINITION_SHAPE('','',#337);
#334=PRODUCT_DEFINITION_SHAPE(' ','NAUO PRDDFN',#20);
#335=PRODUCT_DEFINITION_SHAPE(' ','NAUO PRDDFN',#21);
#336=PRODUCT_DEFINITION('','',#340,#338);
#337=PRODUCT_DEFINITION('','',#341,#339);
#338=PRODUCT_DEFINITION_CONTEXT('',#351,'design');
#339=PRODUCT_DEFINITION_CONTEXT('',#351,'design');
#340=PRODUCT_DEFINITION_FORMATION_WITH_SPECIFIED_SOURCE('','',#344,
 .NOT_KNOWN.);
#341=PRODUCT_DEFINITION_FORMATION_WITH_SPECIFIED_SOURCE('','',#345,
 .NOT_KNOWN.);
#342=PRODUCT_RELATED_PRODUCT_CATEGORY('','',(#344));
#343=PRODUCT_RELATED_PRODUCT_CATEGORY('','',(#345));
#344=PRODUCT('159642 FRB-D-MINI','159642 FRB-D-MINI',
'159642 FRB-D-MINI',(#348));
#345=PRODUCT('355622 FRB-D-MINI','355622 FRB-D-MINI',
'355622 FRB-D-MINI',(#349));
#346=PRODUCT_CATEGORY('','');
#347=PRODUCT_CATEGORY('','');
#348=PRODUCT_CONTEXT('',#351,'mechanical');
#349=PRODUCT_CONTEXT('',#351,'mechanical');
#350=APPLICATION_PROTOCOL_DEFINITION('international standard',
'automotive_design',2010,#351);
#351=APPLICATION_CONTEXT(
'core data for automotive mechanical design processes');
ENDSEC;
END-ISO-10303-21;
