ISO-10303-21;
HEADER;
/* Generated by software containing ST-Developer
 * from STEP Tools, Inc. (www.steptools.com) 
 */
/* OPTION: using custom renumber hook */

FILE_DESCRIPTION(
/* description */ ('STEP AP214'),
/* implementation_level */ '2;1');

FILE_NAME(
/* name */ '159676_PUN-8X125-DUO-BS',
/* time_stamp */ '2024-09-13T21:17:02+02:00',
/* author */ ('License CC BY-ND 4.0'),
/* organization */ ('CADENAS'),
/* preprocessor_version */ 'ST-DEVELOPER v19.3',
/* originating_system */ 'PARTsolutions',
/* authorisation */ '  ');

FILE_SCHEMA (('CONFIG_CONTROL_DESIGN','AP203_CONFIGURATION_CONTROLLED_3D_DESIGN_OF_MECHANICAL_PARTS_AND_ASSEMBLIES_MIM_LF { 1 0 10303 203 3 1 4 }',
'PROCESS_PLANNING_SCHEMA','AUTOMOTIVE_DESIGN {1 0 10303 214 3 1 1}'));
ENDSEC;

DATA;
#10=PROPERTY_DEFINITION_REPRESENTATION(#14,#12);
#11=PROPERTY_DEFINITION_REPRESENTATION(#15,#13);
#12=REPRESENTATION('',(#16),#290);
#13=REPRESENTATION('',(#17),#290);
#14=PROPERTY_DEFINITION('pmi validation property','',#295);
#15=PROPERTY_DEFINITION('pmi validation property','',#295);
#16=VALUE_REPRESENTATION_ITEM('number of annotations',COUNT_MEASURE(0.));
#17=VALUE_REPRESENTATION_ITEM('number of views',COUNT_MEASURE(0.));
#18=SHAPE_REPRESENTATION_RELATIONSHIP('','',#198,#19);
#19=ADVANCED_BREP_SHAPE_REPRESENTATION('',(#196),#290);
#20=PLANE('',#212);
#21=PLANE('',#213);
#22=PLANE('',#214);
#23=PLANE('',#215);
#24=DRAUGHTING_PRE_DEFINED_COLOUR('black');
#25=LINE('',#263,#31);
#26=LINE('',#268,#32);
#27=LINE('',#280,#33);
#28=LINE('',#282,#34);
#29=LINE('',#285,#35);
#30=LINE('',#287,#36);
#31=VECTOR('',#226,1000.);
#32=VECTOR('',#229,1000.);
#33=VECTOR('',#242,1000.);
#34=VECTOR('',#245,1000.);
#35=VECTOR('',#250,1000.);
#36=VECTOR('',#253,1000.);
#37=ELLIPSE('',#202,4.03050865276332,2.85);
#38=ELLIPSE('',#204,5.65685424949238,4.);
#39=ELLIPSE('',#208,4.03050865276332,2.85);
#40=ELLIPSE('',#210,5.65685424949238,4.);
#41=ORIENTED_EDGE('',*,*,#69,.T.);
#42=ORIENTED_EDGE('',*,*,#70,.F.);
#43=ORIENTED_EDGE('',*,*,#71,.T.);
#44=ORIENTED_EDGE('',*,*,#72,.T.);
#45=ORIENTED_EDGE('',*,*,#73,.T.);
#46=ORIENTED_EDGE('',*,*,#74,.F.);
#47=ORIENTED_EDGE('',*,*,#75,.T.);
#48=ORIENTED_EDGE('',*,*,#76,.F.);
#49=ORIENTED_EDGE('',*,*,#77,.T.);
#50=ORIENTED_EDGE('',*,*,#78,.T.);
#51=ORIENTED_EDGE('',*,*,#71,.F.);
#52=ORIENTED_EDGE('',*,*,#79,.F.);
#53=ORIENTED_EDGE('',*,*,#73,.F.);
#54=ORIENTED_EDGE('',*,*,#80,.F.);
#55=ORIENTED_EDGE('',*,*,#79,.T.);
#56=ORIENTED_EDGE('',*,*,#74,.T.);
#57=ORIENTED_EDGE('',*,*,#75,.F.);
#58=ORIENTED_EDGE('',*,*,#69,.F.);
#59=ORIENTED_EDGE('',*,*,#77,.F.);
#60=ORIENTED_EDGE('',*,*,#81,.T.);
#61=ORIENTED_EDGE('',*,*,#76,.T.);
#62=ORIENTED_EDGE('',*,*,#82,.F.);
#63=ORIENTED_EDGE('',*,*,#72,.F.);
#64=ORIENTED_EDGE('',*,*,#70,.T.);
#65=ORIENTED_EDGE('',*,*,#82,.T.);
#66=ORIENTED_EDGE('',*,*,#78,.F.);
#67=ORIENTED_EDGE('',*,*,#81,.F.);
#68=ORIENTED_EDGE('',*,*,#80,.T.);
#69=EDGE_CURVE('',#83,#83,#93,.T.);
#70=EDGE_CURVE('',#84,#84,#37,.F.);
#71=EDGE_CURVE('',#85,#86,#25,.F.);
#72=EDGE_CURVE('',#86,#87,#38,.F.);
#73=EDGE_CURVE('',#87,#88,#26,.T.);
#74=EDGE_CURVE('',#85,#88,#94,.T.);
#75=EDGE_CURVE('',#89,#89,#95,.T.);
#76=EDGE_CURVE('',#90,#90,#39,.F.);
#77=EDGE_CURVE('',#91,#92,#40,.F.);
#78=EDGE_CURVE('',#92,#86,#27,.T.);
#79=EDGE_CURVE('',#88,#85,#96,.T.);
#80=EDGE_CURVE('',#91,#87,#28,.T.);
#81=EDGE_CURVE('',#91,#92,#29,.T.);
#82=EDGE_CURVE('',#87,#86,#30,.T.);
#83=VERTEX_POINT('',#259);
#84=VERTEX_POINT('',#261);
#85=VERTEX_POINT('',#264);
#86=VERTEX_POINT('',#265);
#87=VERTEX_POINT('',#267);
#88=VERTEX_POINT('',#269);
#89=VERTEX_POINT('',#273);
#90=VERTEX_POINT('',#275);
#91=VERTEX_POINT('',#278);
#92=VERTEX_POINT('',#279);
#93=CIRCLE('',#201,2.85);
#94=CIRCLE('',#205,4.);
#95=CIRCLE('',#207,2.85);
#96=CIRCLE('',#211,4.);
#97=EDGE_LOOP('',(#41));
#98=EDGE_LOOP('',(#42));
#99=EDGE_LOOP('',(#43,#44,#45,#46));
#100=EDGE_LOOP('',(#47));
#101=EDGE_LOOP('',(#48));
#102=EDGE_LOOP('',(#49,#50,#51,#52,#53,#54));
#103=EDGE_LOOP('',(#55,#56));
#104=EDGE_LOOP('',(#57));
#105=EDGE_LOOP('',(#58));
#106=EDGE_LOOP('',(#59,#60));
#107=EDGE_LOOP('',(#61));
#108=EDGE_LOOP('',(#62,#63));
#109=EDGE_LOOP('',(#64));
#110=EDGE_LOOP('',(#65,#66,#67,#68));
#111=FACE_BOUND('',#97,.T.);
#112=FACE_BOUND('',#98,.T.);
#113=FACE_BOUND('',#99,.T.);
#114=FACE_BOUND('',#100,.T.);
#115=FACE_BOUND('',#101,.T.);
#116=FACE_BOUND('',#102,.T.);
#117=FACE_BOUND('',#103,.T.);
#118=FACE_BOUND('',#104,.T.);
#119=FACE_BOUND('',#105,.T.);
#120=FACE_BOUND('',#106,.T.);
#121=FACE_BOUND('',#107,.T.);
#122=FACE_BOUND('',#108,.T.);
#123=FACE_BOUND('',#109,.T.);
#124=FACE_BOUND('',#110,.T.);
#125=CYLINDRICAL_SURFACE('',#200,2.85);
#126=CYLINDRICAL_SURFACE('',#203,4.);
#127=CYLINDRICAL_SURFACE('',#206,2.85);
#128=CYLINDRICAL_SURFACE('',#209,4.);
#129=STYLED_ITEM('',(#137),#187);
#130=STYLED_ITEM('',(#138),#188);
#131=STYLED_ITEM('',(#139),#189);
#132=STYLED_ITEM('',(#140),#190);
#133=STYLED_ITEM('',(#141),#191);
#134=STYLED_ITEM('',(#142),#192);
#135=STYLED_ITEM('',(#143),#193);
#136=STYLED_ITEM('',(#144),#194);
#137=PRESENTATION_STYLE_ASSIGNMENT((#145));
#138=PRESENTATION_STYLE_ASSIGNMENT((#146));
#139=PRESENTATION_STYLE_ASSIGNMENT((#147));
#140=PRESENTATION_STYLE_ASSIGNMENT((#148));
#141=PRESENTATION_STYLE_ASSIGNMENT((#149));
#142=PRESENTATION_STYLE_ASSIGNMENT((#150));
#143=PRESENTATION_STYLE_ASSIGNMENT((#151));
#144=PRESENTATION_STYLE_ASSIGNMENT((#152));
#145=SURFACE_STYLE_USAGE(.BOTH.,#153);
#146=SURFACE_STYLE_USAGE(.BOTH.,#154);
#147=SURFACE_STYLE_USAGE(.BOTH.,#155);
#148=SURFACE_STYLE_USAGE(.BOTH.,#156);
#149=SURFACE_STYLE_USAGE(.BOTH.,#157);
#150=SURFACE_STYLE_USAGE(.BOTH.,#158);
#151=SURFACE_STYLE_USAGE(.BOTH.,#159);
#152=SURFACE_STYLE_USAGE(.BOTH.,#160);
#153=SURFACE_SIDE_STYLE('',(#161));
#154=SURFACE_SIDE_STYLE('',(#162));
#155=SURFACE_SIDE_STYLE('',(#163));
#156=SURFACE_SIDE_STYLE('',(#164));
#157=SURFACE_SIDE_STYLE('',(#165));
#158=SURFACE_SIDE_STYLE('',(#166));
#159=SURFACE_SIDE_STYLE('',(#167));
#160=SURFACE_SIDE_STYLE('',(#168));
#161=SURFACE_STYLE_FILL_AREA(#169);
#162=SURFACE_STYLE_FILL_AREA(#170);
#163=SURFACE_STYLE_FILL_AREA(#171);
#164=SURFACE_STYLE_FILL_AREA(#172);
#165=SURFACE_STYLE_FILL_AREA(#173);
#166=SURFACE_STYLE_FILL_AREA(#174);
#167=SURFACE_STYLE_FILL_AREA(#175);
#168=SURFACE_STYLE_FILL_AREA(#176);
#169=FILL_AREA_STYLE('',(#177));
#170=FILL_AREA_STYLE('',(#178));
#171=FILL_AREA_STYLE('',(#179));
#172=FILL_AREA_STYLE('',(#180));
#173=FILL_AREA_STYLE('',(#181));
#174=FILL_AREA_STYLE('',(#182));
#175=FILL_AREA_STYLE('',(#183));
#176=FILL_AREA_STYLE('',(#184));
#177=FILL_AREA_STYLE_COLOUR('',#185);
#178=FILL_AREA_STYLE_COLOUR('',#186);
#179=FILL_AREA_STYLE_COLOUR('',#24);
#180=FILL_AREA_STYLE_COLOUR('',#24);
#181=FILL_AREA_STYLE_COLOUR('',#24);
#182=FILL_AREA_STYLE_COLOUR('',#24);
#183=FILL_AREA_STYLE_COLOUR('',#186);
#184=FILL_AREA_STYLE_COLOUR('',#24);
#185=COLOUR_RGB('',0.,0.56900000572205,0.8629999756813);
#186=COLOUR_RGB('',0.,0.60000002384186,1.);
#187=ADVANCED_FACE('',(#111,#112),#125,.F.);
#188=ADVANCED_FACE('',(#113),#126,.T.);
#189=ADVANCED_FACE('',(#114,#115),#127,.F.);
#190=ADVANCED_FACE('',(#116),#128,.T.);
#191=ADVANCED_FACE('',(#117,#118,#119),#20,.T.);
#192=ADVANCED_FACE('',(#120,#121),#21,.T.);
#193=ADVANCED_FACE('',(#122,#123),#22,.T.);
#194=ADVANCED_FACE('',(#124),#23,.T.);
#195=CLOSED_SHELL('',(#187,#188,#189,#190,#191,#192,#193,#194));
#196=MANIFOLD_SOLID_BREP('159676 PUN-8X1,25-DUO-BS---(50)',#195);
#197=SHAPE_DEFINITION_REPRESENTATION(#295,#198);
#198=SHAPE_REPRESENTATION('159676 PUN-8X1,25-DUO-BS---(50)',(#199),#290);
#199=AXIS2_PLACEMENT_3D('',#256,#216,#217);
#200=AXIS2_PLACEMENT_3D('',#257,#218,#219);
#201=AXIS2_PLACEMENT_3D('',#258,#220,#221);
#202=AXIS2_PLACEMENT_3D('',#260,#222,#223);
#203=AXIS2_PLACEMENT_3D('',#262,#224,#225);
#204=AXIS2_PLACEMENT_3D('',#266,#227,#228);
#205=AXIS2_PLACEMENT_3D('',#270,#230,#231);
#206=AXIS2_PLACEMENT_3D('',#271,#232,#233);
#207=AXIS2_PLACEMENT_3D('',#272,#234,#235);
#208=AXIS2_PLACEMENT_3D('',#274,#236,#237);
#209=AXIS2_PLACEMENT_3D('',#276,#238,#239);
#210=AXIS2_PLACEMENT_3D('',#277,#240,#241);
#211=AXIS2_PLACEMENT_3D('',#281,#243,#244);
#212=AXIS2_PLACEMENT_3D('',#283,#246,#247);
#213=AXIS2_PLACEMENT_3D('',#284,#248,#249);
#214=AXIS2_PLACEMENT_3D('',#286,#251,#252);
#215=AXIS2_PLACEMENT_3D('',#288,#254,#255);
#216=DIRECTION('',(0.,0.,1.));
#217=DIRECTION('',(1.,0.,0.));
#218=DIRECTION('',(0.,0.,1.));
#219=DIRECTION('',(1.,0.,0.));
#220=DIRECTION('',(0.,0.,1.));
#221=DIRECTION('',(1.,0.,0.));
#222=DIRECTION('',(0.,0.707106781186547,-0.707106781186548));
#223=DIRECTION('',(0.,0.707106781186548,0.707106781186547));
#224=DIRECTION('',(0.,0.,1.));
#225=DIRECTION('',(1.,0.,0.));
#226=DIRECTION('',(0.,0.,1.));
#227=DIRECTION('',(0.,0.707106781186547,-0.707106781186548));
#228=DIRECTION('',(0.,0.707106781186548,0.707106781186547));
#229=DIRECTION('',(0.,0.,1.));
#230=DIRECTION('',(0.,0.,1.));
#231=DIRECTION('',(1.,0.,0.));
#232=DIRECTION('',(0.,0.,1.));
#233=DIRECTION('',(1.,0.,0.));
#234=DIRECTION('',(0.,0.,1.));
#235=DIRECTION('',(1.,0.,0.));
#236=DIRECTION('',(0.,0.707106781186547,-0.707106781186548));
#237=DIRECTION('',(0.,0.707106781186548,0.707106781186547));
#238=DIRECTION('',(0.,0.,1.));
#239=DIRECTION('',(1.,0.,0.));
#240=DIRECTION('',(0.,0.707106781186547,-0.707106781186548));
#241=DIRECTION('',(0.,0.707106781186548,0.707106781186547));
#242=DIRECTION('',(0.,0.,1.));
#243=DIRECTION('',(0.,0.,1.));
#244=DIRECTION('',(1.,0.,0.));
#245=DIRECTION('',(0.,0.,1.));
#246=DIRECTION('',(0.,0.,1.));
#247=DIRECTION('',(1.,0.,0.));
#248=DIRECTION('',(0.,0.707106781186547,-0.707106781186548));
#249=DIRECTION('',(0.,0.707106781186548,0.707106781186547));
#250=DIRECTION('',(-1.,0.,0.));
#251=DIRECTION('',(0.,0.707106781186547,-0.707106781186548));
#252=DIRECTION('',(0.,0.707106781186548,0.707106781186547));
#253=DIRECTION('',(-1.,0.,0.));
#254=DIRECTION('',(0.,-1.,0.));
#255=DIRECTION('',(0.,0.,-1.));
#256=CARTESIAN_POINT('',(0.,0.,0.));
#257=CARTESIAN_POINT('',(0.,-3.95,-80.));
#258=CARTESIAN_POINT('',(0.,-3.95,0.));
#259=CARTESIAN_POINT('',(2.85,-3.95,0.));
#260=CARTESIAN_POINT('',(0.,-3.95,-75.95));
#261=CARTESIAN_POINT('',(0.,-1.1,-73.1));
#262=CARTESIAN_POINT('',(0.,-3.95,-80.));
#263=CARTESIAN_POINT('',(-0.630476010645923,0.,-40.));
#264=CARTESIAN_POINT('',(-0.630476010645923,0.,0.));
#265=CARTESIAN_POINT('',(-0.630476010645926,0.,-72.));
#266=CARTESIAN_POINT('',(0.,-3.95,-75.95));
#267=CARTESIAN_POINT('',(0.630476010645926,0.,-72.));
#268=CARTESIAN_POINT('',(0.630476010645923,0.,-40.));
#269=CARTESIAN_POINT('',(0.630476010645923,0.,0.));
#270=CARTESIAN_POINT('',(0.,-3.95,0.));
#271=CARTESIAN_POINT('',(0.,3.95,-80.));
#272=CARTESIAN_POINT('',(0.,3.95,0.));
#273=CARTESIAN_POINT('',(2.85,3.95,0.));
#274=CARTESIAN_POINT('',(0.,3.95,-76.05));
#275=CARTESIAN_POINT('',(0.,6.8,-73.2));
#276=CARTESIAN_POINT('',(0.,3.95,-80.));
#277=CARTESIAN_POINT('',(0.,3.95,-76.05));
#278=CARTESIAN_POINT('',(0.630476010645926,0.,-80.));
#279=CARTESIAN_POINT('',(-0.630476010645926,0.,-80.));
#280=CARTESIAN_POINT('',(-0.630476010645923,0.,-80.));
#281=CARTESIAN_POINT('',(0.,3.95,0.));
#282=CARTESIAN_POINT('',(0.630476010645923,0.,-40.));
#283=CARTESIAN_POINT('',(0.,3.95,0.));
#284=CARTESIAN_POINT('',(4.,8.,-72.));
#285=CARTESIAN_POINT('',(4.,0.,-80.));
#286=CARTESIAN_POINT('',(4.,0.,-72.));
#287=CARTESIAN_POINT('',(4.,0.,-72.));
#288=CARTESIAN_POINT('',(4.,0.,-88.));
#289=MECHANICAL_DESIGN_GEOMETRIC_PRESENTATION_REPRESENTATION('',(#129,#130,
#131,#132,#133,#134,#135,#136),#290);
#290=(
GEOMETRIC_REPRESENTATION_CONTEXT(3)
GLOBAL_UNCERTAINTY_ASSIGNED_CONTEXT((#291))
GLOBAL_UNIT_ASSIGNED_CONTEXT((#294,#293,#292))
REPRESENTATION_CONTEXT('159676 PUN-8X1,25-DUO-BS---(50)',
'TOP_LEVEL_ASSEMBLY_PART')
);
#291=UNCERTAINTY_MEASURE_WITH_UNIT(LENGTH_MEASURE(0.005),#294,
'DISTANCE_ACCURACY_VALUE','Maximum Tolerance applied to model');
#292=(
NAMED_UNIT(*)
SI_UNIT($,.STERADIAN.)
SOLID_ANGLE_UNIT()
);
#293=(
NAMED_UNIT(*)
PLANE_ANGLE_UNIT()
SI_UNIT($,.RADIAN.)
);
#294=(
LENGTH_UNIT()
NAMED_UNIT(*)
SI_UNIT(.MILLI.,.METRE.)
);
#295=PRODUCT_DEFINITION_SHAPE('','',#296);
#296=PRODUCT_DEFINITION('','',#298,#297);
#297=PRODUCT_DEFINITION_CONTEXT('',#304,'design');
#298=PRODUCT_DEFINITION_FORMATION_WITH_SPECIFIED_SOURCE('','',#300,
 .NOT_KNOWN.);
#299=PRODUCT_RELATED_PRODUCT_CATEGORY('','',(#300));
#300=PRODUCT('159676 PUN-8X1,25-DUO-BS---(50)',
'159676 PUN-8X1,25-DUO-BS---(50)','159676 PUN-8X1,25-DUO-BS---(50)',(#302));
#301=PRODUCT_CATEGORY('','');
#302=PRODUCT_CONTEXT('',#304,'mechanical');
#303=APPLICATION_PROTOCOL_DEFINITION('international standard',
'automotive_design',2010,#304);
#304=APPLICATION_CONTEXT(
'core data for automotive mechanical design processes');
ENDSEC;
END-ISO-10303-21;
