ISO-10303-21;
HEADER;
/* Generated by software containing ST-Developer
 * from STEP Tools, Inc. (www.steptools.com) 
 */
/* OPTION: using custom renumber hook */

FILE_DESCRIPTION(
/* description */ ('STEP AP214'),
/* implementation_level */ '2;1');

FILE_NAME(
/* name */ '161126_MAP-40-1-1_8-EN',
/* time_stamp */ '2024-08-21T11:54:49+02:00',
/* author */ ('License CC BY-ND 4.0'),
/* organization */ ('CADENAS'),
/* preprocessor_version */ 'ST-DEVELOPER v19.3',
/* originating_system */ 'PARTsolutions',
/* authorisation */ '  ');

FILE_SCHEMA (('AUTOMOTIVE_DESIGN {1 0 10303 214 3 1 1}'));
ENDSEC;

DATA;
#10=PROPERTY_DEFINITION_REPRESENTATION(#14,#12);
#11=PROPERTY_DEFINITION_REPRESENTATION(#15,#13);
#12=REPRESENTATION('',(#16),#481);
#13=REPRESENTATION('',(#17),#481);
#14=PROPERTY_DEFINITION('pmi validation property','',#486);
#15=PROPERTY_DEFINITION('pmi validation property','',#486);
#16=VALUE_REPRESENTATION_ITEM('number of annotations',COUNT_MEASURE(0.));
#17=VALUE_REPRESENTATION_ITEM('number of views',COUNT_MEASURE(0.));
#18=SHAPE_REPRESENTATION_RELATIONSHIP('','',#270,#19);
#19=ADVANCED_BREP_SHAPE_REPRESENTATION('',(#268),#481);
#20=CONICAL_SURFACE('',#299,4.98887816752559,0.0312094049979787);
#21=CONICAL_SURFACE('',#301,4.77034137435581,0.785398163397451);
#22=DEGENERATE_TOROIDAL_SURFACE('',#285,6.02008064647251,8.00000000000013,
 .T.);
#23=DEGENERATE_TOROIDAL_SURFACE('',#287,6.02008064647251,8.00000000000013,
 .T.);
#24=DEGENERATE_TOROIDAL_SURFACE('',#289,6.02008064647251,8.00000000000013,
 .T.);
#25=DEGENERATE_TOROIDAL_SURFACE('',#291,6.02008064647251,8.00000000000013,
 .T.);
#26=CYLINDRICAL_SURFACE('',#282,19.5);
#27=CYLINDRICAL_SURFACE('',#295,5.1);
#28=TOROIDAL_SURFACE('',#280,19.3,0.200000000000003);
#29=TOROIDAL_SURFACE('',#284,16.5,3.00000000000001);
#30=CIRCLE('',#277,16.5);
#31=CIRCLE('',#279,19.3);
#32=CIRCLE('',#281,19.5);
#33=CIRCLE('',#283,19.5);
#34=CIRCLE('',#286,6.99999999999998);
#35=CIRCLE('',#288,6.99999999999998);
#36=CIRCLE('',#290,6.99999999999998);
#37=CIRCLE('',#292,6.99999999999998);
#38=CIRCLE('',#294,5.1);
#39=CIRCLE('',#296,5.1);
#40=CIRCLE('',#298,4.98887816752559);
#41=CIRCLE('',#300,4.77034137435581);
#42=CIRCLE('',#302,3.77034137435581);
#43=LINE('',#387,#51);
#44=LINE('',#389,#52);
#45=LINE('',#391,#53);
#46=LINE('',#405,#54);
#47=LINE('',#407,#55);
#48=LINE('',#421,#56);
#49=LINE('',#423,#57);
#50=LINE('',#437,#58);
#51=VECTOR('',#308,1000.);
#52=VECTOR('',#309,1000.);
#53=VECTOR('',#310,1000.);
#54=VECTOR('',#313,1000.);
#55=VECTOR('',#314,1000.);
#56=VECTOR('',#317,1000.);
#57=VECTOR('',#318,1000.);
#58=VECTOR('',#321,1000.);
#59=ORIENTED_EDGE('',*,*,#117,.F.);
#60=ORIENTED_EDGE('',*,*,#118,.T.);
#61=ORIENTED_EDGE('',*,*,#119,.T.);
#62=ORIENTED_EDGE('',*,*,#120,.F.);
#63=ORIENTED_EDGE('',*,*,#121,.F.);
#64=ORIENTED_EDGE('',*,*,#122,.F.);
#65=ORIENTED_EDGE('',*,*,#120,.T.);
#66=ORIENTED_EDGE('',*,*,#123,.T.);
#67=ORIENTED_EDGE('',*,*,#124,.F.);
#68=ORIENTED_EDGE('',*,*,#125,.F.);
#69=ORIENTED_EDGE('',*,*,#126,.F.);
#70=ORIENTED_EDGE('',*,*,#124,.T.);
#71=ORIENTED_EDGE('',*,*,#127,.T.);
#72=ORIENTED_EDGE('',*,*,#128,.F.);
#73=ORIENTED_EDGE('',*,*,#129,.F.);
#74=ORIENTED_EDGE('',*,*,#130,.F.);
#75=ORIENTED_EDGE('',*,*,#128,.T.);
#76=ORIENTED_EDGE('',*,*,#131,.T.);
#77=ORIENTED_EDGE('',*,*,#118,.F.);
#78=ORIENTED_EDGE('',*,*,#132,.F.);
#79=ORIENTED_EDGE('',*,*,#131,.F.);
#80=ORIENTED_EDGE('',*,*,#127,.F.);
#81=ORIENTED_EDGE('',*,*,#123,.F.);
#82=ORIENTED_EDGE('',*,*,#119,.F.);
#83=ORIENTED_EDGE('',*,*,#133,.T.);
#84=ORIENTED_EDGE('',*,*,#134,.F.);
#85=ORIENTED_EDGE('',*,*,#134,.T.);
#86=ORIENTED_EDGE('',*,*,#135,.F.);
#87=ORIENTED_EDGE('',*,*,#136,.F.);
#88=ORIENTED_EDGE('',*,*,#135,.T.);
#89=ORIENTED_EDGE('',*,*,#136,.T.);
#90=ORIENTED_EDGE('',*,*,#133,.F.);
#91=ORIENTED_EDGE('',*,*,#125,.T.);
#92=ORIENTED_EDGE('',*,*,#126,.T.);
#93=ORIENTED_EDGE('',*,*,#137,.F.);
#94=ORIENTED_EDGE('',*,*,#121,.T.);
#95=ORIENTED_EDGE('',*,*,#122,.T.);
#96=ORIENTED_EDGE('',*,*,#138,.F.);
#97=ORIENTED_EDGE('',*,*,#117,.T.);
#98=ORIENTED_EDGE('',*,*,#139,.F.);
#99=ORIENTED_EDGE('',*,*,#132,.T.);
#100=ORIENTED_EDGE('',*,*,#129,.T.);
#101=ORIENTED_EDGE('',*,*,#130,.T.);
#102=ORIENTED_EDGE('',*,*,#140,.F.);
#103=ORIENTED_EDGE('',*,*,#141,.F.);
#104=ORIENTED_EDGE('',*,*,#137,.T.);
#105=ORIENTED_EDGE('',*,*,#140,.T.);
#106=ORIENTED_EDGE('',*,*,#139,.T.);
#107=ORIENTED_EDGE('',*,*,#138,.T.);
#108=ORIENTED_EDGE('',*,*,#142,.F.);
#109=ORIENTED_EDGE('',*,*,#141,.T.);
#110=ORIENTED_EDGE('',*,*,#143,.F.);
#111=ORIENTED_EDGE('',*,*,#142,.T.);
#112=ORIENTED_EDGE('',*,*,#144,.F.);
#113=ORIENTED_EDGE('',*,*,#143,.T.);
#114=ORIENTED_EDGE('',*,*,#145,.F.);
#115=ORIENTED_EDGE('',*,*,#144,.T.);
#116=ORIENTED_EDGE('',*,*,#145,.T.);
#117=EDGE_CURVE('',#146,#147,#167,.T.);
#118=EDGE_CURVE('',#146,#148,#43,.T.);
#119=EDGE_CURVE('',#148,#149,#44,.T.);
#120=EDGE_CURVE('',#150,#149,#45,.T.);
#121=EDGE_CURVE('',#147,#150,#168,.T.);
#122=EDGE_CURVE('',#150,#151,#169,.T.);
#123=EDGE_CURVE('',#149,#152,#46,.T.);
#124=EDGE_CURVE('',#153,#152,#47,.T.);
#125=EDGE_CURVE('',#151,#153,#170,.T.);
#126=EDGE_CURVE('',#153,#154,#171,.T.);
#127=EDGE_CURVE('',#152,#155,#48,.T.);
#128=EDGE_CURVE('',#156,#155,#49,.T.);
#129=EDGE_CURVE('',#154,#156,#172,.T.);
#130=EDGE_CURVE('',#156,#157,#173,.T.);
#131=EDGE_CURVE('',#155,#148,#50,.T.);
#132=EDGE_CURVE('',#157,#146,#174,.T.);
#133=EDGE_CURVE('',#158,#158,#30,.T.);
#134=EDGE_CURVE('',#159,#159,#31,.T.);
#135=EDGE_CURVE('',#160,#160,#32,.T.);
#136=EDGE_CURVE('',#161,#161,#33,.T.);
#137=EDGE_CURVE('',#151,#154,#34,.T.);
#138=EDGE_CURVE('',#147,#151,#35,.T.);
#139=EDGE_CURVE('',#157,#147,#36,.T.);
#140=EDGE_CURVE('',#154,#157,#37,.T.);
#141=EDGE_CURVE('',#162,#162,#38,.T.);
#142=EDGE_CURVE('',#163,#163,#39,.T.);
#143=EDGE_CURVE('',#164,#164,#40,.T.);
#144=EDGE_CURVE('',#165,#165,#41,.T.);
#145=EDGE_CURVE('',#166,#166,#42,.T.);
#146=VERTEX_POINT('',#385);
#147=VERTEX_POINT('',#386);
#148=VERTEX_POINT('',#388);
#149=VERTEX_POINT('',#390);
#150=VERTEX_POINT('',#392);
#151=VERTEX_POINT('',#404);
#152=VERTEX_POINT('',#406);
#153=VERTEX_POINT('',#408);
#154=VERTEX_POINT('',#420);
#155=VERTEX_POINT('',#422);
#156=VERTEX_POINT('',#424);
#157=VERTEX_POINT('',#436);
#158=VERTEX_POINT('',#445);
#159=VERTEX_POINT('',#448);
#160=VERTEX_POINT('',#451);
#161=VERTEX_POINT('',#454);
#162=VERTEX_POINT('',#466);
#163=VERTEX_POINT('',#469);
#164=VERTEX_POINT('',#472);
#165=VERTEX_POINT('',#475);
#166=VERTEX_POINT('',#478);
#167=B_SPLINE_CURVE_WITH_KNOTS('',3,(#380,#381,#382,#383,#384),
 .UNSPECIFIED.,.F.,.F.,(4,1,4),(0.018721479254569,0.0222949005907433,0.0258683219269175),
 .UNSPECIFIED.);
#168=B_SPLINE_CURVE_WITH_KNOTS('',3,(#393,#394,#395,#396,#397),
 .UNSPECIFIED.,.F.,.F.,(4,1,4),(0.0258683219269175,0.0294388248359259,0.0330093277449344),
 .UNSPECIFIED.);
#169=B_SPLINE_CURVE_WITH_KNOTS('',3,(#399,#400,#401,#402,#403),
 .UNSPECIFIED.,.F.,.F.,(4,1,4),(0.0187214792545691,0.0222949005907433,0.0258683219269175),
 .UNSPECIFIED.);
#170=B_SPLINE_CURVE_WITH_KNOTS('',3,(#409,#410,#411,#412,#413),
 .UNSPECIFIED.,.F.,.F.,(4,1,4),(0.0258683219269175,0.0294388248359259,0.0330093277449344),
 .UNSPECIFIED.);
#171=B_SPLINE_CURVE_WITH_KNOTS('',3,(#415,#416,#417,#418,#419),
 .UNSPECIFIED.,.F.,.F.,(4,1,4),(0.0187214792545691,0.0222949005907433,0.0258683219269175),
 .UNSPECIFIED.);
#172=B_SPLINE_CURVE_WITH_KNOTS('',3,(#425,#426,#427,#428,#429),
 .UNSPECIFIED.,.F.,.F.,(4,1,4),(0.0258683219269175,0.0294388248359259,0.0330093277449344),
 .UNSPECIFIED.);
#173=B_SPLINE_CURVE_WITH_KNOTS('',3,(#431,#432,#433,#434,#435),
 .UNSPECIFIED.,.F.,.F.,(4,1,4),(0.0187214792545691,0.0222949005907433,0.0258683219269175),
 .UNSPECIFIED.);
#174=B_SPLINE_CURVE_WITH_KNOTS('',3,(#438,#439,#440,#441,#442),
 .UNSPECIFIED.,.F.,.F.,(4,1,4),(0.0258683219269175,0.029438824835926,0.0330093277449345),
 .UNSPECIFIED.);
#175=EDGE_LOOP('',(#59,#60,#61,#62,#63));
#176=EDGE_LOOP('',(#64,#65,#66,#67,#68));
#177=EDGE_LOOP('',(#69,#70,#71,#72,#73));
#178=EDGE_LOOP('',(#74,#75,#76,#77,#78));
#179=EDGE_LOOP('',(#79,#80,#81,#82));
#180=EDGE_LOOP('',(#83));
#181=EDGE_LOOP('',(#84));
#182=EDGE_LOOP('',(#85));
#183=EDGE_LOOP('',(#86));
#184=EDGE_LOOP('',(#87));
#185=EDGE_LOOP('',(#88));
#186=EDGE_LOOP('',(#89));
#187=EDGE_LOOP('',(#90));
#188=EDGE_LOOP('',(#91,#92,#93));
#189=EDGE_LOOP('',(#94,#95,#96));
#190=EDGE_LOOP('',(#97,#98,#99));
#191=EDGE_LOOP('',(#100,#101,#102));
#192=EDGE_LOOP('',(#103));
#193=EDGE_LOOP('',(#104,#105,#106,#107));
#194=EDGE_LOOP('',(#108));
#195=EDGE_LOOP('',(#109));
#196=EDGE_LOOP('',(#110));
#197=EDGE_LOOP('',(#111));
#198=EDGE_LOOP('',(#112));
#199=EDGE_LOOP('',(#113));
#200=EDGE_LOOP('',(#114));
#201=EDGE_LOOP('',(#115));
#202=EDGE_LOOP('',(#116));
#203=FACE_BOUND('',#175,.T.);
#204=FACE_BOUND('',#176,.T.);
#205=FACE_BOUND('',#177,.T.);
#206=FACE_BOUND('',#178,.T.);
#207=FACE_BOUND('',#179,.T.);
#208=FACE_BOUND('',#180,.T.);
#209=FACE_BOUND('',#181,.T.);
#210=FACE_BOUND('',#182,.T.);
#211=FACE_BOUND('',#183,.T.);
#212=FACE_BOUND('',#184,.T.);
#213=FACE_BOUND('',#185,.T.);
#214=FACE_BOUND('',#186,.T.);
#215=FACE_BOUND('',#187,.T.);
#216=FACE_BOUND('',#188,.T.);
#217=FACE_BOUND('',#189,.T.);
#218=FACE_BOUND('',#190,.T.);
#219=FACE_BOUND('',#191,.T.);
#220=FACE_BOUND('',#192,.T.);
#221=FACE_BOUND('',#193,.T.);
#222=FACE_BOUND('',#194,.T.);
#223=FACE_BOUND('',#195,.T.);
#224=FACE_BOUND('',#196,.T.);
#225=FACE_BOUND('',#197,.T.);
#226=FACE_BOUND('',#198,.T.);
#227=FACE_BOUND('',#199,.T.);
#228=FACE_BOUND('',#200,.T.);
#229=FACE_BOUND('',#201,.T.);
#230=FACE_BOUND('',#202,.T.);
#231=PLANE('',#272);
#232=PLANE('',#273);
#233=PLANE('',#274);
#234=PLANE('',#275);
#235=PLANE('',#276);
#236=PLANE('',#278);
#237=PLANE('',#293);
#238=PLANE('',#297);
#239=PLANE('',#303);
#240=ADVANCED_FACE('',(#203),#231,.F.);
#241=ADVANCED_FACE('',(#204),#232,.F.);
#242=ADVANCED_FACE('',(#205),#233,.F.);
#243=ADVANCED_FACE('',(#206),#234,.F.);
#244=ADVANCED_FACE('',(#207,#208),#235,.F.);
#245=ADVANCED_FACE('',(#209),#236,.F.);
#246=ADVANCED_FACE('',(#210,#211),#28,.T.);
#247=ADVANCED_FACE('',(#212,#213),#26,.T.);
#248=ADVANCED_FACE('',(#214,#215),#29,.T.);
#249=ADVANCED_FACE('',(#216),#22,.T.);
#250=ADVANCED_FACE('',(#217),#23,.T.);
#251=ADVANCED_FACE('',(#218),#24,.T.);
#252=ADVANCED_FACE('',(#219),#25,.T.);
#253=ADVANCED_FACE('',(#220,#221),#237,.T.);
#254=ADVANCED_FACE('',(#222,#223),#27,.T.);
#255=ADVANCED_FACE('',(#224,#225),#238,.F.);
#256=ADVANCED_FACE('',(#226,#227),#20,.T.);
#257=ADVANCED_FACE('',(#228,#229),#21,.T.);
#258=ADVANCED_FACE('',(#230),#239,.F.);
#259=CLOSED_SHELL('',(#240,#241,#242,#243,#244,#245,#246,#247,#248,#249,
#250,#251,#252,#253,#254,#255,#256,#257,#258));
#260=STYLED_ITEM('',(#261),#268);
#261=PRESENTATION_STYLE_ASSIGNMENT((#262));
#262=SURFACE_STYLE_USAGE(.BOTH.,#263);
#263=SURFACE_SIDE_STYLE('',(#264));
#264=SURFACE_STYLE_FILL_AREA(#265);
#265=FILL_AREA_STYLE('',(#266));
#266=FILL_AREA_STYLE_COLOUR('',#267);
#267=COLOUR_RGB('',0.689999997615814,0.689999997615814,0.689999997615814);
#268=MANIFOLD_SOLID_BREP('161126 MAP-40-1-1/8-EN',#259);
#269=SHAPE_DEFINITION_REPRESENTATION(#486,#270);
#270=SHAPE_REPRESENTATION('161126 MAP-40-1-1/8-EN',(#271),#481);
#271=AXIS2_PLACEMENT_3D('',#378,#304,#305);
#272=AXIS2_PLACEMENT_3D('',#379,#306,#307);
#273=AXIS2_PLACEMENT_3D('',#398,#311,#312);
#274=AXIS2_PLACEMENT_3D('',#414,#315,#316);
#275=AXIS2_PLACEMENT_3D('',#430,#319,#320);
#276=AXIS2_PLACEMENT_3D('',#443,#322,#323);
#277=AXIS2_PLACEMENT_3D('',#444,#324,#325);
#278=AXIS2_PLACEMENT_3D('',#446,#326,#327);
#279=AXIS2_PLACEMENT_3D('',#447,#328,#329);
#280=AXIS2_PLACEMENT_3D('',#449,#330,#331);
#281=AXIS2_PLACEMENT_3D('',#450,#332,#333);
#282=AXIS2_PLACEMENT_3D('',#452,#334,#335);
#283=AXIS2_PLACEMENT_3D('',#453,#336,#337);
#284=AXIS2_PLACEMENT_3D('',#455,#338,#339);
#285=AXIS2_PLACEMENT_3D('',#456,#340,#341);
#286=AXIS2_PLACEMENT_3D('',#457,#342,#343);
#287=AXIS2_PLACEMENT_3D('',#458,#344,#345);
#288=AXIS2_PLACEMENT_3D('',#459,#346,#347);
#289=AXIS2_PLACEMENT_3D('',#460,#348,#349);
#290=AXIS2_PLACEMENT_3D('',#461,#350,#351);
#291=AXIS2_PLACEMENT_3D('',#462,#352,#353);
#292=AXIS2_PLACEMENT_3D('',#463,#354,#355);
#293=AXIS2_PLACEMENT_3D('',#464,#356,#357);
#294=AXIS2_PLACEMENT_3D('',#465,#358,#359);
#295=AXIS2_PLACEMENT_3D('',#467,#360,#361);
#296=AXIS2_PLACEMENT_3D('',#468,#362,#363);
#297=AXIS2_PLACEMENT_3D('',#470,#364,#365);
#298=AXIS2_PLACEMENT_3D('',#471,#366,#367);
#299=AXIS2_PLACEMENT_3D('',#473,#368,#369);
#300=AXIS2_PLACEMENT_3D('',#474,#370,#371);
#301=AXIS2_PLACEMENT_3D('',#476,#372,#373);
#302=AXIS2_PLACEMENT_3D('',#477,#374,#375);
#303=AXIS2_PLACEMENT_3D('',#479,#376,#377);
#304=DIRECTION('',(0.,0.,1.));
#305=DIRECTION('',(1.,0.,0.));
#306=DIRECTION('',(0.,0.,-1.));
#307=DIRECTION('',(-1.,0.,0.));
#308=DIRECTION('',(-1.,0.,0.));
#309=DIRECTION('',(0.,-1.,0.));
#310=DIRECTION('',(-1.,0.,0.));
#311=DIRECTION('',(0.,1.,0.));
#312=DIRECTION('',(0.,0.,1.));
#313=DIRECTION('',(0.,0.,-1.));
#314=DIRECTION('',(-1.,0.,0.));
#315=DIRECTION('',(0.,0.,1.));
#316=DIRECTION('',(1.,0.,0.));
#317=DIRECTION('',(0.,1.,0.));
#318=DIRECTION('',(-1.,0.,0.));
#319=DIRECTION('',(0.,-1.,0.));
#320=DIRECTION('',(0.,0.,-1.));
#321=DIRECTION('',(0.,0.,1.));
#322=DIRECTION('',(-1.,0.,0.));
#323=DIRECTION('',(0.,0.,1.));
#324=DIRECTION('',(1.,0.,0.));
#325=DIRECTION('',(0.,0.,-1.));
#326=DIRECTION('',(1.,0.,0.));
#327=DIRECTION('',(0.,0.,-1.));
#328=DIRECTION('',(1.,0.,0.));
#329=DIRECTION('',(0.,0.,-1.));
#330=DIRECTION('',(1.,0.,0.));
#331=DIRECTION('',(0.,0.,-1.));
#332=DIRECTION('',(1.,0.,0.));
#333=DIRECTION('',(0.,0.,-1.));
#334=DIRECTION('',(1.,0.,0.));
#335=DIRECTION('',(0.,0.,-1.));
#336=DIRECTION('',(1.,0.,0.));
#337=DIRECTION('',(0.,0.,-1.));
#338=DIRECTION('',(1.,0.,0.));
#339=DIRECTION('',(0.,0.,-1.));
#340=DIRECTION('',(1.,0.,0.));
#341=DIRECTION('',(0.,0.,-1.));
#342=DIRECTION('',(1.,0.,0.));
#343=DIRECTION('',(0.,0.,-1.));
#344=DIRECTION('',(1.,0.,0.));
#345=DIRECTION('',(0.,0.,-1.));
#346=DIRECTION('',(1.,0.,0.));
#347=DIRECTION('',(0.,0.,-1.));
#348=DIRECTION('',(1.,0.,0.));
#349=DIRECTION('',(0.,0.,-1.));
#350=DIRECTION('',(1.,0.,0.));
#351=DIRECTION('',(0.,0.,-1.));
#352=DIRECTION('',(1.,0.,0.));
#353=DIRECTION('',(0.,0.,-1.));
#354=DIRECTION('',(1.,0.,0.));
#355=DIRECTION('',(0.,0.,-1.));
#356=DIRECTION('',(1.,0.,0.));
#357=DIRECTION('',(0.,0.,-1.));
#358=DIRECTION('',(1.,0.,0.));
#359=DIRECTION('',(0.,0.,-1.));
#360=DIRECTION('',(1.,0.,0.));
#361=DIRECTION('',(0.,0.,-1.));
#362=DIRECTION('',(1.,0.,0.));
#363=DIRECTION('',(0.,0.,-1.));
#364=DIRECTION('',(-1.,0.,0.));
#365=DIRECTION('',(0.,0.,1.));
#366=DIRECTION('',(1.,0.,0.));
#367=DIRECTION('',(0.,0.,-1.));
#368=DIRECTION('',(-1.,0.,0.));
#369=DIRECTION('',(0.,0.,1.));
#370=DIRECTION('',(1.,0.,0.));
#371=DIRECTION('',(0.,0.,-1.));
#372=DIRECTION('',(-1.,0.,0.));
#373=DIRECTION('',(0.,0.,1.));
#374=DIRECTION('',(1.,0.,0.));
#375=DIRECTION('',(0.,0.,-1.));
#376=DIRECTION('',(-1.,0.,0.));
#377=DIRECTION('',(0.,0.,1.));
#378=CARTESIAN_POINT('',(0.,0.,0.));
#379=CARTESIAN_POINT('',(34.,7.,7.));
#380=CARTESIAN_POINT('',(33.0566799449648,7.00000000000002,7.));
#381=CARTESIAN_POINT('',(33.4897704598038,5.89540137271765,7.));
#382=CARTESIAN_POINT('',(33.9560597178136,3.52549351447291,7.));
#383=CARTESIAN_POINT('',(34.,1.17676658762682,7.));
#384=CARTESIAN_POINT('',(34.,8.42164080970414E-15,7.));
#385=CARTESIAN_POINT('',(33.0566799449647,7.,7.00000000000013));
#386=CARTESIAN_POINT('',(34.,0.,6.99999999999998));
#387=CARTESIAN_POINT('',(34.,7.,7.));
#388=CARTESIAN_POINT('',(26.,7.,7.));
#389=CARTESIAN_POINT('',(26.,7.,7.));
#390=CARTESIAN_POINT('',(26.,-7.,7.));
#391=CARTESIAN_POINT('',(34.,-7.,7.));
#392=CARTESIAN_POINT('',(33.0566799449648,-7.,7.));
#393=CARTESIAN_POINT('',(34.,2.35277726120689E-15,7.));
#394=CARTESIAN_POINT('',(34.,-1.17580551775733,7.));
#395=CARTESIAN_POINT('',(33.9558912862398,-3.52075352978338,7.));
#396=CARTESIAN_POINT('',(33.4917302174179,-5.89040300517969,7.));
#397=CARTESIAN_POINT('',(33.0566799449648,-7.00000000000001,7.));
#398=CARTESIAN_POINT('',(34.,-7.,7.));
#399=CARTESIAN_POINT('',(33.0566799449648,-7.,7.));
#400=CARTESIAN_POINT('',(33.4897704598038,-7.,5.89540137271763));
#401=CARTESIAN_POINT('',(33.9560597178136,-7.,3.5254935144729));
#402=CARTESIAN_POINT('',(34.,-7.,1.17676658762682));
#403=CARTESIAN_POINT('',(34.,-7.,1.21443902545988E-14));
#404=CARTESIAN_POINT('',(34.,-6.99999999999998,0.));
#405=CARTESIAN_POINT('',(26.,-7.,7.));
#406=CARTESIAN_POINT('',(26.,-7.,-7.));
#407=CARTESIAN_POINT('',(34.,-7.,-7.));
#408=CARTESIAN_POINT('',(33.0566799449648,-7.,-7.));
#409=CARTESIAN_POINT('',(34.,-7.,1.7389652002901E-15));
#410=CARTESIAN_POINT('',(34.,-7.,-1.17580551775733));
#411=CARTESIAN_POINT('',(33.9558912862398,-7.,-3.52075352978338));
#412=CARTESIAN_POINT('',(33.4917302174179,-7.,-5.8904030051797));
#413=CARTESIAN_POINT('',(33.0566799449648,-7.,-7.00000000000001));
#414=CARTESIAN_POINT('',(34.,-7.,-7.));
#415=CARTESIAN_POINT('',(33.0566799449648,-7.,-7.));
#416=CARTESIAN_POINT('',(33.4897704598038,-5.89540137271763,-7.));
#417=CARTESIAN_POINT('',(33.9560597178136,-3.5254935144729,-7.));
#418=CARTESIAN_POINT('',(34.,-1.17676658762682,-7.));
#419=CARTESIAN_POINT('',(34.,-1.27584494996462E-14,-7.));
#420=CARTESIAN_POINT('',(34.,0.,-6.99999999999998));
#421=CARTESIAN_POINT('',(26.,-7.,-7.));
#422=CARTESIAN_POINT('',(26.,7.,-7.));
#423=CARTESIAN_POINT('',(34.,7.,-7.));
#424=CARTESIAN_POINT('',(33.0566799449648,7.,-7.));
#425=CARTESIAN_POINT('',(34.,-2.35277726120689E-15,-7.));
#426=CARTESIAN_POINT('',(34.,1.17580551775733,-7.));
#427=CARTESIAN_POINT('',(33.9558912862398,3.52075352978338,-7.));
#428=CARTESIAN_POINT('',(33.4917302174179,5.89040300517969,-7.));
#429=CARTESIAN_POINT('',(33.0566799449648,7.00000000000001,-7.));
#430=CARTESIAN_POINT('',(34.,7.,-7.));
#431=CARTESIAN_POINT('',(33.0566799449648,7.,-7.));
#432=CARTESIAN_POINT('',(33.4897704598038,7.,-5.89540137271763));
#433=CARTESIAN_POINT('',(33.9560597178136,7.,-3.5254935144729));
#434=CARTESIAN_POINT('',(34.,7.,-1.17676658762682));
#435=CARTESIAN_POINT('',(34.,7.,-1.42381300962382E-14));
#436=CARTESIAN_POINT('',(34.,7.,0.));
#437=CARTESIAN_POINT('',(26.,7.,0.));
#438=CARTESIAN_POINT('',(34.,7.,-3.63236249340294E-16));
#439=CARTESIAN_POINT('',(34.,7.,1.17580551775735));
#440=CARTESIAN_POINT('',(33.9558912862398,7.,3.52075352978343));
#441=CARTESIAN_POINT('',(33.4917302174178,7.,5.8904030051798));
#442=CARTESIAN_POINT('',(33.0566799449647,7.,7.00000000000013));
#443=CARTESIAN_POINT('',(26.,16.5,0.));
#444=CARTESIAN_POINT('',(26.,0.,0.));
#445=CARTESIAN_POINT('',(26.,0.,-16.5));
#446=CARTESIAN_POINT('',(0.,0.,0.));
#447=CARTESIAN_POINT('',(0.,0.,0.));
#448=CARTESIAN_POINT('',(0.,0.,-19.3));
#449=CARTESIAN_POINT('',(0.200000000000003,0.,0.));
#450=CARTESIAN_POINT('',(0.199999999999999,0.,0.));
#451=CARTESIAN_POINT('',(0.199999999999999,0.,-19.5));
#452=CARTESIAN_POINT('',(26.,0.,0.));
#453=CARTESIAN_POINT('',(23.,0.,0.));
#454=CARTESIAN_POINT('',(23.,0.,-19.5));
#455=CARTESIAN_POINT('',(23.,0.,0.));
#456=CARTESIAN_POINT('',(26.0602419394175,0.,0.));
#457=CARTESIAN_POINT('',(34.,0.,0.));
#458=CARTESIAN_POINT('',(26.0602419394175,0.,0.));
#459=CARTESIAN_POINT('',(34.,0.,0.));
#460=CARTESIAN_POINT('',(26.0602419394175,0.,0.));
#461=CARTESIAN_POINT('',(34.,0.,0.));
#462=CARTESIAN_POINT('',(26.0602419394175,0.,0.));
#463=CARTESIAN_POINT('',(34.,0.,0.));
#464=CARTESIAN_POINT('',(34.,0.,0.));
#465=CARTESIAN_POINT('',(34.,0.,0.));
#466=CARTESIAN_POINT('',(34.,0.,-5.1));
#467=CARTESIAN_POINT('',(44.,0.,0.));
#468=CARTESIAN_POINT('',(36.,0.,0.));
#469=CARTESIAN_POINT('',(36.,0.,-5.1));
#470=CARTESIAN_POINT('',(36.,5.1,0.));
#471=CARTESIAN_POINT('',(36.,0.,0.));
#472=CARTESIAN_POINT('',(36.,0.,-4.98887816752559));
#473=CARTESIAN_POINT('',(36.,0.,0.));
#474=CARTESIAN_POINT('',(43.,0.,0.));
#475=CARTESIAN_POINT('',(43.,0.,-4.77034137435581));
#476=CARTESIAN_POINT('',(43.,0.,0.));
#477=CARTESIAN_POINT('',(44.,0.,0.));
#478=CARTESIAN_POINT('',(44.,0.,-3.77034137435581));
#479=CARTESIAN_POINT('',(44.,3.77034137435581,0.));
#480=MECHANICAL_DESIGN_GEOMETRIC_PRESENTATION_REPRESENTATION('',(#260),
#481);
#481=(
GEOMETRIC_REPRESENTATION_CONTEXT(3)
GLOBAL_UNCERTAINTY_ASSIGNED_CONTEXT((#482))
GLOBAL_UNIT_ASSIGNED_CONTEXT((#485,#484,#483))
REPRESENTATION_CONTEXT('161126 MAP-40-1-1/8-EN',
'TOP_LEVEL_ASSEMBLY_PART')
);
#482=UNCERTAINTY_MEASURE_WITH_UNIT(LENGTH_MEASURE(0.005),#485,
'DISTANCE_ACCURACY_VALUE','Maximum Tolerance applied to model');
#483=(
NAMED_UNIT(*)
SI_UNIT($,.STERADIAN.)
SOLID_ANGLE_UNIT()
);
#484=(
NAMED_UNIT(*)
PLANE_ANGLE_UNIT()
SI_UNIT($,.RADIAN.)
);
#485=(
LENGTH_UNIT()
NAMED_UNIT(*)
SI_UNIT(.MILLI.,.METRE.)
);
#486=PRODUCT_DEFINITION_SHAPE('','',#487);
#487=PRODUCT_DEFINITION('','',#489,#488);
#488=PRODUCT_DEFINITION_CONTEXT('',#495,'design');
#489=PRODUCT_DEFINITION_FORMATION_WITH_SPECIFIED_SOURCE('','',#491,
 .NOT_KNOWN.);
#490=PRODUCT_RELATED_PRODUCT_CATEGORY('','',(#491));
#491=PRODUCT('161126 MAP-40-1-1/8-EN','161126 MAP-40-1-1/8-EN',
'161126 MAP-40-1-1/8-EN',(#493));
#492=PRODUCT_CATEGORY('','');
#493=PRODUCT_CONTEXT('',#495,'mechanical');
#494=APPLICATION_PROTOCOL_DEFINITION('international standard',
'automotive_design',2010,#495);
#495=APPLICATION_CONTEXT(
'core data for automotive mechanical design processes');
ENDSEC;
END-ISO-10303-21;
