ISO-10303-21;
HEADER;
/* Generated by software containing ST-Developer
 * from STEP Tools, Inc. (www.steptools.com) 
 */
/* OPTION: using custom renumber hook */

FILE_DESCRIPTION(
/* description */ ('STEP AP214'),
/* implementation_level */ '2;1');

FILE_NAME(
/* name */ '161859_CRFV-40',
/* time_stamp */ '2024-08-01T14:21:33+02:00',
/* author */ ('License CC BY-ND 4.0'),
/* organization */ ('CADENAS'),
/* preprocessor_version */ 'ST-DEVELOPER v19.3',
/* originating_system */ 'PARTsolutions',
/* authorisation */ '  ');

FILE_SCHEMA (('AUTOMOTIVE_DESIGN {1 0 10303 214 3 1 1}'));
ENDSEC;

DATA;
#10=PROPERTY_DEFINITION_REPRESENTATION(#14,#12);
#11=PROPERTY_DEFINITION_REPRESENTATION(#15,#13);
#12=REPRESENTATION('',(#16),#699);
#13=REPRESENTATION('',(#17),#699);
#14=PROPERTY_DEFINITION('pmi validation property','',#704);
#15=PROPERTY_DEFINITION('pmi validation property','',#704);
#16=VALUE_REPRESENTATION_ITEM('number of annotations',COUNT_MEASURE(0.));
#17=VALUE_REPRESENTATION_ITEM('number of views',COUNT_MEASURE(0.));
#18=SHAPE_REPRESENTATION_RELATIONSHIP('','',#419,#19);
#19=ADVANCED_BREP_SHAPE_REPRESENTATION('',(#417),#699);
#20=CYLINDRICAL_SURFACE('',#443,8.);
#21=CYLINDRICAL_SURFACE('',#455,3.);
#22=CYLINDRICAL_SURFACE('',#457,10.);
#23=CYLINDRICAL_SURFACE('',#458,10.);
#24=CYLINDRICAL_SURFACE('',#459,10.);
#25=CYLINDRICAL_SURFACE('',#460,10.);
#26=CYLINDRICAL_SURFACE('',#461,19.05);
#27=CYLINDRICAL_SURFACE('',#462,4.5);
#28=CYLINDRICAL_SURFACE('',#463,4.5);
#29=CYLINDRICAL_SURFACE('',#464,4.5);
#30=CYLINDRICAL_SURFACE('',#465,4.5);
#31=CYLINDRICAL_SURFACE('',#466,4.5);
#32=CYLINDRICAL_SURFACE('',#467,4.5);
#33=CIRCLE('',#422,3.);
#34=CIRCLE('',#423,8.);
#35=CIRCLE('',#425,8.);
#36=CIRCLE('',#426,3.);
#37=CIRCLE('',#428,4.5);
#38=CIRCLE('',#429,4.5);
#39=CIRCLE('',#430,4.5);
#40=CIRCLE('',#431,4.5);
#41=CIRCLE('',#432,19.05);
#42=CIRCLE('',#433,10.);
#43=CIRCLE('',#434,10.);
#44=CIRCLE('',#436,4.5);
#45=CIRCLE('',#437,4.5);
#46=CIRCLE('',#438,4.5);
#47=CIRCLE('',#439,4.5);
#48=CIRCLE('',#440,19.05);
#49=CIRCLE('',#441,10.);
#50=CIRCLE('',#442,10.);
#51=CIRCLE('',#445,4.5);
#52=CIRCLE('',#446,4.5);
#53=CIRCLE('',#447,10.);
#54=CIRCLE('',#448,10.);
#55=CIRCLE('',#451,4.5);
#56=CIRCLE('',#452,4.5);
#57=CIRCLE('',#453,10.);
#58=CIRCLE('',#454,10.);
#59=ORIENTED_EDGE('',*,*,#159,.T.);
#60=ORIENTED_EDGE('',*,*,#160,.F.);
#61=ORIENTED_EDGE('',*,*,#161,.T.);
#62=ORIENTED_EDGE('',*,*,#162,.F.);
#63=ORIENTED_EDGE('',*,*,#163,.T.);
#64=ORIENTED_EDGE('',*,*,#164,.F.);
#65=ORIENTED_EDGE('',*,*,#165,.T.);
#66=ORIENTED_EDGE('',*,*,#166,.T.);
#67=ORIENTED_EDGE('',*,*,#167,.T.);
#68=ORIENTED_EDGE('',*,*,#168,.F.);
#69=ORIENTED_EDGE('',*,*,#169,.F.);
#70=ORIENTED_EDGE('',*,*,#170,.F.);
#71=ORIENTED_EDGE('',*,*,#171,.T.);
#72=ORIENTED_EDGE('',*,*,#172,.F.);
#73=ORIENTED_EDGE('',*,*,#173,.T.);
#74=ORIENTED_EDGE('',*,*,#174,.F.);
#75=ORIENTED_EDGE('',*,*,#175,.F.);
#76=ORIENTED_EDGE('',*,*,#176,.F.);
#77=ORIENTED_EDGE('',*,*,#177,.F.);
#78=ORIENTED_EDGE('',*,*,#178,.F.);
#79=ORIENTED_EDGE('',*,*,#179,.F.);
#80=ORIENTED_EDGE('',*,*,#165,.F.);
#81=ORIENTED_EDGE('',*,*,#180,.T.);
#82=ORIENTED_EDGE('',*,*,#181,.T.);
#83=ORIENTED_EDGE('',*,*,#182,.T.);
#84=ORIENTED_EDGE('',*,*,#170,.T.);
#85=ORIENTED_EDGE('',*,*,#183,.F.);
#86=ORIENTED_EDGE('',*,*,#184,.F.);
#87=ORIENTED_EDGE('',*,*,#185,.F.);
#88=ORIENTED_EDGE('',*,*,#186,.F.);
#89=ORIENTED_EDGE('',*,*,#187,.F.);
#90=ORIENTED_EDGE('',*,*,#188,.F.);
#91=ORIENTED_EDGE('',*,*,#189,.F.);
#92=ORIENTED_EDGE('',*,*,#190,.T.);
#93=ORIENTED_EDGE('',*,*,#163,.F.);
#94=ORIENTED_EDGE('',*,*,#191,.T.);
#95=ORIENTED_EDGE('',*,*,#172,.T.);
#96=ORIENTED_EDGE('',*,*,#192,.T.);
#97=ORIENTED_EDGE('',*,*,#169,.T.);
#98=ORIENTED_EDGE('',*,*,#193,.F.);
#99=ORIENTED_EDGE('',*,*,#166,.F.);
#100=ORIENTED_EDGE('',*,*,#183,.T.);
#101=ORIENTED_EDGE('',*,*,#194,.F.);
#102=ORIENTED_EDGE('',*,*,#195,.F.);
#103=ORIENTED_EDGE('',*,*,#168,.T.);
#104=ORIENTED_EDGE('',*,*,#196,.T.);
#105=ORIENTED_EDGE('',*,*,#197,.F.);
#106=ORIENTED_EDGE('',*,*,#198,.T.);
#107=ORIENTED_EDGE('',*,*,#159,.F.);
#108=ORIENTED_EDGE('',*,*,#193,.T.);
#109=ORIENTED_EDGE('',*,*,#197,.T.);
#110=ORIENTED_EDGE('',*,*,#199,.T.);
#111=ORIENTED_EDGE('',*,*,#200,.F.);
#112=ORIENTED_EDGE('',*,*,#201,.T.);
#113=ORIENTED_EDGE('',*,*,#202,.F.);
#114=ORIENTED_EDGE('',*,*,#203,.F.);
#115=ORIENTED_EDGE('',*,*,#200,.T.);
#116=ORIENTED_EDGE('',*,*,#204,.T.);
#117=ORIENTED_EDGE('',*,*,#174,.T.);
#118=ORIENTED_EDGE('',*,*,#205,.F.);
#119=ORIENTED_EDGE('',*,*,#161,.F.);
#120=ORIENTED_EDGE('',*,*,#206,.T.);
#121=ORIENTED_EDGE('',*,*,#173,.F.);
#122=ORIENTED_EDGE('',*,*,#191,.F.);
#123=ORIENTED_EDGE('',*,*,#162,.T.);
#124=ORIENTED_EDGE('',*,*,#205,.T.);
#125=ORIENTED_EDGE('',*,*,#181,.F.);
#126=ORIENTED_EDGE('',*,*,#207,.T.);
#127=ORIENTED_EDGE('',*,*,#189,.T.);
#128=ORIENTED_EDGE('',*,*,#208,.T.);
#129=ORIENTED_EDGE('',*,*,#192,.F.);
#130=ORIENTED_EDGE('',*,*,#171,.F.);
#131=ORIENTED_EDGE('',*,*,#182,.F.);
#132=ORIENTED_EDGE('',*,*,#208,.F.);
#133=ORIENTED_EDGE('',*,*,#180,.F.);
#134=ORIENTED_EDGE('',*,*,#164,.T.);
#135=ORIENTED_EDGE('',*,*,#190,.F.);
#136=ORIENTED_EDGE('',*,*,#207,.F.);
#137=ORIENTED_EDGE('',*,*,#167,.F.);
#138=ORIENTED_EDGE('',*,*,#204,.F.);
#139=ORIENTED_EDGE('',*,*,#199,.F.);
#140=ORIENTED_EDGE('',*,*,#196,.F.);
#141=ORIENTED_EDGE('',*,*,#201,.F.);
#142=ORIENTED_EDGE('',*,*,#206,.F.);
#143=ORIENTED_EDGE('',*,*,#160,.T.);
#144=ORIENTED_EDGE('',*,*,#198,.F.);
#145=ORIENTED_EDGE('',*,*,#188,.T.);
#146=ORIENTED_EDGE('',*,*,#179,.T.);
#147=ORIENTED_EDGE('',*,*,#187,.T.);
#148=ORIENTED_EDGE('',*,*,#178,.T.);
#149=ORIENTED_EDGE('',*,*,#186,.T.);
#150=ORIENTED_EDGE('',*,*,#177,.T.);
#151=ORIENTED_EDGE('',*,*,#185,.T.);
#152=ORIENTED_EDGE('',*,*,#176,.T.);
#153=ORIENTED_EDGE('',*,*,#184,.T.);
#154=ORIENTED_EDGE('',*,*,#175,.T.);
#155=ORIENTED_EDGE('',*,*,#203,.T.);
#156=ORIENTED_EDGE('',*,*,#195,.T.);
#157=ORIENTED_EDGE('',*,*,#202,.T.);
#158=ORIENTED_EDGE('',*,*,#194,.T.);
#159=EDGE_CURVE('',#209,#210,#247,.T.);
#160=EDGE_CURVE('',#211,#210,#248,.T.);
#161=EDGE_CURVE('',#211,#212,#249,.T.);
#162=EDGE_CURVE('',#213,#212,#33,.T.);
#163=EDGE_CURVE('',#213,#214,#250,.T.);
#164=EDGE_CURVE('',#215,#214,#251,.F.);
#165=EDGE_CURVE('',#215,#216,#252,.T.);
#166=EDGE_CURVE('',#216,#209,#34,.T.);
#167=EDGE_CURVE('',#217,#218,#253,.T.);
#168=EDGE_CURVE('',#219,#218,#254,.T.);
#169=EDGE_CURVE('',#220,#219,#35,.T.);
#170=EDGE_CURVE('',#221,#220,#255,.T.);
#171=EDGE_CURVE('',#221,#222,#256,.F.);
#172=EDGE_CURVE('',#223,#222,#257,.T.);
#173=EDGE_CURVE('',#223,#224,#36,.T.);
#174=EDGE_CURVE('',#217,#224,#258,.T.);
#175=EDGE_CURVE('',#225,#225,#37,.F.);
#176=EDGE_CURVE('',#226,#226,#38,.F.);
#177=EDGE_CURVE('',#227,#227,#39,.F.);
#178=EDGE_CURVE('',#228,#228,#40,.F.);
#179=EDGE_CURVE('',#229,#229,#41,.F.);
#180=EDGE_CURVE('',#215,#230,#42,.F.);
#181=EDGE_CURVE('',#230,#231,#259,.T.);
#182=EDGE_CURVE('',#231,#221,#43,.F.);
#183=EDGE_CURVE('',#216,#220,#260,.T.);
#184=EDGE_CURVE('',#232,#232,#44,.F.);
#185=EDGE_CURVE('',#233,#233,#45,.F.);
#186=EDGE_CURVE('',#234,#234,#46,.F.);
#187=EDGE_CURVE('',#235,#235,#47,.F.);
#188=EDGE_CURVE('',#236,#236,#48,.F.);
#189=EDGE_CURVE('',#237,#238,#261,.T.);
#190=EDGE_CURVE('',#237,#214,#49,.F.);
#191=EDGE_CURVE('',#213,#223,#262,.T.);
#192=EDGE_CURVE('',#222,#238,#50,.F.);
#193=EDGE_CURVE('',#209,#219,#263,.T.);
#194=EDGE_CURVE('',#239,#239,#51,.F.);
#195=EDGE_CURVE('',#240,#240,#52,.F.);
#196=EDGE_CURVE('',#218,#241,#53,.F.);
#197=EDGE_CURVE('',#242,#241,#264,.T.);
#198=EDGE_CURVE('',#242,#210,#54,.F.);
#199=EDGE_CURVE('',#241,#243,#265,.F.);
#200=EDGE_CURVE('',#244,#243,#266,.T.);
#201=EDGE_CURVE('',#244,#242,#267,.T.);
#202=EDGE_CURVE('',#245,#245,#55,.F.);
#203=EDGE_CURVE('',#246,#246,#56,.F.);
#204=EDGE_CURVE('',#243,#217,#57,.F.);
#205=EDGE_CURVE('',#212,#224,#268,.T.);
#206=EDGE_CURVE('',#211,#244,#58,.F.);
#207=EDGE_CURVE('',#230,#237,#269,.F.);
#208=EDGE_CURVE('',#238,#231,#270,.T.);
#209=VERTEX_POINT('',#591);
#210=VERTEX_POINT('',#592);
#211=VERTEX_POINT('',#594);
#212=VERTEX_POINT('',#596);
#213=VERTEX_POINT('',#598);
#214=VERTEX_POINT('',#600);
#215=VERTEX_POINT('',#602);
#216=VERTEX_POINT('',#604);
#217=VERTEX_POINT('',#608);
#218=VERTEX_POINT('',#609);
#219=VERTEX_POINT('',#611);
#220=VERTEX_POINT('',#613);
#221=VERTEX_POINT('',#615);
#222=VERTEX_POINT('',#617);
#223=VERTEX_POINT('',#619);
#224=VERTEX_POINT('',#621);
#225=VERTEX_POINT('',#625);
#226=VERTEX_POINT('',#627);
#227=VERTEX_POINT('',#629);
#228=VERTEX_POINT('',#631);
#229=VERTEX_POINT('',#633);
#230=VERTEX_POINT('',#635);
#231=VERTEX_POINT('',#637);
#232=VERTEX_POINT('',#642);
#233=VERTEX_POINT('',#644);
#234=VERTEX_POINT('',#646);
#235=VERTEX_POINT('',#648);
#236=VERTEX_POINT('',#650);
#237=VERTEX_POINT('',#652);
#238=VERTEX_POINT('',#653);
#239=VERTEX_POINT('',#661);
#240=VERTEX_POINT('',#663);
#241=VERTEX_POINT('',#665);
#242=VERTEX_POINT('',#667);
#243=VERTEX_POINT('',#671);
#244=VERTEX_POINT('',#673);
#245=VERTEX_POINT('',#677);
#246=VERTEX_POINT('',#679);
#247=LINE('',#590,#271);
#248=LINE('',#593,#272);
#249=LINE('',#595,#273);
#250=LINE('',#599,#274);
#251=LINE('',#601,#275);
#252=LINE('',#603,#276);
#253=LINE('',#607,#277);
#254=LINE('',#610,#278);
#255=LINE('',#614,#279);
#256=LINE('',#616,#280);
#257=LINE('',#618,#281);
#258=LINE('',#622,#282);
#259=LINE('',#636,#283);
#260=LINE('',#639,#284);
#261=LINE('',#651,#285);
#262=LINE('',#655,#286);
#263=LINE('',#658,#287);
#264=LINE('',#666,#288);
#265=LINE('',#670,#289);
#266=LINE('',#672,#290);
#267=LINE('',#674,#291);
#268=LINE('',#681,#292);
#269=LINE('',#685,#293);
#270=LINE('',#686,#294);
#271=VECTOR('',#472,1000.);
#272=VECTOR('',#473,1000.);
#273=VECTOR('',#474,1000.);
#274=VECTOR('',#477,1000.);
#275=VECTOR('',#478,1000.);
#276=VECTOR('',#479,1000.);
#277=VECTOR('',#484,1000.);
#278=VECTOR('',#485,1000.);
#279=VECTOR('',#488,1000.);
#280=VECTOR('',#489,1000.);
#281=VECTOR('',#490,1000.);
#282=VECTOR('',#493,1000.);
#283=VECTOR('',#508,1000.);
#284=VECTOR('',#511,1000.);
#285=VECTOR('',#524,1000.);
#286=VECTOR('',#527,1000.);
#287=VECTOR('',#532,1000.);
#288=VECTOR('',#541,1000.);
#289=VECTOR('',#546,1000.);
#290=VECTOR('',#547,1000.);
#291=VECTOR('',#548,1000.);
#292=VECTOR('',#557,1000.);
#293=VECTOR('',#564,1000.);
#294=VECTOR('',#565,1000.);
#295=EDGE_LOOP('',(#59,#60,#61,#62,#63,#64,#65,#66));
#296=EDGE_LOOP('',(#67,#68,#69,#70,#71,#72,#73,#74));
#297=EDGE_LOOP('',(#75));
#298=EDGE_LOOP('',(#76));
#299=EDGE_LOOP('',(#77));
#300=EDGE_LOOP('',(#78));
#301=EDGE_LOOP('',(#79));
#302=EDGE_LOOP('',(#80,#81,#82,#83,#84,#85));
#303=EDGE_LOOP('',(#86));
#304=EDGE_LOOP('',(#87));
#305=EDGE_LOOP('',(#88));
#306=EDGE_LOOP('',(#89));
#307=EDGE_LOOP('',(#90));
#308=EDGE_LOOP('',(#91,#92,#93,#94,#95,#96));
#309=EDGE_LOOP('',(#97,#98,#99,#100));
#310=EDGE_LOOP('',(#101));
#311=EDGE_LOOP('',(#102));
#312=EDGE_LOOP('',(#103,#104,#105,#106,#107,#108));
#313=EDGE_LOOP('',(#109,#110,#111,#112));
#314=EDGE_LOOP('',(#113));
#315=EDGE_LOOP('',(#114));
#316=EDGE_LOOP('',(#115,#116,#117,#118,#119,#120));
#317=EDGE_LOOP('',(#121,#122,#123,#124));
#318=EDGE_LOOP('',(#125,#126,#127,#128));
#319=EDGE_LOOP('',(#129,#130,#131,#132));
#320=EDGE_LOOP('',(#133,#134,#135,#136));
#321=EDGE_LOOP('',(#137,#138,#139,#140));
#322=EDGE_LOOP('',(#141,#142,#143,#144));
#323=EDGE_LOOP('',(#145));
#324=EDGE_LOOP('',(#146));
#325=EDGE_LOOP('',(#147));
#326=EDGE_LOOP('',(#148));
#327=EDGE_LOOP('',(#149));
#328=EDGE_LOOP('',(#150));
#329=EDGE_LOOP('',(#151));
#330=EDGE_LOOP('',(#152));
#331=EDGE_LOOP('',(#153));
#332=EDGE_LOOP('',(#154));
#333=EDGE_LOOP('',(#155));
#334=EDGE_LOOP('',(#156));
#335=EDGE_LOOP('',(#157));
#336=EDGE_LOOP('',(#158));
#337=FACE_BOUND('',#295,.T.);
#338=FACE_BOUND('',#296,.T.);
#339=FACE_BOUND('',#297,.T.);
#340=FACE_BOUND('',#298,.T.);
#341=FACE_BOUND('',#299,.T.);
#342=FACE_BOUND('',#300,.T.);
#343=FACE_BOUND('',#301,.T.);
#344=FACE_BOUND('',#302,.T.);
#345=FACE_BOUND('',#303,.T.);
#346=FACE_BOUND('',#304,.T.);
#347=FACE_BOUND('',#305,.T.);
#348=FACE_BOUND('',#306,.T.);
#349=FACE_BOUND('',#307,.T.);
#350=FACE_BOUND('',#308,.T.);
#351=FACE_BOUND('',#309,.T.);
#352=FACE_BOUND('',#310,.T.);
#353=FACE_BOUND('',#311,.T.);
#354=FACE_BOUND('',#312,.T.);
#355=FACE_BOUND('',#313,.T.);
#356=FACE_BOUND('',#314,.T.);
#357=FACE_BOUND('',#315,.T.);
#358=FACE_BOUND('',#316,.T.);
#359=FACE_BOUND('',#317,.T.);
#360=FACE_BOUND('',#318,.T.);
#361=FACE_BOUND('',#319,.T.);
#362=FACE_BOUND('',#320,.T.);
#363=FACE_BOUND('',#321,.T.);
#364=FACE_BOUND('',#322,.T.);
#365=FACE_BOUND('',#323,.T.);
#366=FACE_BOUND('',#324,.T.);
#367=FACE_BOUND('',#325,.T.);
#368=FACE_BOUND('',#326,.T.);
#369=FACE_BOUND('',#327,.T.);
#370=FACE_BOUND('',#328,.T.);
#371=FACE_BOUND('',#329,.T.);
#372=FACE_BOUND('',#330,.T.);
#373=FACE_BOUND('',#331,.T.);
#374=FACE_BOUND('',#332,.T.);
#375=FACE_BOUND('',#333,.T.);
#376=FACE_BOUND('',#334,.T.);
#377=FACE_BOUND('',#335,.T.);
#378=FACE_BOUND('',#336,.T.);
#379=PLANE('',#421);
#380=PLANE('',#424);
#381=PLANE('',#427);
#382=PLANE('',#435);
#383=PLANE('',#444);
#384=PLANE('',#449);
#385=PLANE('',#450);
#386=PLANE('',#456);
#387=ADVANCED_FACE('',(#337),#379,.T.);
#388=ADVANCED_FACE('',(#338),#380,.F.);
#389=ADVANCED_FACE('',(#339,#340,#341,#342,#343,#344),#381,.F.);
#390=ADVANCED_FACE('',(#345,#346,#347,#348,#349,#350),#382,.F.);
#391=ADVANCED_FACE('',(#351),#20,.T.);
#392=ADVANCED_FACE('',(#352,#353,#354),#383,.F.);
#393=ADVANCED_FACE('',(#355),#384,.F.);
#394=ADVANCED_FACE('',(#356,#357,#358),#385,.F.);
#395=ADVANCED_FACE('',(#359),#21,.F.);
#396=ADVANCED_FACE('',(#360),#386,.F.);
#397=ADVANCED_FACE('',(#361),#22,.T.);
#398=ADVANCED_FACE('',(#362),#23,.T.);
#399=ADVANCED_FACE('',(#363),#24,.T.);
#400=ADVANCED_FACE('',(#364),#25,.T.);
#401=ADVANCED_FACE('',(#365,#366),#26,.F.);
#402=ADVANCED_FACE('',(#367,#368),#27,.F.);
#403=ADVANCED_FACE('',(#369,#370),#28,.F.);
#404=ADVANCED_FACE('',(#371,#372),#29,.F.);
#405=ADVANCED_FACE('',(#373,#374),#30,.F.);
#406=ADVANCED_FACE('',(#375,#376),#31,.F.);
#407=ADVANCED_FACE('',(#377,#378),#32,.F.);
#408=CLOSED_SHELL('',(#387,#388,#389,#390,#391,#392,#393,#394,#395,#396,
#397,#398,#399,#400,#401,#402,#403,#404,#405,#406,#407));
#409=STYLED_ITEM('',(#410),#417);
#410=PRESENTATION_STYLE_ASSIGNMENT((#411));
#411=SURFACE_STYLE_USAGE(.BOTH.,#412);
#412=SURFACE_SIDE_STYLE('',(#413));
#413=SURFACE_STYLE_FILL_AREA(#414);
#414=FILL_AREA_STYLE('',(#415));
#415=FILL_AREA_STYLE_COLOUR('',#416);
#416=COLOUR_RGB('',0.689999997615814,0.689999997615814,0.689999997615814);
#417=MANIFOLD_SOLID_BREP('161859 CRFV-40',#408);
#418=SHAPE_DEFINITION_REPRESENTATION(#704,#419);
#419=SHAPE_REPRESENTATION('161859 CRFV-40',(#420),#699);
#420=AXIS2_PLACEMENT_3D('',#588,#468,#469);
#421=AXIS2_PLACEMENT_3D('',#589,#470,#471);
#422=AXIS2_PLACEMENT_3D('',#597,#475,#476);
#423=AXIS2_PLACEMENT_3D('',#605,#480,#481);
#424=AXIS2_PLACEMENT_3D('',#606,#482,#483);
#425=AXIS2_PLACEMENT_3D('',#612,#486,#487);
#426=AXIS2_PLACEMENT_3D('',#620,#491,#492);
#427=AXIS2_PLACEMENT_3D('',#623,#494,#495);
#428=AXIS2_PLACEMENT_3D('',#624,#496,#497);
#429=AXIS2_PLACEMENT_3D('',#626,#498,#499);
#430=AXIS2_PLACEMENT_3D('',#628,#500,#501);
#431=AXIS2_PLACEMENT_3D('',#630,#502,#503);
#432=AXIS2_PLACEMENT_3D('',#632,#504,#505);
#433=AXIS2_PLACEMENT_3D('',#634,#506,#507);
#434=AXIS2_PLACEMENT_3D('',#638,#509,#510);
#435=AXIS2_PLACEMENT_3D('',#640,#512,#513);
#436=AXIS2_PLACEMENT_3D('',#641,#514,#515);
#437=AXIS2_PLACEMENT_3D('',#643,#516,#517);
#438=AXIS2_PLACEMENT_3D('',#645,#518,#519);
#439=AXIS2_PLACEMENT_3D('',#647,#520,#521);
#440=AXIS2_PLACEMENT_3D('',#649,#522,#523);
#441=AXIS2_PLACEMENT_3D('',#654,#525,#526);
#442=AXIS2_PLACEMENT_3D('',#656,#528,#529);
#443=AXIS2_PLACEMENT_3D('',#657,#530,#531);
#444=AXIS2_PLACEMENT_3D('',#659,#533,#534);
#445=AXIS2_PLACEMENT_3D('',#660,#535,#536);
#446=AXIS2_PLACEMENT_3D('',#662,#537,#538);
#447=AXIS2_PLACEMENT_3D('',#664,#539,#540);
#448=AXIS2_PLACEMENT_3D('',#668,#542,#543);
#449=AXIS2_PLACEMENT_3D('',#669,#544,#545);
#450=AXIS2_PLACEMENT_3D('',#675,#549,#550);
#451=AXIS2_PLACEMENT_3D('',#676,#551,#552);
#452=AXIS2_PLACEMENT_3D('',#678,#553,#554);
#453=AXIS2_PLACEMENT_3D('',#680,#555,#556);
#454=AXIS2_PLACEMENT_3D('',#682,#558,#559);
#455=AXIS2_PLACEMENT_3D('',#683,#560,#561);
#456=AXIS2_PLACEMENT_3D('',#684,#562,#563);
#457=AXIS2_PLACEMENT_3D('',#687,#566,#567);
#458=AXIS2_PLACEMENT_3D('',#688,#568,#569);
#459=AXIS2_PLACEMENT_3D('',#689,#570,#571);
#460=AXIS2_PLACEMENT_3D('',#690,#572,#573);
#461=AXIS2_PLACEMENT_3D('',#691,#574,#575);
#462=AXIS2_PLACEMENT_3D('',#692,#576,#577);
#463=AXIS2_PLACEMENT_3D('',#693,#578,#579);
#464=AXIS2_PLACEMENT_3D('',#694,#580,#581);
#465=AXIS2_PLACEMENT_3D('',#695,#582,#583);
#466=AXIS2_PLACEMENT_3D('',#696,#584,#585);
#467=AXIS2_PLACEMENT_3D('',#697,#586,#587);
#468=DIRECTION('',(0.,0.,1.));
#469=DIRECTION('',(1.,0.,0.));
#470=DIRECTION('',(0.,0.,1.));
#471=DIRECTION('',(1.,0.,0.));
#472=DIRECTION('',(1.,0.,0.));
#473=DIRECTION('',(0.,-1.,0.));
#474=DIRECTION('',(-1.,0.,0.));
#475=DIRECTION('',(0.,0.,1.));
#476=DIRECTION('',(1.,0.,0.));
#477=DIRECTION('',(0.,1.,0.));
#478=DIRECTION('',(-1.,0.,0.));
#479=DIRECTION('',(0.,-1.,0.));
#480=DIRECTION('',(0.,0.,1.));
#481=DIRECTION('',(1.,0.,0.));
#482=DIRECTION('',(0.,0.,1.));
#483=DIRECTION('',(1.,0.,0.));
#484=DIRECTION('',(0.,-1.,0.));
#485=DIRECTION('',(1.,0.,0.));
#486=DIRECTION('',(0.,0.,1.));
#487=DIRECTION('',(1.,0.,0.));
#488=DIRECTION('',(0.,-1.,0.));
#489=DIRECTION('',(-1.,0.,0.));
#490=DIRECTION('',(0.,1.,0.));
#491=DIRECTION('',(0.,0.,1.));
#492=DIRECTION('',(1.,0.,0.));
#493=DIRECTION('',(-1.,0.,0.));
#494=DIRECTION('',(1.,0.,0.));
#495=DIRECTION('',(0.,0.,-1.));
#496=DIRECTION('',(1.,0.,0.));
#497=DIRECTION('',(0.,0.,-1.));
#498=DIRECTION('',(1.,0.,0.));
#499=DIRECTION('',(0.,0.,-1.));
#500=DIRECTION('',(1.,0.,0.));
#501=DIRECTION('',(0.,0.,-1.));
#502=DIRECTION('',(1.,0.,0.));
#503=DIRECTION('',(0.,0.,-1.));
#504=DIRECTION('',(1.,0.,0.));
#505=DIRECTION('',(0.,0.,-1.));
#506=DIRECTION('',(1.,0.,0.));
#507=DIRECTION('',(0.,0.,-1.));
#508=DIRECTION('',(0.,0.,-1.));
#509=DIRECTION('',(1.,0.,0.));
#510=DIRECTION('',(0.,0.,-1.));
#511=DIRECTION('',(0.,0.,-1.));
#512=DIRECTION('',(-1.,0.,0.));
#513=DIRECTION('',(0.,0.,1.));
#514=DIRECTION('',(-1.,0.,0.));
#515=DIRECTION('',(0.,0.,1.));
#516=DIRECTION('',(-1.,0.,0.));
#517=DIRECTION('',(0.,0.,1.));
#518=DIRECTION('',(-1.,0.,0.));
#519=DIRECTION('',(0.,0.,1.));
#520=DIRECTION('',(-1.,0.,0.));
#521=DIRECTION('',(0.,0.,1.));
#522=DIRECTION('',(-1.,0.,0.));
#523=DIRECTION('',(0.,0.,1.));
#524=DIRECTION('',(0.,0.,-1.));
#525=DIRECTION('',(-1.,0.,0.));
#526=DIRECTION('',(0.,0.,1.));
#527=DIRECTION('',(0.,0.,-1.));
#528=DIRECTION('',(-1.,0.,0.));
#529=DIRECTION('',(0.,0.,1.));
#530=DIRECTION('',(0.,0.,-1.));
#531=DIRECTION('',(-1.,0.,0.));
#532=DIRECTION('',(0.,0.,-1.));
#533=DIRECTION('',(0.,1.,0.));
#534=DIRECTION('',(0.,0.,1.));
#535=DIRECTION('',(0.,1.,0.));
#536=DIRECTION('',(0.,0.,1.));
#537=DIRECTION('',(0.,1.,0.));
#538=DIRECTION('',(0.,0.,1.));
#539=DIRECTION('',(0.,1.,0.));
#540=DIRECTION('',(0.,0.,1.));
#541=DIRECTION('',(0.,0.,-1.));
#542=DIRECTION('',(0.,1.,0.));
#543=DIRECTION('',(0.,0.,1.));
#544=DIRECTION('',(-1.,0.,0.));
#545=DIRECTION('',(0.,0.,1.));
#546=DIRECTION('',(0.,-1.,0.));
#547=DIRECTION('',(0.,0.,-1.));
#548=DIRECTION('',(0.,-1.,0.));
#549=DIRECTION('',(0.,-1.,0.));
#550=DIRECTION('',(0.,0.,-1.));
#551=DIRECTION('',(0.,-1.,0.));
#552=DIRECTION('',(0.,0.,-1.));
#553=DIRECTION('',(0.,-1.,0.));
#554=DIRECTION('',(0.,0.,-1.));
#555=DIRECTION('',(0.,-1.,0.));
#556=DIRECTION('',(0.,0.,-1.));
#557=DIRECTION('',(0.,0.,-1.));
#558=DIRECTION('',(0.,-1.,0.));
#559=DIRECTION('',(0.,0.,-1.));
#560=DIRECTION('',(0.,0.,-1.));
#561=DIRECTION('',(-1.,0.,0.));
#562=DIRECTION('',(0.,-1.,0.));
#563=DIRECTION('',(0.,0.,-1.));
#564=DIRECTION('',(-1.,0.,0.));
#565=DIRECTION('',(-1.,0.,0.));
#566=DIRECTION('',(-1.,0.,0.));
#567=DIRECTION('',(0.,0.,1.));
#568=DIRECTION('',(-1.,0.,0.));
#569=DIRECTION('',(0.,0.,1.));
#570=DIRECTION('',(0.,-1.,0.));
#571=DIRECTION('',(0.,0.,-1.));
#572=DIRECTION('',(0.,-1.,0.));
#573=DIRECTION('',(0.,0.,-1.));
#574=DIRECTION('',(-1.,0.,0.));
#575=DIRECTION('',(0.,0.,1.));
#576=DIRECTION('',(-1.,0.,0.));
#577=DIRECTION('',(0.,0.,1.));
#578=DIRECTION('',(-1.,0.,0.));
#579=DIRECTION('',(0.,0.,1.));
#580=DIRECTION('',(-1.,0.,0.));
#581=DIRECTION('',(0.,0.,1.));
#582=DIRECTION('',(-1.,0.,0.));
#583=DIRECTION('',(0.,0.,1.));
#584=DIRECTION('',(0.,-1.,0.));
#585=DIRECTION('',(0.,0.,-1.));
#586=DIRECTION('',(0.,-1.,0.));
#587=DIRECTION('',(0.,0.,-1.));
#588=CARTESIAN_POINT('',(0.,0.,0.));
#589=CARTESIAN_POINT('',(8.,8.,40.));
#590=CARTESIAN_POINT('',(8.,0.,40.));
#591=CARTESIAN_POINT('',(7.99999999999999,1.73472347597681E-15,40.));
#592=CARTESIAN_POINT('',(20.1,2.77555756156289E-14,40.));
#593=CARTESIAN_POINT('',(20.1,58.,40.));
#594=CARTESIAN_POINT('',(20.1,5.,40.));
#595=CARTESIAN_POINT('',(30.,5.,40.));
#596=CARTESIAN_POINT('',(8.,5.,40.));
#597=CARTESIAN_POINT('',(8.,8.,40.));
#598=CARTESIAN_POINT('',(5.,8.,40.));
#599=CARTESIAN_POINT('',(5.,8.,40.));
#600=CARTESIAN_POINT('',(5.,49.5106735979666,40.));
#601=CARTESIAN_POINT('',(40.,49.5106735979666,40.));
#602=CARTESIAN_POINT('',(0.,49.5106735979666,40.));
#603=CARTESIAN_POINT('',(0.,58.,40.));
#604=CARTESIAN_POINT('',(0.,8.,40.));
#605=CARTESIAN_POINT('',(8.,8.,40.));
#606=CARTESIAN_POINT('',(8.,8.,-40.));
#607=CARTESIAN_POINT('',(20.1,58.,-40.));
#608=CARTESIAN_POINT('',(20.1,5.00000000000002,-40.));
#609=CARTESIAN_POINT('',(20.1,0.,-40.));
#610=CARTESIAN_POINT('',(8.,0.,-40.));
#611=CARTESIAN_POINT('',(7.99999999999999,1.73472347597681E-15,-40.));
#612=CARTESIAN_POINT('',(8.,8.,-40.));
#613=CARTESIAN_POINT('',(0.,8.,-40.));
#614=CARTESIAN_POINT('',(0.,58.,-40.));
#615=CARTESIAN_POINT('',(0.,49.5106735979666,-40.));
#616=CARTESIAN_POINT('',(40.,49.5106735979666,-40.));
#617=CARTESIAN_POINT('',(5.,49.5106735979666,-40.));
#618=CARTESIAN_POINT('',(5.,8.,-40.));
#619=CARTESIAN_POINT('',(5.,8.,-40.));
#620=CARTESIAN_POINT('',(8.,8.,-40.));
#621=CARTESIAN_POINT('',(8.,5.,-40.));
#622=CARTESIAN_POINT('',(30.,5.,-40.));
#623=CARTESIAN_POINT('',(0.,58.,40.));
#624=CARTESIAN_POINT('',(0.,48.,30.));
#625=CARTESIAN_POINT('',(0.,48.,25.5));
#626=CARTESIAN_POINT('',(0.,18.,-30.));
#627=CARTESIAN_POINT('',(0.,18.,-34.5));
#628=CARTESIAN_POINT('',(0.,18.,30.));
#629=CARTESIAN_POINT('',(0.,18.,25.5));
#630=CARTESIAN_POINT('',(0.,48.,-30.));
#631=CARTESIAN_POINT('',(0.,48.,-34.5));
#632=CARTESIAN_POINT('',(0.,33.,0.));
#633=CARTESIAN_POINT('',(0.,33.,-19.05));
#634=CARTESIAN_POINT('',(0.,48.1,30.1));
#635=CARTESIAN_POINT('',(0.,58.,31.5106735979666));
#636=CARTESIAN_POINT('',(0.,58.,40.));
#637=CARTESIAN_POINT('',(0.,58.,-31.5106735979666));
#638=CARTESIAN_POINT('',(0.,48.1,-30.1));
#639=CARTESIAN_POINT('',(0.,8.,40.));
#640=CARTESIAN_POINT('',(5.,8.,40.));
#641=CARTESIAN_POINT('',(5.,48.,30.));
#642=CARTESIAN_POINT('',(5.,48.,34.5));
#643=CARTESIAN_POINT('',(5.,18.,-30.));
#644=CARTESIAN_POINT('',(5.,18.,-25.5));
#645=CARTESIAN_POINT('',(5.,18.,30.));
#646=CARTESIAN_POINT('',(5.,18.,34.5));
#647=CARTESIAN_POINT('',(5.,48.,-30.));
#648=CARTESIAN_POINT('',(5.,48.,-25.5));
#649=CARTESIAN_POINT('',(5.,33.,0.));
#650=CARTESIAN_POINT('',(5.,33.,19.05));
#651=CARTESIAN_POINT('',(5.,58.,40.));
#652=CARTESIAN_POINT('',(5.,58.,31.5106735979666));
#653=CARTESIAN_POINT('',(5.,58.,-31.5106735979666));
#654=CARTESIAN_POINT('',(5.,48.1,30.1));
#655=CARTESIAN_POINT('',(5.,8.,40.));
#656=CARTESIAN_POINT('',(5.,48.1,-30.1));
#657=CARTESIAN_POINT('',(8.,8.,40.));
#658=CARTESIAN_POINT('',(7.99999999999999,1.73472347597681E-15,40.));
#659=CARTESIAN_POINT('',(8.,0.,40.));
#660=CARTESIAN_POINT('',(20.,0.,30.));
#661=CARTESIAN_POINT('',(20.,0.,34.5));
#662=CARTESIAN_POINT('',(20.,0.,-30.));
#663=CARTESIAN_POINT('',(20.,0.,-25.5));
#664=CARTESIAN_POINT('',(20.1,0.,-30.));
#665=CARTESIAN_POINT('',(30.,0.,-31.4106735979666));
#666=CARTESIAN_POINT('',(30.,0.,40.));
#667=CARTESIAN_POINT('',(30.,0.,31.4106735979666));
#668=CARTESIAN_POINT('',(20.1,0.,30.));
#669=CARTESIAN_POINT('',(30.,0.,40.));
#670=CARTESIAN_POINT('',(30.,58.,-31.4106735979666));
#671=CARTESIAN_POINT('',(30.,5.,-31.4106735979666));
#672=CARTESIAN_POINT('',(30.,5.,40.));
#673=CARTESIAN_POINT('',(30.,5.,31.4106735979666));
#674=CARTESIAN_POINT('',(30.,58.,31.4106735979666));
#675=CARTESIAN_POINT('',(30.,5.,40.));
#676=CARTESIAN_POINT('',(20.,5.,30.));
#677=CARTESIAN_POINT('',(20.,5.,25.5));
#678=CARTESIAN_POINT('',(20.,5.,-30.));
#679=CARTESIAN_POINT('',(20.,5.,-34.5));
#680=CARTESIAN_POINT('',(20.1,5.,-30.));
#681=CARTESIAN_POINT('',(8.,5.,40.));
#682=CARTESIAN_POINT('',(20.1,5.,30.));
#683=CARTESIAN_POINT('',(8.,8.,40.));
#684=CARTESIAN_POINT('',(5.,58.,40.));
#685=CARTESIAN_POINT('',(40.,58.,31.5106735979666));
#686=CARTESIAN_POINT('',(40.,58.,-31.5106735979666));
#687=CARTESIAN_POINT('',(40.,48.1,-30.1));
#688=CARTESIAN_POINT('',(40.,48.1,30.1));
#689=CARTESIAN_POINT('',(20.1,58.,-30.));
#690=CARTESIAN_POINT('',(20.1,58.,30.));
#691=CARTESIAN_POINT('',(5.1,33.,0.));
#692=CARTESIAN_POINT('',(5.1,48.,-30.));
#693=CARTESIAN_POINT('',(5.1,18.,30.));
#694=CARTESIAN_POINT('',(5.1,18.,-30.));
#695=CARTESIAN_POINT('',(5.1,48.,30.));
#696=CARTESIAN_POINT('',(20.,5.1,-30.));
#697=CARTESIAN_POINT('',(20.,5.1,30.));
#698=MECHANICAL_DESIGN_GEOMETRIC_PRESENTATION_REPRESENTATION('',(#409),
#699);
#699=(
GEOMETRIC_REPRESENTATION_CONTEXT(3)
GLOBAL_UNCERTAINTY_ASSIGNED_CONTEXT((#700))
GLOBAL_UNIT_ASSIGNED_CONTEXT((#703,#702,#701))
REPRESENTATION_CONTEXT('161859 CRFV-40','TOP_LEVEL_ASSEMBLY_PART')
);
#700=UNCERTAINTY_MEASURE_WITH_UNIT(LENGTH_MEASURE(0.005),#703,
'DISTANCE_ACCURACY_VALUE','Maximum Tolerance applied to model');
#701=(
NAMED_UNIT(*)
SI_UNIT($,.STERADIAN.)
SOLID_ANGLE_UNIT()
);
#702=(
NAMED_UNIT(*)
PLANE_ANGLE_UNIT()
SI_UNIT($,.RADIAN.)
);
#703=(
LENGTH_UNIT()
NAMED_UNIT(*)
SI_UNIT(.MILLI.,.METRE.)
);
#704=PRODUCT_DEFINITION_SHAPE('','',#705);
#705=PRODUCT_DEFINITION('','',#707,#706);
#706=PRODUCT_DEFINITION_CONTEXT('',#713,'design');
#707=PRODUCT_DEFINITION_FORMATION_WITH_SPECIFIED_SOURCE('','',#709,
 .NOT_KNOWN.);
#708=PRODUCT_RELATED_PRODUCT_CATEGORY('','',(#709));
#709=PRODUCT('161859 CRFV-40','161859 CRFV-40','161859 CRFV-40',(#711));
#710=PRODUCT_CATEGORY('','');
#711=PRODUCT_CONTEXT('',#713,'mechanical');
#712=APPLICATION_PROTOCOL_DEFINITION('international standard',
'automotive_design',2010,#713);
#713=APPLICATION_CONTEXT(
'core data for automotive mechanical design processes');
ENDSEC;
END-ISO-10303-21;
