ISO-10303-21;
HEADER;
/* Generated by software containing ST-Developer
 * from STEP Tools, Inc. (www.steptools.com) 
 */
/* OPTION: using custom renumber hook */

FILE_DESCRIPTION(
/* description */ ('STEP AP214'),
/* implementation_level */ '2;1');

FILE_NAME(
/* name */ '161865_CRFBN-20_25',
/* time_stamp */ '2024-08-08T17:58:50+02:00',
/* author */ ('License CC BY-ND 4.0'),
/* organization */ ('CADENAS'),
/* preprocessor_version */ 'ST-DEVELOPER v19.3',
/* originating_system */ 'PARTsolutions',
/* authorisation */ '  ');

FILE_SCHEMA (('AUTOMOTIVE_DESIGN {1 0 10303 214 3 1 1}'));
ENDSEC;

DATA;
#10=PROPERTY_DEFINITION_REPRESENTATION(#14,#12);
#11=PROPERTY_DEFINITION_REPRESENTATION(#15,#13);
#12=REPRESENTATION('',(#16),#427);
#13=REPRESENTATION('',(#17),#427);
#14=PROPERTY_DEFINITION('pmi validation property','',#432);
#15=PROPERTY_DEFINITION('pmi validation property','',#432);
#16=VALUE_REPRESENTATION_ITEM('number of annotations',COUNT_MEASURE(0.));
#17=VALUE_REPRESENTATION_ITEM('number of views',COUNT_MEASURE(0.));
#18=SHAPE_REPRESENTATION_RELATIONSHIP('','',#259,#19);
#19=ADVANCED_BREP_SHAPE_REPRESENTATION('',(#257),#427);
#20=CIRCLE('',#263,20.);
#21=CIRCLE('',#264,20.);
#22=CIRCLE('',#267,8.);
#23=CIRCLE('',#268,8.);
#24=CIRCLE('',#271,20.);
#25=CIRCLE('',#272,20.);
#26=CIRCLE('',#275,3.3);
#27=CIRCLE('',#276,3.3);
#28=CIRCLE('',#278,3.3);
#29=CIRCLE('',#279,3.3);
#30=CIRCLE('',#281,11.05);
#31=CIRCLE('',#282,11.05);
#32=CIRCLE('',#284,8.);
#33=CIRCLE('',#285,8.);
#34=CYLINDRICAL_SURFACE('',#262,20.);
#35=CYLINDRICAL_SURFACE('',#266,8.);
#36=CYLINDRICAL_SURFACE('',#270,20.);
#37=CYLINDRICAL_SURFACE('',#274,3.3);
#38=CYLINDRICAL_SURFACE('',#277,3.3);
#39=CYLINDRICAL_SURFACE('',#280,11.05);
#40=CYLINDRICAL_SURFACE('',#283,8.);
#41=ORIENTED_EDGE('',*,*,#101,.T.);
#42=ORIENTED_EDGE('',*,*,#102,.F.);
#43=ORIENTED_EDGE('',*,*,#103,.F.);
#44=ORIENTED_EDGE('',*,*,#104,.T.);
#45=ORIENTED_EDGE('',*,*,#105,.T.);
#46=ORIENTED_EDGE('',*,*,#106,.F.);
#47=ORIENTED_EDGE('',*,*,#107,.F.);
#48=ORIENTED_EDGE('',*,*,#102,.T.);
#49=ORIENTED_EDGE('',*,*,#108,.T.);
#50=ORIENTED_EDGE('',*,*,#109,.F.);
#51=ORIENTED_EDGE('',*,*,#110,.F.);
#52=ORIENTED_EDGE('',*,*,#106,.T.);
#53=ORIENTED_EDGE('',*,*,#111,.T.);
#54=ORIENTED_EDGE('',*,*,#112,.F.);
#55=ORIENTED_EDGE('',*,*,#113,.F.);
#56=ORIENTED_EDGE('',*,*,#109,.T.);
#57=ORIENTED_EDGE('',*,*,#114,.T.);
#58=ORIENTED_EDGE('',*,*,#115,.F.);
#59=ORIENTED_EDGE('',*,*,#116,.F.);
#60=ORIENTED_EDGE('',*,*,#112,.T.);
#61=ORIENTED_EDGE('',*,*,#117,.T.);
#62=ORIENTED_EDGE('',*,*,#118,.F.);
#63=ORIENTED_EDGE('',*,*,#119,.F.);
#64=ORIENTED_EDGE('',*,*,#115,.T.);
#65=ORIENTED_EDGE('',*,*,#120,.T.);
#66=ORIENTED_EDGE('',*,*,#121,.F.);
#67=ORIENTED_EDGE('',*,*,#122,.F.);
#68=ORIENTED_EDGE('',*,*,#118,.T.);
#69=ORIENTED_EDGE('',*,*,#123,.T.);
#70=ORIENTED_EDGE('',*,*,#124,.F.);
#71=ORIENTED_EDGE('',*,*,#125,.T.);
#72=ORIENTED_EDGE('',*,*,#126,.F.);
#73=ORIENTED_EDGE('',*,*,#127,.T.);
#74=ORIENTED_EDGE('',*,*,#128,.F.);
#75=ORIENTED_EDGE('',*,*,#129,.T.);
#76=ORIENTED_EDGE('',*,*,#104,.F.);
#77=ORIENTED_EDGE('',*,*,#130,.F.);
#78=ORIENTED_EDGE('',*,*,#121,.T.);
#79=ORIENTED_EDGE('',*,*,#127,.F.);
#80=ORIENTED_EDGE('',*,*,#125,.F.);
#81=ORIENTED_EDGE('',*,*,#123,.F.);
#82=ORIENTED_EDGE('',*,*,#103,.T.);
#83=ORIENTED_EDGE('',*,*,#107,.T.);
#84=ORIENTED_EDGE('',*,*,#110,.T.);
#85=ORIENTED_EDGE('',*,*,#113,.T.);
#86=ORIENTED_EDGE('',*,*,#116,.T.);
#87=ORIENTED_EDGE('',*,*,#119,.T.);
#88=ORIENTED_EDGE('',*,*,#122,.T.);
#89=ORIENTED_EDGE('',*,*,#130,.T.);
#90=ORIENTED_EDGE('',*,*,#128,.T.);
#91=ORIENTED_EDGE('',*,*,#126,.T.);
#92=ORIENTED_EDGE('',*,*,#124,.T.);
#93=ORIENTED_EDGE('',*,*,#101,.F.);
#94=ORIENTED_EDGE('',*,*,#129,.F.);
#95=ORIENTED_EDGE('',*,*,#120,.F.);
#96=ORIENTED_EDGE('',*,*,#117,.F.);
#97=ORIENTED_EDGE('',*,*,#114,.F.);
#98=ORIENTED_EDGE('',*,*,#111,.F.);
#99=ORIENTED_EDGE('',*,*,#108,.F.);
#100=ORIENTED_EDGE('',*,*,#105,.F.);
#101=EDGE_CURVE('',#131,#132,#153,.T.);
#102=EDGE_CURVE('',#133,#132,#154,.T.);
#103=EDGE_CURVE('',#134,#133,#155,.T.);
#104=EDGE_CURVE('',#134,#131,#156,.T.);
#105=EDGE_CURVE('',#132,#135,#20,.T.);
#106=EDGE_CURVE('',#136,#135,#157,.T.);
#107=EDGE_CURVE('',#133,#136,#21,.T.);
#108=EDGE_CURVE('',#135,#137,#158,.T.);
#109=EDGE_CURVE('',#138,#137,#159,.T.);
#110=EDGE_CURVE('',#136,#138,#160,.T.);
#111=EDGE_CURVE('',#137,#139,#22,.T.);
#112=EDGE_CURVE('',#140,#139,#161,.T.);
#113=EDGE_CURVE('',#138,#140,#23,.T.);
#114=EDGE_CURVE('',#139,#141,#162,.T.);
#115=EDGE_CURVE('',#142,#141,#163,.T.);
#116=EDGE_CURVE('',#140,#142,#164,.T.);
#117=EDGE_CURVE('',#141,#143,#24,.T.);
#118=EDGE_CURVE('',#144,#143,#165,.T.);
#119=EDGE_CURVE('',#142,#144,#25,.T.);
#120=EDGE_CURVE('',#143,#145,#166,.T.);
#121=EDGE_CURVE('',#146,#145,#167,.T.);
#122=EDGE_CURVE('',#144,#146,#168,.T.);
#123=EDGE_CURVE('',#147,#147,#26,.T.);
#124=EDGE_CURVE('',#148,#148,#27,.T.);
#125=EDGE_CURVE('',#149,#149,#28,.T.);
#126=EDGE_CURVE('',#150,#150,#29,.T.);
#127=EDGE_CURVE('',#151,#151,#30,.T.);
#128=EDGE_CURVE('',#152,#152,#31,.T.);
#129=EDGE_CURVE('',#145,#131,#32,.T.);
#130=EDGE_CURVE('',#146,#134,#33,.T.);
#131=VERTEX_POINT('',#363);
#132=VERTEX_POINT('',#364);
#133=VERTEX_POINT('',#366);
#134=VERTEX_POINT('',#368);
#135=VERTEX_POINT('',#372);
#136=VERTEX_POINT('',#374);
#137=VERTEX_POINT('',#378);
#138=VERTEX_POINT('',#380);
#139=VERTEX_POINT('',#384);
#140=VERTEX_POINT('',#386);
#141=VERTEX_POINT('',#390);
#142=VERTEX_POINT('',#392);
#143=VERTEX_POINT('',#396);
#144=VERTEX_POINT('',#398);
#145=VERTEX_POINT('',#402);
#146=VERTEX_POINT('',#404);
#147=VERTEX_POINT('',#408);
#148=VERTEX_POINT('',#410);
#149=VERTEX_POINT('',#413);
#150=VERTEX_POINT('',#415);
#151=VERTEX_POINT('',#418);
#152=VERTEX_POINT('',#420);
#153=LINE('',#362,#169);
#154=LINE('',#365,#170);
#155=LINE('',#367,#171);
#156=LINE('',#369,#172);
#157=LINE('',#373,#173);
#158=LINE('',#377,#174);
#159=LINE('',#379,#175);
#160=LINE('',#381,#176);
#161=LINE('',#385,#177);
#162=LINE('',#389,#178);
#163=LINE('',#391,#179);
#164=LINE('',#393,#180);
#165=LINE('',#397,#181);
#166=LINE('',#401,#182);
#167=LINE('',#403,#183);
#168=LINE('',#405,#184);
#169=VECTOR('',#292,1000.);
#170=VECTOR('',#293,1000.);
#171=VECTOR('',#294,1000.);
#172=VECTOR('',#295,1000.);
#173=VECTOR('',#300,1000.);
#174=VECTOR('',#305,1000.);
#175=VECTOR('',#306,1000.);
#176=VECTOR('',#307,1000.);
#177=VECTOR('',#312,1000.);
#178=VECTOR('',#317,1000.);
#179=VECTOR('',#318,1000.);
#180=VECTOR('',#319,1000.);
#181=VECTOR('',#324,1000.);
#182=VECTOR('',#329,1000.);
#183=VECTOR('',#330,1000.);
#184=VECTOR('',#331,1000.);
#185=EDGE_LOOP('',(#41,#42,#43,#44));
#186=EDGE_LOOP('',(#45,#46,#47,#48));
#187=EDGE_LOOP('',(#49,#50,#51,#52));
#188=EDGE_LOOP('',(#53,#54,#55,#56));
#189=EDGE_LOOP('',(#57,#58,#59,#60));
#190=EDGE_LOOP('',(#61,#62,#63,#64));
#191=EDGE_LOOP('',(#65,#66,#67,#68));
#192=EDGE_LOOP('',(#69));
#193=EDGE_LOOP('',(#70));
#194=EDGE_LOOP('',(#71));
#195=EDGE_LOOP('',(#72));
#196=EDGE_LOOP('',(#73));
#197=EDGE_LOOP('',(#74));
#198=EDGE_LOOP('',(#75,#76,#77,#78));
#199=EDGE_LOOP('',(#79));
#200=EDGE_LOOP('',(#80));
#201=EDGE_LOOP('',(#81));
#202=EDGE_LOOP('',(#82,#83,#84,#85,#86,#87,#88,#89));
#203=EDGE_LOOP('',(#90));
#204=EDGE_LOOP('',(#91));
#205=EDGE_LOOP('',(#92));
#206=EDGE_LOOP('',(#93,#94,#95,#96,#97,#98,#99,#100));
#207=FACE_BOUND('',#185,.T.);
#208=FACE_BOUND('',#186,.T.);
#209=FACE_BOUND('',#187,.T.);
#210=FACE_BOUND('',#188,.T.);
#211=FACE_BOUND('',#189,.T.);
#212=FACE_BOUND('',#190,.T.);
#213=FACE_BOUND('',#191,.T.);
#214=FACE_BOUND('',#192,.T.);
#215=FACE_BOUND('',#193,.T.);
#216=FACE_BOUND('',#194,.T.);
#217=FACE_BOUND('',#195,.T.);
#218=FACE_BOUND('',#196,.T.);
#219=FACE_BOUND('',#197,.T.);
#220=FACE_BOUND('',#198,.T.);
#221=FACE_BOUND('',#199,.T.);
#222=FACE_BOUND('',#200,.T.);
#223=FACE_BOUND('',#201,.T.);
#224=FACE_BOUND('',#202,.T.);
#225=FACE_BOUND('',#203,.T.);
#226=FACE_BOUND('',#204,.T.);
#227=FACE_BOUND('',#205,.T.);
#228=FACE_BOUND('',#206,.T.);
#229=PLANE('',#261);
#230=PLANE('',#265);
#231=PLANE('',#269);
#232=PLANE('',#273);
#233=PLANE('',#286);
#234=PLANE('',#287);
#235=ADVANCED_FACE('',(#207),#229,.F.);
#236=ADVANCED_FACE('',(#208),#34,.T.);
#237=ADVANCED_FACE('',(#209),#230,.F.);
#238=ADVANCED_FACE('',(#210),#35,.T.);
#239=ADVANCED_FACE('',(#211),#231,.F.);
#240=ADVANCED_FACE('',(#212),#36,.T.);
#241=ADVANCED_FACE('',(#213),#232,.F.);
#242=ADVANCED_FACE('',(#214,#215),#37,.F.);
#243=ADVANCED_FACE('',(#216,#217),#38,.F.);
#244=ADVANCED_FACE('',(#218,#219),#39,.F.);
#245=ADVANCED_FACE('',(#220),#40,.T.);
#246=ADVANCED_FACE('',(#221,#222,#223,#224),#233,.T.);
#247=ADVANCED_FACE('',(#225,#226,#227,#228),#234,.F.);
#248=CLOSED_SHELL('',(#235,#236,#237,#238,#239,#240,#241,#242,#243,#244,
#245,#246,#247));
#249=STYLED_ITEM('',(#250),#257);
#250=PRESENTATION_STYLE_ASSIGNMENT((#251));
#251=SURFACE_STYLE_USAGE(.BOTH.,#252);
#252=SURFACE_SIDE_STYLE('',(#253));
#253=SURFACE_STYLE_FILL_AREA(#254);
#254=FILL_AREA_STYLE('',(#255));
#255=FILL_AREA_STYLE_COLOUR('',#256);
#256=COLOUR_RGB('',0.689999997615814,0.689999997615814,0.689999997615814);
#257=MANIFOLD_SOLID_BREP('161865 CRFBN-20/25',#248);
#258=SHAPE_DEFINITION_REPRESENTATION(#432,#259);
#259=SHAPE_REPRESENTATION('161865 CRFBN-20/25',(#260),#427);
#260=AXIS2_PLACEMENT_3D('',#360,#288,#289);
#261=AXIS2_PLACEMENT_3D('',#361,#290,#291);
#262=AXIS2_PLACEMENT_3D('',#370,#296,#297);
#263=AXIS2_PLACEMENT_3D('',#371,#298,#299);
#264=AXIS2_PLACEMENT_3D('',#375,#301,#302);
#265=AXIS2_PLACEMENT_3D('',#376,#303,#304);
#266=AXIS2_PLACEMENT_3D('',#382,#308,#309);
#267=AXIS2_PLACEMENT_3D('',#383,#310,#311);
#268=AXIS2_PLACEMENT_3D('',#387,#313,#314);
#269=AXIS2_PLACEMENT_3D('',#388,#315,#316);
#270=AXIS2_PLACEMENT_3D('',#394,#320,#321);
#271=AXIS2_PLACEMENT_3D('',#395,#322,#323);
#272=AXIS2_PLACEMENT_3D('',#399,#325,#326);
#273=AXIS2_PLACEMENT_3D('',#400,#327,#328);
#274=AXIS2_PLACEMENT_3D('',#406,#332,#333);
#275=AXIS2_PLACEMENT_3D('',#407,#334,#335);
#276=AXIS2_PLACEMENT_3D('',#409,#336,#337);
#277=AXIS2_PLACEMENT_3D('',#411,#338,#339);
#278=AXIS2_PLACEMENT_3D('',#412,#340,#341);
#279=AXIS2_PLACEMENT_3D('',#414,#342,#343);
#280=AXIS2_PLACEMENT_3D('',#416,#344,#345);
#281=AXIS2_PLACEMENT_3D('',#417,#346,#347);
#282=AXIS2_PLACEMENT_3D('',#419,#348,#349);
#283=AXIS2_PLACEMENT_3D('',#421,#350,#351);
#284=AXIS2_PLACEMENT_3D('',#422,#352,#353);
#285=AXIS2_PLACEMENT_3D('',#423,#354,#355);
#286=AXIS2_PLACEMENT_3D('',#424,#356,#357);
#287=AXIS2_PLACEMENT_3D('',#425,#358,#359);
#288=DIRECTION('',(0.,0.,1.));
#289=DIRECTION('',(1.,0.,0.));
#290=DIRECTION('',(0.877268487978452,-0.48,0.));
#291=DIRECTION('',(0.48,0.877268487978452,0.));
#292=DIRECTION('',(-0.48,-0.877268487978452,0.));
#293=DIRECTION('',(0.,0.,-1.));
#294=DIRECTION('',(-0.48,-0.877268487978452,0.));
#295=DIRECTION('',(0.,0.,-1.));
#296=DIRECTION('',(0.,0.,-1.));
#297=DIRECTION('',(-1.,0.,0.));
#298=DIRECTION('',(0.,0.,1.));
#299=DIRECTION('',(1.,0.,0.));
#300=DIRECTION('',(0.,0.,-1.));
#301=DIRECTION('',(0.,0.,1.));
#302=DIRECTION('',(1.,0.,0.));
#303=DIRECTION('',(0.877268487978452,0.48,0.));
#304=DIRECTION('',(-0.48,0.877268487978452,0.));
#305=DIRECTION('',(0.48,-0.877268487978452,0.));
#306=DIRECTION('',(0.,0.,-1.));
#307=DIRECTION('',(0.48,-0.877268487978452,0.));
#308=DIRECTION('',(0.,0.,-1.));
#309=DIRECTION('',(-1.,0.,0.));
#310=DIRECTION('',(0.,0.,1.));
#311=DIRECTION('',(1.,0.,0.));
#312=DIRECTION('',(0.,0.,-1.));
#313=DIRECTION('',(0.,0.,1.));
#314=DIRECTION('',(1.,0.,0.));
#315=DIRECTION('',(-0.877268487978452,0.48,0.));
#316=DIRECTION('',(-0.48,-0.877268487978452,0.));
#317=DIRECTION('',(0.48,0.877268487978452,0.));
#318=DIRECTION('',(0.,0.,-1.));
#319=DIRECTION('',(0.48,0.877268487978452,0.));
#320=DIRECTION('',(0.,0.,-1.));
#321=DIRECTION('',(-1.,0.,0.));
#322=DIRECTION('',(0.,0.,1.));
#323=DIRECTION('',(1.,0.,0.));
#324=DIRECTION('',(0.,0.,-1.));
#325=DIRECTION('',(0.,0.,1.));
#326=DIRECTION('',(1.,0.,0.));
#327=DIRECTION('',(-0.877268487978452,-0.48,0.));
#328=DIRECTION('',(0.48,-0.877268487978452,0.));
#329=DIRECTION('',(-0.48,0.877268487978452,0.));
#330=DIRECTION('',(0.,0.,-1.));
#331=DIRECTION('',(-0.48,0.877268487978452,0.));
#332=DIRECTION('',(0.,0.,-1.));
#333=DIRECTION('',(-1.,0.,0.));
#334=DIRECTION('',(0.,0.,1.));
#335=DIRECTION('',(1.,0.,0.));
#336=DIRECTION('',(0.,0.,1.));
#337=DIRECTION('',(1.,0.,0.));
#338=DIRECTION('',(0.,0.,-1.));
#339=DIRECTION('',(-1.,0.,0.));
#340=DIRECTION('',(0.,0.,1.));
#341=DIRECTION('',(1.,0.,0.));
#342=DIRECTION('',(0.,0.,1.));
#343=DIRECTION('',(1.,0.,0.));
#344=DIRECTION('',(0.,0.,-1.));
#345=DIRECTION('',(-1.,0.,0.));
#346=DIRECTION('',(0.,0.,1.));
#347=DIRECTION('',(1.,0.,0.));
#348=DIRECTION('',(0.,0.,1.));
#349=DIRECTION('',(1.,0.,0.));
#350=DIRECTION('',(0.,0.,-1.));
#351=DIRECTION('',(-1.,0.,0.));
#352=DIRECTION('',(0.,0.,1.));
#353=DIRECTION('',(1.,0.,0.));
#354=DIRECTION('',(0.,0.,1.));
#355=DIRECTION('',(1.,0.,0.));
#356=DIRECTION('',(0.,0.,1.));
#357=DIRECTION('',(1.,0.,0.));
#358=DIRECTION('',(0.,0.,1.));
#359=DIRECTION('',(1.,0.,0.));
#360=CARTESIAN_POINT('',(0.,0.,0.));
#361=CARTESIAN_POINT('',(-7.01814790382762,28.84,5.));
#362=CARTESIAN_POINT('',(-7.01814790382762,28.84,0.));
#363=CARTESIAN_POINT('',(-7.01814790382762,28.84,0.));
#364=CARTESIAN_POINT('',(-17.545369759569,9.6,0.));
#365=CARTESIAN_POINT('',(-17.545369759569,9.6,5.));
#366=CARTESIAN_POINT('',(-17.545369759569,9.6,5.));
#367=CARTESIAN_POINT('',(-7.01814790382762,28.84,5.));
#368=CARTESIAN_POINT('',(-7.01814790382762,28.84,5.));
#369=CARTESIAN_POINT('',(-7.01814790382762,28.84,5.));
#370=CARTESIAN_POINT('',(-2.77555756156289E-14,-8.67361737988404E-16,5.));
#371=CARTESIAN_POINT('',(-2.77555756156289E-14,-8.67361737988404E-16,0.));
#372=CARTESIAN_POINT('',(-17.5453697595691,-9.59999999999999,0.));
#373=CARTESIAN_POINT('',(-17.5453697595691,-9.59999999999999,5.));
#374=CARTESIAN_POINT('',(-17.5453697595691,-9.59999999999999,5.));
#375=CARTESIAN_POINT('',(-2.77555756156289E-14,-8.67361737988404E-16,5.));
#376=CARTESIAN_POINT('',(-17.545369759569,-9.6,5.));
#377=CARTESIAN_POINT('',(-17.545369759569,-9.6,0.));
#378=CARTESIAN_POINT('',(-7.01814790382762,-28.84,0.));
#379=CARTESIAN_POINT('',(-7.01814790382762,-28.84,5.));
#380=CARTESIAN_POINT('',(-7.01814790382762,-28.84,5.));
#381=CARTESIAN_POINT('',(-17.545369759569,-9.6,5.));
#382=CARTESIAN_POINT('',(0.,-25.,5.));
#383=CARTESIAN_POINT('',(0.,-25.,0.));
#384=CARTESIAN_POINT('',(7.01814790382762,-28.84,0.));
#385=CARTESIAN_POINT('',(7.01814790382762,-28.84,5.));
#386=CARTESIAN_POINT('',(7.01814790382762,-28.84,5.));
#387=CARTESIAN_POINT('',(0.,-25.,5.));
#388=CARTESIAN_POINT('',(7.01814790382762,-28.84,5.));
#389=CARTESIAN_POINT('',(7.01814790382762,-28.84,0.));
#390=CARTESIAN_POINT('',(17.545369759569,-9.6,0.));
#391=CARTESIAN_POINT('',(17.545369759569,-9.6,5.));
#392=CARTESIAN_POINT('',(17.545369759569,-9.6,5.));
#393=CARTESIAN_POINT('',(7.01814790382762,-28.84,5.));
#394=CARTESIAN_POINT('',(2.77555756156289E-14,8.67361737988404E-16,5.));
#395=CARTESIAN_POINT('',(2.77555756156289E-14,8.67361737988404E-16,0.));
#396=CARTESIAN_POINT('',(17.545369759569,9.6,0.));
#397=CARTESIAN_POINT('',(17.545369759569,9.6,5.));
#398=CARTESIAN_POINT('',(17.545369759569,9.6,5.));
#399=CARTESIAN_POINT('',(2.77555756156289E-14,8.67361737988404E-16,5.));
#400=CARTESIAN_POINT('',(17.545369759569,9.6,5.));
#401=CARTESIAN_POINT('',(17.545369759569,9.6,0.));
#402=CARTESIAN_POINT('',(7.01814790382762,28.84,0.));
#403=CARTESIAN_POINT('',(7.01814790382762,28.84,5.));
#404=CARTESIAN_POINT('',(7.01814790382762,28.84,5.));
#405=CARTESIAN_POINT('',(17.545369759569,9.6,5.));
#406=CARTESIAN_POINT('',(0.,-25.,5.));
#407=CARTESIAN_POINT('',(0.,-25.,5.));
#408=CARTESIAN_POINT('',(3.3,-25.,5.));
#409=CARTESIAN_POINT('',(0.,-25.,0.));
#410=CARTESIAN_POINT('',(3.3,-25.,0.));
#411=CARTESIAN_POINT('',(0.,25.,5.));
#412=CARTESIAN_POINT('',(0.,25.,5.));
#413=CARTESIAN_POINT('',(3.3,25.,5.));
#414=CARTESIAN_POINT('',(0.,25.,0.));
#415=CARTESIAN_POINT('',(3.3,25.,0.));
#416=CARTESIAN_POINT('',(0.,0.,5.));
#417=CARTESIAN_POINT('',(0.,0.,5.));
#418=CARTESIAN_POINT('',(11.05,0.,5.));
#419=CARTESIAN_POINT('',(0.,0.,0.));
#420=CARTESIAN_POINT('',(11.05,0.,0.));
#421=CARTESIAN_POINT('',(0.,25.,5.));
#422=CARTESIAN_POINT('',(0.,25.,0.));
#423=CARTESIAN_POINT('',(0.,25.,5.));
#424=CARTESIAN_POINT('',(-2.77555756156289E-14,-8.67361737988404E-16,5.));
#425=CARTESIAN_POINT('',(-2.77555756156289E-14,-8.67361737988404E-16,0.));
#426=MECHANICAL_DESIGN_GEOMETRIC_PRESENTATION_REPRESENTATION('',(#249),
#427);
#427=(
GEOMETRIC_REPRESENTATION_CONTEXT(3)
GLOBAL_UNCERTAINTY_ASSIGNED_CONTEXT((#428))
GLOBAL_UNIT_ASSIGNED_CONTEXT((#431,#430,#429))
REPRESENTATION_CONTEXT('161865 CRFBN-20/25','TOP_LEVEL_ASSEMBLY_PART')
);
#428=UNCERTAINTY_MEASURE_WITH_UNIT(LENGTH_MEASURE(0.005),#431,
'DISTANCE_ACCURACY_VALUE','Maximum Tolerance applied to model');
#429=(
NAMED_UNIT(*)
SI_UNIT($,.STERADIAN.)
SOLID_ANGLE_UNIT()
);
#430=(
NAMED_UNIT(*)
PLANE_ANGLE_UNIT()
SI_UNIT($,.RADIAN.)
);
#431=(
LENGTH_UNIT()
NAMED_UNIT(*)
SI_UNIT(.MILLI.,.METRE.)
);
#432=PRODUCT_DEFINITION_SHAPE('','',#433);
#433=PRODUCT_DEFINITION('','',#435,#434);
#434=PRODUCT_DEFINITION_CONTEXT('',#441,'design');
#435=PRODUCT_DEFINITION_FORMATION_WITH_SPECIFIED_SOURCE('','',#437,
 .NOT_KNOWN.);
#436=PRODUCT_RELATED_PRODUCT_CATEGORY('','',(#437));
#437=PRODUCT('161865 CRFBN-20/25','161865 CRFBN-20/25',
'161865 CRFBN-20/25',(#439));
#438=PRODUCT_CATEGORY('','');
#439=PRODUCT_CONTEXT('',#441,'mechanical');
#440=APPLICATION_PROTOCOL_DEFINITION('international standard',
'automotive_design',2010,#441);
#441=APPLICATION_CONTEXT(
'core data for automotive mechanical design processes');
ENDSEC;
END-ISO-10303-21;
