ISO-10303-21;
HEADER;
/* Generated by software containing ST-Developer
 * from STEP Tools, Inc. (www.steptools.com) 
 */
/* OPTION: using custom renumber hook */

FILE_DESCRIPTION(
/* description */ ('STEP AP214'),
/* implementation_level */ '2;1');

FILE_NAME(
/* name */ '162676_LFMAP-D-MAXI',
/* time_stamp */ '2024-09-03T15:23:20+02:00',
/* author */ ('License CC BY-ND 4.0'),
/* organization */ ('CADENAS'),
/* preprocessor_version */ 'ST-DEVELOPER v19.3',
/* originating_system */ 'PARTsolutions',
/* authorisation */ '  ');

FILE_SCHEMA (('AUTOMOTIVE_DESIGN {1 0 10303 214 3 1 1}'));
ENDSEC;

DATA;
#10=PROPERTY_DEFINITION_REPRESENTATION(#14,#12);
#11=PROPERTY_DEFINITION_REPRESENTATION(#15,#13);
#12=REPRESENTATION('',(#16),#746);
#13=REPRESENTATION('',(#17),#746);
#14=PROPERTY_DEFINITION('pmi validation property','',#751);
#15=PROPERTY_DEFINITION('pmi validation property','',#751);
#16=VALUE_REPRESENTATION_ITEM('number of annotations',COUNT_MEASURE(0.));
#17=VALUE_REPRESENTATION_ITEM('number of views',COUNT_MEASURE(0.));
#18=SHAPE_REPRESENTATION_RELATIONSHIP('','',#502,#19);
#19=ADVANCED_BREP_SHAPE_REPRESENTATION('',(#500),#746);
#20=TOROIDAL_SURFACE('',#536,18.18,1.2);
#21=TOROIDAL_SURFACE('',#546,20.85,1.5);
#22=TOROIDAL_SURFACE('',#550,20.85,1.5);
#23=CONICAL_SURFACE('',#520,10.5,0.436332312998583);
#24=CONICAL_SURFACE('',#524,16.58,0.785398163397448);
#25=CONICAL_SURFACE('',#528,17.08,0.785398163397456);
#26=CYLINDRICAL_SURFACE('',#506,12.75);
#27=CYLINDRICAL_SURFACE('',#510,14.75);
#28=CYLINDRICAL_SURFACE('',#514,11.5);
#29=CYLINDRICAL_SURFACE('',#518,10.5);
#30=CYLINDRICAL_SURFACE('',#526,17.08);
#31=CYLINDRICAL_SURFACE('',#530,18.);
#32=CYLINDRICAL_SURFACE('',#534,17.08);
#33=CYLINDRICAL_SURFACE('',#538,17.08);
#34=CYLINDRICAL_SURFACE('',#542,20.5);
#35=CYLINDRICAL_SURFACE('',#548,22.35);
#36=CYLINDRICAL_SURFACE('',#554,20.5);
#37=ORIENTED_EDGE('',*,*,#89,.F.);
#38=ORIENTED_EDGE('',*,*,#90,.F.);
#39=ORIENTED_EDGE('',*,*,#89,.T.);
#40=ORIENTED_EDGE('',*,*,#91,.F.);
#41=ORIENTED_EDGE('',*,*,#90,.T.);
#42=ORIENTED_EDGE('',*,*,#92,.F.);
#43=ORIENTED_EDGE('',*,*,#91,.T.);
#44=ORIENTED_EDGE('',*,*,#93,.F.);
#45=ORIENTED_EDGE('',*,*,#92,.T.);
#46=ORIENTED_EDGE('',*,*,#94,.F.);
#47=ORIENTED_EDGE('',*,*,#93,.T.);
#48=ORIENTED_EDGE('',*,*,#95,.F.);
#49=ORIENTED_EDGE('',*,*,#94,.T.);
#50=ORIENTED_EDGE('',*,*,#96,.F.);
#51=ORIENTED_EDGE('',*,*,#95,.T.);
#52=ORIENTED_EDGE('',*,*,#97,.F.);
#53=ORIENTED_EDGE('',*,*,#96,.T.);
#54=ORIENTED_EDGE('',*,*,#98,.F.);
#55=ORIENTED_EDGE('',*,*,#97,.T.);
#56=ORIENTED_EDGE('',*,*,#99,.F.);
#57=ORIENTED_EDGE('',*,*,#98,.T.);
#58=ORIENTED_EDGE('',*,*,#100,.F.);
#59=ORIENTED_EDGE('',*,*,#99,.T.);
#60=ORIENTED_EDGE('',*,*,#101,.F.);
#61=ORIENTED_EDGE('',*,*,#100,.T.);
#62=ORIENTED_EDGE('',*,*,#102,.F.);
#63=ORIENTED_EDGE('',*,*,#101,.T.);
#64=ORIENTED_EDGE('',*,*,#103,.F.);
#65=ORIENTED_EDGE('',*,*,#102,.T.);
#66=ORIENTED_EDGE('',*,*,#104,.F.);
#67=ORIENTED_EDGE('',*,*,#103,.T.);
#68=ORIENTED_EDGE('',*,*,#104,.T.);
#69=ORIENTED_EDGE('',*,*,#105,.F.);
#70=ORIENTED_EDGE('',*,*,#106,.F.);
#71=ORIENTED_EDGE('',*,*,#105,.T.);
#72=ORIENTED_EDGE('',*,*,#107,.F.);
#73=ORIENTED_EDGE('',*,*,#106,.T.);
#74=ORIENTED_EDGE('',*,*,#108,.F.);
#75=ORIENTED_EDGE('',*,*,#107,.T.);
#76=ORIENTED_EDGE('',*,*,#109,.F.);
#77=ORIENTED_EDGE('',*,*,#108,.T.);
#78=ORIENTED_EDGE('',*,*,#109,.T.);
#79=ORIENTED_EDGE('',*,*,#110,.F.);
#80=ORIENTED_EDGE('',*,*,#111,.F.);
#81=ORIENTED_EDGE('',*,*,#110,.T.);
#82=ORIENTED_EDGE('',*,*,#111,.T.);
#83=ORIENTED_EDGE('',*,*,#112,.F.);
#84=ORIENTED_EDGE('',*,*,#113,.F.);
#85=ORIENTED_EDGE('',*,*,#112,.T.);
#86=ORIENTED_EDGE('',*,*,#114,.F.);
#87=ORIENTED_EDGE('',*,*,#113,.T.);
#88=ORIENTED_EDGE('',*,*,#114,.T.);
#89=EDGE_CURVE('',#115,#115,#141,.T.);
#90=EDGE_CURVE('',#116,#116,#142,.T.);
#91=EDGE_CURVE('',#117,#117,#143,.T.);
#92=EDGE_CURVE('',#118,#118,#144,.T.);
#93=EDGE_CURVE('',#119,#119,#145,.T.);
#94=EDGE_CURVE('',#120,#120,#146,.T.);
#95=EDGE_CURVE('',#121,#121,#147,.T.);
#96=EDGE_CURVE('',#122,#122,#148,.T.);
#97=EDGE_CURVE('',#123,#123,#149,.T.);
#98=EDGE_CURVE('',#124,#124,#150,.T.);
#99=EDGE_CURVE('',#125,#125,#151,.T.);
#100=EDGE_CURVE('',#126,#126,#152,.T.);
#101=EDGE_CURVE('',#127,#127,#153,.T.);
#102=EDGE_CURVE('',#128,#128,#154,.T.);
#103=EDGE_CURVE('',#129,#129,#155,.T.);
#104=EDGE_CURVE('',#130,#130,#156,.T.);
#105=EDGE_CURVE('',#131,#131,#157,.T.);
#106=EDGE_CURVE('',#132,#132,#158,.T.);
#107=EDGE_CURVE('',#133,#133,#159,.T.);
#108=EDGE_CURVE('',#134,#134,#160,.T.);
#109=EDGE_CURVE('',#135,#135,#161,.T.);
#110=EDGE_CURVE('',#136,#136,#162,.T.);
#111=EDGE_CURVE('',#137,#137,#163,.T.);
#112=EDGE_CURVE('',#138,#138,#164,.T.);
#113=EDGE_CURVE('',#139,#139,#165,.T.);
#114=EDGE_CURVE('',#140,#140,#166,.T.);
#115=VERTEX_POINT('',#668);
#116=VERTEX_POINT('',#671);
#117=VERTEX_POINT('',#674);
#118=VERTEX_POINT('',#677);
#119=VERTEX_POINT('',#680);
#120=VERTEX_POINT('',#683);
#121=VERTEX_POINT('',#686);
#122=VERTEX_POINT('',#689);
#123=VERTEX_POINT('',#692);
#124=VERTEX_POINT('',#695);
#125=VERTEX_POINT('',#698);
#126=VERTEX_POINT('',#701);
#127=VERTEX_POINT('',#704);
#128=VERTEX_POINT('',#707);
#129=VERTEX_POINT('',#710);
#130=VERTEX_POINT('',#713);
#131=VERTEX_POINT('',#716);
#132=VERTEX_POINT('',#719);
#133=VERTEX_POINT('',#722);
#134=VERTEX_POINT('',#725);
#135=VERTEX_POINT('',#728);
#136=VERTEX_POINT('',#731);
#137=VERTEX_POINT('',#734);
#138=VERTEX_POINT('',#737);
#139=VERTEX_POINT('',#740);
#140=VERTEX_POINT('',#743);
#141=CIRCLE('',#505,12.75);
#142=CIRCLE('',#507,12.75);
#143=CIRCLE('',#509,14.75);
#144=CIRCLE('',#511,14.75);
#145=CIRCLE('',#513,11.5);
#146=CIRCLE('',#515,11.5);
#147=CIRCLE('',#517,10.5);
#148=CIRCLE('',#519,10.5);
#149=CIRCLE('',#521,14.75);
#150=CIRCLE('',#523,16.58);
#151=CIRCLE('',#525,17.08);
#152=CIRCLE('',#527,17.08);
#153=CIRCLE('',#529,18.);
#154=CIRCLE('',#531,18.);
#155=CIRCLE('',#533,17.08);
#156=CIRCLE('',#535,17.08);
#157=CIRCLE('',#537,17.08);
#158=CIRCLE('',#539,17.08);
#159=CIRCLE('',#541,20.5);
#160=CIRCLE('',#543,20.5);
#161=CIRCLE('',#545,20.85);
#162=CIRCLE('',#547,22.35);
#163=CIRCLE('',#549,22.35);
#164=CIRCLE('',#551,20.85);
#165=CIRCLE('',#553,20.5);
#166=CIRCLE('',#555,20.5);
#167=EDGE_LOOP('',(#37));
#168=EDGE_LOOP('',(#38));
#169=EDGE_LOOP('',(#39));
#170=EDGE_LOOP('',(#40));
#171=EDGE_LOOP('',(#41));
#172=EDGE_LOOP('',(#42));
#173=EDGE_LOOP('',(#43));
#174=EDGE_LOOP('',(#44));
#175=EDGE_LOOP('',(#45));
#176=EDGE_LOOP('',(#46));
#177=EDGE_LOOP('',(#47));
#178=EDGE_LOOP('',(#48));
#179=EDGE_LOOP('',(#49));
#180=EDGE_LOOP('',(#50));
#181=EDGE_LOOP('',(#51));
#182=EDGE_LOOP('',(#52));
#183=EDGE_LOOP('',(#53));
#184=EDGE_LOOP('',(#54));
#185=EDGE_LOOP('',(#55));
#186=EDGE_LOOP('',(#56));
#187=EDGE_LOOP('',(#57));
#188=EDGE_LOOP('',(#58));
#189=EDGE_LOOP('',(#59));
#190=EDGE_LOOP('',(#60));
#191=EDGE_LOOP('',(#61));
#192=EDGE_LOOP('',(#62));
#193=EDGE_LOOP('',(#63));
#194=EDGE_LOOP('',(#64));
#195=EDGE_LOOP('',(#65));
#196=EDGE_LOOP('',(#66));
#197=EDGE_LOOP('',(#67));
#198=EDGE_LOOP('',(#68));
#199=EDGE_LOOP('',(#69));
#200=EDGE_LOOP('',(#70));
#201=EDGE_LOOP('',(#71));
#202=EDGE_LOOP('',(#72));
#203=EDGE_LOOP('',(#73));
#204=EDGE_LOOP('',(#74));
#205=EDGE_LOOP('',(#75));
#206=EDGE_LOOP('',(#76));
#207=EDGE_LOOP('',(#77));
#208=EDGE_LOOP('',(#78));
#209=EDGE_LOOP('',(#79));
#210=EDGE_LOOP('',(#80));
#211=EDGE_LOOP('',(#81));
#212=EDGE_LOOP('',(#82));
#213=EDGE_LOOP('',(#83));
#214=EDGE_LOOP('',(#84));
#215=EDGE_LOOP('',(#85));
#216=EDGE_LOOP('',(#86));
#217=EDGE_LOOP('',(#87));
#218=EDGE_LOOP('',(#88));
#219=FACE_BOUND('',#167,.T.);
#220=FACE_BOUND('',#168,.T.);
#221=FACE_BOUND('',#169,.T.);
#222=FACE_BOUND('',#170,.T.);
#223=FACE_BOUND('',#171,.T.);
#224=FACE_BOUND('',#172,.T.);
#225=FACE_BOUND('',#173,.T.);
#226=FACE_BOUND('',#174,.T.);
#227=FACE_BOUND('',#175,.T.);
#228=FACE_BOUND('',#176,.T.);
#229=FACE_BOUND('',#177,.T.);
#230=FACE_BOUND('',#178,.T.);
#231=FACE_BOUND('',#179,.T.);
#232=FACE_BOUND('',#180,.T.);
#233=FACE_BOUND('',#181,.T.);
#234=FACE_BOUND('',#182,.T.);
#235=FACE_BOUND('',#183,.T.);
#236=FACE_BOUND('',#184,.T.);
#237=FACE_BOUND('',#185,.T.);
#238=FACE_BOUND('',#186,.T.);
#239=FACE_BOUND('',#187,.T.);
#240=FACE_BOUND('',#188,.T.);
#241=FACE_BOUND('',#189,.T.);
#242=FACE_BOUND('',#190,.T.);
#243=FACE_BOUND('',#191,.T.);
#244=FACE_BOUND('',#192,.T.);
#245=FACE_BOUND('',#193,.T.);
#246=FACE_BOUND('',#194,.T.);
#247=FACE_BOUND('',#195,.T.);
#248=FACE_BOUND('',#196,.T.);
#249=FACE_BOUND('',#197,.T.);
#250=FACE_BOUND('',#198,.T.);
#251=FACE_BOUND('',#199,.T.);
#252=FACE_BOUND('',#200,.T.);
#253=FACE_BOUND('',#201,.T.);
#254=FACE_BOUND('',#202,.T.);
#255=FACE_BOUND('',#203,.T.);
#256=FACE_BOUND('',#204,.T.);
#257=FACE_BOUND('',#205,.T.);
#258=FACE_BOUND('',#206,.T.);
#259=FACE_BOUND('',#207,.T.);
#260=FACE_BOUND('',#208,.T.);
#261=FACE_BOUND('',#209,.T.);
#262=FACE_BOUND('',#210,.T.);
#263=FACE_BOUND('',#211,.T.);
#264=FACE_BOUND('',#212,.T.);
#265=FACE_BOUND('',#213,.T.);
#266=FACE_BOUND('',#214,.T.);
#267=FACE_BOUND('',#215,.T.);
#268=FACE_BOUND('',#216,.T.);
#269=FACE_BOUND('',#217,.T.);
#270=FACE_BOUND('',#218,.T.);
#271=PLANE('',#504);
#272=PLANE('',#508);
#273=PLANE('',#512);
#274=PLANE('',#516);
#275=PLANE('',#522);
#276=PLANE('',#532);
#277=PLANE('',#540);
#278=PLANE('',#544);
#279=PLANE('',#552);
#280=PLANE('',#556);
#281=STYLED_ITEM('',(#308),#472);
#282=STYLED_ITEM('',(#309),#473);
#283=STYLED_ITEM('',(#310),#474);
#284=STYLED_ITEM('',(#311),#475);
#285=STYLED_ITEM('',(#312),#476);
#286=STYLED_ITEM('',(#313),#477);
#287=STYLED_ITEM('',(#314),#478);
#288=STYLED_ITEM('',(#315),#479);
#289=STYLED_ITEM('',(#316),#480);
#290=STYLED_ITEM('',(#317),#481);
#291=STYLED_ITEM('',(#318),#482);
#292=STYLED_ITEM('',(#319),#483);
#293=STYLED_ITEM('',(#320),#484);
#294=STYLED_ITEM('',(#321),#485);
#295=STYLED_ITEM('',(#322),#486);
#296=STYLED_ITEM('',(#323),#487);
#297=STYLED_ITEM('',(#324),#488);
#298=STYLED_ITEM('',(#325),#489);
#299=STYLED_ITEM('',(#326),#490);
#300=STYLED_ITEM('',(#327),#491);
#301=STYLED_ITEM('',(#328),#492);
#302=STYLED_ITEM('',(#329),#493);
#303=STYLED_ITEM('',(#330),#494);
#304=STYLED_ITEM('',(#331),#495);
#305=STYLED_ITEM('',(#332),#496);
#306=STYLED_ITEM('',(#333),#497);
#307=STYLED_ITEM('',(#334),#498);
#308=PRESENTATION_STYLE_ASSIGNMENT((#335));
#309=PRESENTATION_STYLE_ASSIGNMENT((#336));
#310=PRESENTATION_STYLE_ASSIGNMENT((#337));
#311=PRESENTATION_STYLE_ASSIGNMENT((#338));
#312=PRESENTATION_STYLE_ASSIGNMENT((#339));
#313=PRESENTATION_STYLE_ASSIGNMENT((#340));
#314=PRESENTATION_STYLE_ASSIGNMENT((#341));
#315=PRESENTATION_STYLE_ASSIGNMENT((#342));
#316=PRESENTATION_STYLE_ASSIGNMENT((#343));
#317=PRESENTATION_STYLE_ASSIGNMENT((#344));
#318=PRESENTATION_STYLE_ASSIGNMENT((#345));
#319=PRESENTATION_STYLE_ASSIGNMENT((#346));
#320=PRESENTATION_STYLE_ASSIGNMENT((#347));
#321=PRESENTATION_STYLE_ASSIGNMENT((#348));
#322=PRESENTATION_STYLE_ASSIGNMENT((#349));
#323=PRESENTATION_STYLE_ASSIGNMENT((#350));
#324=PRESENTATION_STYLE_ASSIGNMENT((#351));
#325=PRESENTATION_STYLE_ASSIGNMENT((#352));
#326=PRESENTATION_STYLE_ASSIGNMENT((#353));
#327=PRESENTATION_STYLE_ASSIGNMENT((#354));
#328=PRESENTATION_STYLE_ASSIGNMENT((#355));
#329=PRESENTATION_STYLE_ASSIGNMENT((#356));
#330=PRESENTATION_STYLE_ASSIGNMENT((#357));
#331=PRESENTATION_STYLE_ASSIGNMENT((#358));
#332=PRESENTATION_STYLE_ASSIGNMENT((#359));
#333=PRESENTATION_STYLE_ASSIGNMENT((#360));
#334=PRESENTATION_STYLE_ASSIGNMENT((#361));
#335=SURFACE_STYLE_USAGE(.BOTH.,#362);
#336=SURFACE_STYLE_USAGE(.BOTH.,#363);
#337=SURFACE_STYLE_USAGE(.BOTH.,#364);
#338=SURFACE_STYLE_USAGE(.BOTH.,#365);
#339=SURFACE_STYLE_USAGE(.BOTH.,#366);
#340=SURFACE_STYLE_USAGE(.BOTH.,#367);
#341=SURFACE_STYLE_USAGE(.BOTH.,#368);
#342=SURFACE_STYLE_USAGE(.BOTH.,#369);
#343=SURFACE_STYLE_USAGE(.BOTH.,#370);
#344=SURFACE_STYLE_USAGE(.BOTH.,#371);
#345=SURFACE_STYLE_USAGE(.BOTH.,#372);
#346=SURFACE_STYLE_USAGE(.BOTH.,#373);
#347=SURFACE_STYLE_USAGE(.BOTH.,#374);
#348=SURFACE_STYLE_USAGE(.BOTH.,#375);
#349=SURFACE_STYLE_USAGE(.BOTH.,#376);
#350=SURFACE_STYLE_USAGE(.BOTH.,#377);
#351=SURFACE_STYLE_USAGE(.BOTH.,#378);
#352=SURFACE_STYLE_USAGE(.BOTH.,#379);
#353=SURFACE_STYLE_USAGE(.BOTH.,#380);
#354=SURFACE_STYLE_USAGE(.BOTH.,#381);
#355=SURFACE_STYLE_USAGE(.BOTH.,#382);
#356=SURFACE_STYLE_USAGE(.BOTH.,#383);
#357=SURFACE_STYLE_USAGE(.BOTH.,#384);
#358=SURFACE_STYLE_USAGE(.BOTH.,#385);
#359=SURFACE_STYLE_USAGE(.BOTH.,#386);
#360=SURFACE_STYLE_USAGE(.BOTH.,#387);
#361=SURFACE_STYLE_USAGE(.BOTH.,#388);
#362=SURFACE_SIDE_STYLE('',(#389));
#363=SURFACE_SIDE_STYLE('',(#390));
#364=SURFACE_SIDE_STYLE('',(#391));
#365=SURFACE_SIDE_STYLE('',(#392));
#366=SURFACE_SIDE_STYLE('',(#393));
#367=SURFACE_SIDE_STYLE('',(#394));
#368=SURFACE_SIDE_STYLE('',(#395));
#369=SURFACE_SIDE_STYLE('',(#396));
#370=SURFACE_SIDE_STYLE('',(#397));
#371=SURFACE_SIDE_STYLE('',(#398));
#372=SURFACE_SIDE_STYLE('',(#399));
#373=SURFACE_SIDE_STYLE('',(#400));
#374=SURFACE_SIDE_STYLE('',(#401));
#375=SURFACE_SIDE_STYLE('',(#402));
#376=SURFACE_SIDE_STYLE('',(#403));
#377=SURFACE_SIDE_STYLE('',(#404));
#378=SURFACE_SIDE_STYLE('',(#405));
#379=SURFACE_SIDE_STYLE('',(#406));
#380=SURFACE_SIDE_STYLE('',(#407));
#381=SURFACE_SIDE_STYLE('',(#408));
#382=SURFACE_SIDE_STYLE('',(#409));
#383=SURFACE_SIDE_STYLE('',(#410));
#384=SURFACE_SIDE_STYLE('',(#411));
#385=SURFACE_SIDE_STYLE('',(#412));
#386=SURFACE_SIDE_STYLE('',(#413));
#387=SURFACE_SIDE_STYLE('',(#414));
#388=SURFACE_SIDE_STYLE('',(#415));
#389=SURFACE_STYLE_FILL_AREA(#416);
#390=SURFACE_STYLE_FILL_AREA(#417);
#391=SURFACE_STYLE_FILL_AREA(#418);
#392=SURFACE_STYLE_FILL_AREA(#419);
#393=SURFACE_STYLE_FILL_AREA(#420);
#394=SURFACE_STYLE_FILL_AREA(#421);
#395=SURFACE_STYLE_FILL_AREA(#422);
#396=SURFACE_STYLE_FILL_AREA(#423);
#397=SURFACE_STYLE_FILL_AREA(#424);
#398=SURFACE_STYLE_FILL_AREA(#425);
#399=SURFACE_STYLE_FILL_AREA(#426);
#400=SURFACE_STYLE_FILL_AREA(#427);
#401=SURFACE_STYLE_FILL_AREA(#428);
#402=SURFACE_STYLE_FILL_AREA(#429);
#403=SURFACE_STYLE_FILL_AREA(#430);
#404=SURFACE_STYLE_FILL_AREA(#431);
#405=SURFACE_STYLE_FILL_AREA(#432);
#406=SURFACE_STYLE_FILL_AREA(#433);
#407=SURFACE_STYLE_FILL_AREA(#434);
#408=SURFACE_STYLE_FILL_AREA(#435);
#409=SURFACE_STYLE_FILL_AREA(#436);
#410=SURFACE_STYLE_FILL_AREA(#437);
#411=SURFACE_STYLE_FILL_AREA(#438);
#412=SURFACE_STYLE_FILL_AREA(#439);
#413=SURFACE_STYLE_FILL_AREA(#440);
#414=SURFACE_STYLE_FILL_AREA(#441);
#415=SURFACE_STYLE_FILL_AREA(#442);
#416=FILL_AREA_STYLE('',(#443));
#417=FILL_AREA_STYLE('',(#444));
#418=FILL_AREA_STYLE('',(#445));
#419=FILL_AREA_STYLE('',(#446));
#420=FILL_AREA_STYLE('',(#447));
#421=FILL_AREA_STYLE('',(#448));
#422=FILL_AREA_STYLE('',(#449));
#423=FILL_AREA_STYLE('',(#450));
#424=FILL_AREA_STYLE('',(#451));
#425=FILL_AREA_STYLE('',(#452));
#426=FILL_AREA_STYLE('',(#453));
#427=FILL_AREA_STYLE('',(#454));
#428=FILL_AREA_STYLE('',(#455));
#429=FILL_AREA_STYLE('',(#456));
#430=FILL_AREA_STYLE('',(#457));
#431=FILL_AREA_STYLE('',(#458));
#432=FILL_AREA_STYLE('',(#459));
#433=FILL_AREA_STYLE('',(#460));
#434=FILL_AREA_STYLE('',(#461));
#435=FILL_AREA_STYLE('',(#462));
#436=FILL_AREA_STYLE('',(#463));
#437=FILL_AREA_STYLE('',(#464));
#438=FILL_AREA_STYLE('',(#465));
#439=FILL_AREA_STYLE('',(#466));
#440=FILL_AREA_STYLE('',(#467));
#441=FILL_AREA_STYLE('',(#468));
#442=FILL_AREA_STYLE('',(#469));
#443=FILL_AREA_STYLE_COLOUR('',#470);
#444=FILL_AREA_STYLE_COLOUR('',#470);
#445=FILL_AREA_STYLE_COLOUR('',#470);
#446=FILL_AREA_STYLE_COLOUR('',#470);
#447=FILL_AREA_STYLE_COLOUR('',#470);
#448=FILL_AREA_STYLE_COLOUR('',#470);
#449=FILL_AREA_STYLE_COLOUR('',#470);
#450=FILL_AREA_STYLE_COLOUR('',#470);
#451=FILL_AREA_STYLE_COLOUR('',#470);
#452=FILL_AREA_STYLE_COLOUR('',#470);
#453=FILL_AREA_STYLE_COLOUR('',#470);
#454=FILL_AREA_STYLE_COLOUR('',#470);
#455=FILL_AREA_STYLE_COLOUR('',#470);
#456=FILL_AREA_STYLE_COLOUR('',#470);
#457=FILL_AREA_STYLE_COLOUR('',#470);
#458=FILL_AREA_STYLE_COLOUR('',#470);
#459=FILL_AREA_STYLE_COLOUR('',#470);
#460=FILL_AREA_STYLE_COLOUR('',#470);
#461=FILL_AREA_STYLE_COLOUR('',#470);
#462=FILL_AREA_STYLE_COLOUR('',#470);
#463=FILL_AREA_STYLE_COLOUR('',#470);
#464=FILL_AREA_STYLE_COLOUR('',#471);
#465=FILL_AREA_STYLE_COLOUR('',#471);
#466=FILL_AREA_STYLE_COLOUR('',#471);
#467=FILL_AREA_STYLE_COLOUR('',#470);
#468=FILL_AREA_STYLE_COLOUR('',#470);
#469=FILL_AREA_STYLE_COLOUR('',#470);
#470=COLOUR_RGB('',0.119999997317791,0.119999997317791,0.119999997317791);
#471=COLOUR_RGB('',0.,0.60000002384186,1.);
#472=ADVANCED_FACE('',(#219),#271,.F.);
#473=ADVANCED_FACE('',(#220,#221),#26,.T.);
#474=ADVANCED_FACE('',(#222,#223),#272,.F.);
#475=ADVANCED_FACE('',(#224,#225),#27,.F.);
#476=ADVANCED_FACE('',(#226,#227),#273,.F.);
#477=ADVANCED_FACE('',(#228,#229),#28,.T.);
#478=ADVANCED_FACE('',(#230,#231),#274,.F.);
#479=ADVANCED_FACE('',(#232,#233),#29,.F.);
#480=ADVANCED_FACE('',(#234,#235),#23,.F.);
#481=ADVANCED_FACE('',(#236,#237),#275,.F.);
#482=ADVANCED_FACE('',(#238,#239),#24,.T.);
#483=ADVANCED_FACE('',(#240,#241),#30,.T.);
#484=ADVANCED_FACE('',(#242,#243),#25,.T.);
#485=ADVANCED_FACE('',(#244,#245),#31,.T.);
#486=ADVANCED_FACE('',(#246,#247),#276,.F.);
#487=ADVANCED_FACE('',(#248,#249),#32,.T.);
#488=ADVANCED_FACE('',(#250,#251),#20,.T.);
#489=ADVANCED_FACE('',(#252,#253),#33,.T.);
#490=ADVANCED_FACE('',(#254,#255),#277,.F.);
#491=ADVANCED_FACE('',(#256,#257),#34,.T.);
#492=ADVANCED_FACE('',(#258,#259),#278,.F.);
#493=ADVANCED_FACE('',(#260,#261),#21,.T.);
#494=ADVANCED_FACE('',(#262,#263),#35,.T.);
#495=ADVANCED_FACE('',(#264,#265),#22,.T.);
#496=ADVANCED_FACE('',(#266,#267),#279,.F.);
#497=ADVANCED_FACE('',(#268,#269),#36,.T.);
#498=ADVANCED_FACE('',(#270),#280,.F.);
#499=CLOSED_SHELL('',(#472,#473,#474,#475,#476,#477,#478,#479,#480,#481,
#482,#483,#484,#485,#486,#487,#488,#489,#490,#491,#492,#493,#494,#495,#496,
#497,#498));
#500=MANIFOLD_SOLID_BREP('162676 LFMAP-D-MAXI',#499);
#501=SHAPE_DEFINITION_REPRESENTATION(#751,#502);
#502=SHAPE_REPRESENTATION('162676 LFMAP-D-MAXI',(#503),#746);
#503=AXIS2_PLACEMENT_3D('',#665,#557,#558);
#504=AXIS2_PLACEMENT_3D('',#666,#559,#560);
#505=AXIS2_PLACEMENT_3D('',#667,#561,#562);
#506=AXIS2_PLACEMENT_3D('',#669,#563,#564);
#507=AXIS2_PLACEMENT_3D('',#670,#565,#566);
#508=AXIS2_PLACEMENT_3D('',#672,#567,#568);
#509=AXIS2_PLACEMENT_3D('',#673,#569,#570);
#510=AXIS2_PLACEMENT_3D('',#675,#571,#572);
#511=AXIS2_PLACEMENT_3D('',#676,#573,#574);
#512=AXIS2_PLACEMENT_3D('',#678,#575,#576);
#513=AXIS2_PLACEMENT_3D('',#679,#577,#578);
#514=AXIS2_PLACEMENT_3D('',#681,#579,#580);
#515=AXIS2_PLACEMENT_3D('',#682,#581,#582);
#516=AXIS2_PLACEMENT_3D('',#684,#583,#584);
#517=AXIS2_PLACEMENT_3D('',#685,#585,#586);
#518=AXIS2_PLACEMENT_3D('',#687,#587,#588);
#519=AXIS2_PLACEMENT_3D('',#688,#589,#590);
#520=AXIS2_PLACEMENT_3D('',#690,#591,#592);
#521=AXIS2_PLACEMENT_3D('',#691,#593,#594);
#522=AXIS2_PLACEMENT_3D('',#693,#595,#596);
#523=AXIS2_PLACEMENT_3D('',#694,#597,#598);
#524=AXIS2_PLACEMENT_3D('',#696,#599,#600);
#525=AXIS2_PLACEMENT_3D('',#697,#601,#602);
#526=AXIS2_PLACEMENT_3D('',#699,#603,#604);
#527=AXIS2_PLACEMENT_3D('',#700,#605,#606);
#528=AXIS2_PLACEMENT_3D('',#702,#607,#608);
#529=AXIS2_PLACEMENT_3D('',#703,#609,#610);
#530=AXIS2_PLACEMENT_3D('',#705,#611,#612);
#531=AXIS2_PLACEMENT_3D('',#706,#613,#614);
#532=AXIS2_PLACEMENT_3D('',#708,#615,#616);
#533=AXIS2_PLACEMENT_3D('',#709,#617,#618);
#534=AXIS2_PLACEMENT_3D('',#711,#619,#620);
#535=AXIS2_PLACEMENT_3D('',#712,#621,#622);
#536=AXIS2_PLACEMENT_3D('',#714,#623,#624);
#537=AXIS2_PLACEMENT_3D('',#715,#625,#626);
#538=AXIS2_PLACEMENT_3D('',#717,#627,#628);
#539=AXIS2_PLACEMENT_3D('',#718,#629,#630);
#540=AXIS2_PLACEMENT_3D('',#720,#631,#632);
#541=AXIS2_PLACEMENT_3D('',#721,#633,#634);
#542=AXIS2_PLACEMENT_3D('',#723,#635,#636);
#543=AXIS2_PLACEMENT_3D('',#724,#637,#638);
#544=AXIS2_PLACEMENT_3D('',#726,#639,#640);
#545=AXIS2_PLACEMENT_3D('',#727,#641,#642);
#546=AXIS2_PLACEMENT_3D('',#729,#643,#644);
#547=AXIS2_PLACEMENT_3D('',#730,#645,#646);
#548=AXIS2_PLACEMENT_3D('',#732,#647,#648);
#549=AXIS2_PLACEMENT_3D('',#733,#649,#650);
#550=AXIS2_PLACEMENT_3D('',#735,#651,#652);
#551=AXIS2_PLACEMENT_3D('',#736,#653,#654);
#552=AXIS2_PLACEMENT_3D('',#738,#655,#656);
#553=AXIS2_PLACEMENT_3D('',#739,#657,#658);
#554=AXIS2_PLACEMENT_3D('',#741,#659,#660);
#555=AXIS2_PLACEMENT_3D('',#742,#661,#662);
#556=AXIS2_PLACEMENT_3D('',#744,#663,#664);
#557=DIRECTION('',(0.,0.,1.));
#558=DIRECTION('',(1.,0.,0.));
#559=DIRECTION('',(0.,-1.,0.));
#560=DIRECTION('',(0.,0.,-1.));
#561=DIRECTION('',(0.,-1.,0.));
#562=DIRECTION('',(0.,0.,-1.));
#563=DIRECTION('',(0.,-1.,0.));
#564=DIRECTION('',(0.,0.,-1.));
#565=DIRECTION('',(0.,-1.,0.));
#566=DIRECTION('',(0.,0.,-1.));
#567=DIRECTION('',(0.,-1.,0.));
#568=DIRECTION('',(0.,0.,-1.));
#569=DIRECTION('',(0.,-1.,0.));
#570=DIRECTION('',(0.,0.,-1.));
#571=DIRECTION('',(0.,-1.,0.));
#572=DIRECTION('',(0.,0.,-1.));
#573=DIRECTION('',(0.,-1.,0.));
#574=DIRECTION('',(0.,0.,-1.));
#575=DIRECTION('',(0.,1.,0.));
#576=DIRECTION('',(0.,0.,1.));
#577=DIRECTION('',(0.,-1.,0.));
#578=DIRECTION('',(0.,0.,-1.));
#579=DIRECTION('',(0.,-1.,0.));
#580=DIRECTION('',(0.,0.,-1.));
#581=DIRECTION('',(0.,-1.,0.));
#582=DIRECTION('',(0.,0.,-1.));
#583=DIRECTION('',(0.,1.,0.));
#584=DIRECTION('',(0.,0.,1.));
#585=DIRECTION('',(0.,-1.,0.));
#586=DIRECTION('',(0.,0.,-1.));
#587=DIRECTION('',(0.,-1.,0.));
#588=DIRECTION('',(0.,0.,-1.));
#589=DIRECTION('',(0.,-1.,0.));
#590=DIRECTION('',(0.,0.,-1.));
#591=DIRECTION('',(0.,1.,0.));
#592=DIRECTION('',(0.,0.,1.));
#593=DIRECTION('',(0.,-1.,0.));
#594=DIRECTION('',(0.,0.,-1.));
#595=DIRECTION('',(0.,-1.,0.));
#596=DIRECTION('',(0.,0.,-1.));
#597=DIRECTION('',(0.,-1.,0.));
#598=DIRECTION('',(0.,0.,-1.));
#599=DIRECTION('',(0.,-1.,0.));
#600=DIRECTION('',(0.,0.,-1.));
#601=DIRECTION('',(0.,-1.,0.));
#602=DIRECTION('',(0.,0.,-1.));
#603=DIRECTION('',(0.,-1.,0.));
#604=DIRECTION('',(0.,0.,-1.));
#605=DIRECTION('',(0.,-1.,0.));
#606=DIRECTION('',(0.,0.,-1.));
#607=DIRECTION('',(0.,-1.,0.));
#608=DIRECTION('',(0.,0.,-1.));
#609=DIRECTION('',(0.,-1.,0.));
#610=DIRECTION('',(0.,0.,-1.));
#611=DIRECTION('',(0.,-1.,0.));
#612=DIRECTION('',(0.,0.,-1.));
#613=DIRECTION('',(0.,-1.,0.));
#614=DIRECTION('',(0.,0.,-1.));
#615=DIRECTION('',(0.,1.,0.));
#616=DIRECTION('',(0.,0.,1.));
#617=DIRECTION('',(0.,-1.,0.));
#618=DIRECTION('',(0.,0.,-1.));
#619=DIRECTION('',(0.,-1.,0.));
#620=DIRECTION('',(0.,0.,-1.));
#621=DIRECTION('',(0.,-1.,0.));
#622=DIRECTION('',(0.,0.,-1.));
#623=DIRECTION('',(0.,-1.,0.));
#624=DIRECTION('',(0.,0.,-1.));
#625=DIRECTION('',(0.,-1.,0.));
#626=DIRECTION('',(0.,0.,-1.));
#627=DIRECTION('',(0.,-1.,0.));
#628=DIRECTION('',(0.,0.,-1.));
#629=DIRECTION('',(0.,-1.,0.));
#630=DIRECTION('',(0.,0.,-1.));
#631=DIRECTION('',(0.,-1.,0.));
#632=DIRECTION('',(0.,0.,-1.));
#633=DIRECTION('',(0.,-1.,0.));
#634=DIRECTION('',(0.,0.,-1.));
#635=DIRECTION('',(0.,-1.,0.));
#636=DIRECTION('',(0.,0.,-1.));
#637=DIRECTION('',(0.,-1.,0.));
#638=DIRECTION('',(0.,0.,-1.));
#639=DIRECTION('',(0.,-1.,0.));
#640=DIRECTION('',(0.,0.,-1.));
#641=DIRECTION('',(0.,-1.,0.));
#642=DIRECTION('',(0.,0.,-1.));
#643=DIRECTION('',(0.,-1.,0.));
#644=DIRECTION('',(0.,0.,-1.));
#645=DIRECTION('',(0.,-1.,0.));
#646=DIRECTION('',(0.,0.,-1.));
#647=DIRECTION('',(0.,-1.,0.));
#648=DIRECTION('',(0.,0.,-1.));
#649=DIRECTION('',(0.,-1.,0.));
#650=DIRECTION('',(0.,0.,-1.));
#651=DIRECTION('',(0.,-1.,0.));
#652=DIRECTION('',(0.,0.,-1.));
#653=DIRECTION('',(0.,-1.,0.));
#654=DIRECTION('',(0.,0.,-1.));
#655=DIRECTION('',(0.,1.,0.));
#656=DIRECTION('',(0.,0.,1.));
#657=DIRECTION('',(0.,-1.,0.));
#658=DIRECTION('',(0.,0.,-1.));
#659=DIRECTION('',(0.,-1.,0.));
#660=DIRECTION('',(0.,0.,-1.));
#661=DIRECTION('',(0.,-1.,0.));
#662=DIRECTION('',(0.,0.,-1.));
#663=DIRECTION('',(0.,1.,0.));
#664=DIRECTION('',(0.,0.,1.));
#665=CARTESIAN_POINT('',(0.,0.,0.));
#666=CARTESIAN_POINT('',(0.,7.,0.));
#667=CARTESIAN_POINT('',(0.,7.,0.));
#668=CARTESIAN_POINT('',(0.,7.,-12.75));
#669=CARTESIAN_POINT('',(0.,0.,0.));
#670=CARTESIAN_POINT('',(0.,2.,0.));
#671=CARTESIAN_POINT('',(0.,2.,-12.75));
#672=CARTESIAN_POINT('',(12.75,2.,0.));
#673=CARTESIAN_POINT('',(0.,2.,0.));
#674=CARTESIAN_POINT('',(0.,2.,-14.75));
#675=CARTESIAN_POINT('',(0.,0.,0.));
#676=CARTESIAN_POINT('',(0.,77.5,0.));
#677=CARTESIAN_POINT('',(0.,77.5,-14.75));
#678=CARTESIAN_POINT('',(14.75,77.5,0.));
#679=CARTESIAN_POINT('',(0.,77.5,0.));
#680=CARTESIAN_POINT('',(0.,77.5,-11.5));
#681=CARTESIAN_POINT('',(0.,0.,0.));
#682=CARTESIAN_POINT('',(0.,73.5,0.));
#683=CARTESIAN_POINT('',(0.,73.5,-11.5));
#684=CARTESIAN_POINT('',(11.5,73.5,0.));
#685=CARTESIAN_POINT('',(0.,73.5,0.));
#686=CARTESIAN_POINT('',(0.,73.5,-10.5));
#687=CARTESIAN_POINT('',(0.,0.,0.));
#688=CARTESIAN_POINT('',(0.,79.8858455878344,0.));
#689=CARTESIAN_POINT('',(0.,79.8858455878344,-10.5));
#690=CARTESIAN_POINT('',(0.,79.8858455878344,0.));
#691=CARTESIAN_POINT('',(0.,89.,0.));
#692=CARTESIAN_POINT('',(0.,89.,-14.75));
#693=CARTESIAN_POINT('',(14.75,89.,0.));
#694=CARTESIAN_POINT('',(0.,89.,0.));
#695=CARTESIAN_POINT('',(0.,89.,-16.58));
#696=CARTESIAN_POINT('',(0.,89.,0.));
#697=CARTESIAN_POINT('',(0.,88.5,0.));
#698=CARTESIAN_POINT('',(0.,88.5,-17.08));
#699=CARTESIAN_POINT('',(0.,0.,0.));
#700=CARTESIAN_POINT('',(0.,88.,0.));
#701=CARTESIAN_POINT('',(0.,88.,-17.08));
#702=CARTESIAN_POINT('',(0.,88.,0.));
#703=CARTESIAN_POINT('',(0.,87.08,0.));
#704=CARTESIAN_POINT('',(0.,87.08,-18.));
#705=CARTESIAN_POINT('',(0.,0.,0.));
#706=CARTESIAN_POINT('',(0.,83.5,0.));
#707=CARTESIAN_POINT('',(0.,83.5,-18.));
#708=CARTESIAN_POINT('',(18.,83.5,0.));
#709=CARTESIAN_POINT('',(0.,83.5,0.));
#710=CARTESIAN_POINT('',(0.,83.5,-17.08));
#711=CARTESIAN_POINT('',(0.,0.,0.));
#712=CARTESIAN_POINT('',(0.,82.7295831523313,0.));
#713=CARTESIAN_POINT('',(0.,82.7295831523313,-17.08));
#714=CARTESIAN_POINT('',(0.,82.25,0.));
#715=CARTESIAN_POINT('',(0.,81.7704168476687,0.));
#716=CARTESIAN_POINT('',(0.,81.7704168476687,-17.08));
#717=CARTESIAN_POINT('',(0.,0.,0.));
#718=CARTESIAN_POINT('',(0.,81.,0.));
#719=CARTESIAN_POINT('',(0.,81.,-17.08));
#720=CARTESIAN_POINT('',(17.08,81.,0.));
#721=CARTESIAN_POINT('',(0.,81.,0.));
#722=CARTESIAN_POINT('',(0.,81.,-20.5));
#723=CARTESIAN_POINT('',(0.,0.,0.));
#724=CARTESIAN_POINT('',(0.,73.5,0.));
#725=CARTESIAN_POINT('',(0.,73.5,-20.5));
#726=CARTESIAN_POINT('',(20.5,73.5,0.));
#727=CARTESIAN_POINT('',(0.,73.5,0.));
#728=CARTESIAN_POINT('',(0.,73.5,-20.85));
#729=CARTESIAN_POINT('',(0.,72.,0.));
#730=CARTESIAN_POINT('',(0.,72.,0.));
#731=CARTESIAN_POINT('',(0.,72.,-22.35));
#732=CARTESIAN_POINT('',(0.,0.,0.));
#733=CARTESIAN_POINT('',(0.,8.50000000000001,0.));
#734=CARTESIAN_POINT('',(0.,8.50000000000001,-22.35));
#735=CARTESIAN_POINT('',(0.,8.5,0.));
#736=CARTESIAN_POINT('',(0.,7.,0.));
#737=CARTESIAN_POINT('',(0.,7.,-20.85));
#738=CARTESIAN_POINT('',(20.85,7.,0.));
#739=CARTESIAN_POINT('',(0.,7.,0.));
#740=CARTESIAN_POINT('',(0.,7.,-20.5));
#741=CARTESIAN_POINT('',(0.,0.,0.));
#742=CARTESIAN_POINT('',(0.,0.,0.));
#743=CARTESIAN_POINT('',(0.,0.,-20.5));
#744=CARTESIAN_POINT('',(20.5,0.,0.));
#745=MECHANICAL_DESIGN_GEOMETRIC_PRESENTATION_REPRESENTATION('',(#281,#282,
#283,#284,#285,#286,#287,#288,#289,#290,#291,#292,#293,#294,#295,#296,#297,
#298,#299,#300,#301,#302,#303,#304,#305,#306,#307),#746);
#746=(
GEOMETRIC_REPRESENTATION_CONTEXT(3)
GLOBAL_UNCERTAINTY_ASSIGNED_CONTEXT((#747))
GLOBAL_UNIT_ASSIGNED_CONTEXT((#750,#749,#748))
REPRESENTATION_CONTEXT('162676 LFMAP-D-MAXI','TOP_LEVEL_ASSEMBLY_PART')
);
#747=UNCERTAINTY_MEASURE_WITH_UNIT(LENGTH_MEASURE(0.005),#750,
'DISTANCE_ACCURACY_VALUE','Maximum Tolerance applied to model');
#748=(
NAMED_UNIT(*)
SI_UNIT($,.STERADIAN.)
SOLID_ANGLE_UNIT()
);
#749=(
NAMED_UNIT(*)
PLANE_ANGLE_UNIT()
SI_UNIT($,.RADIAN.)
);
#750=(
LENGTH_UNIT()
NAMED_UNIT(*)
SI_UNIT(.MILLI.,.METRE.)
);
#751=PRODUCT_DEFINITION_SHAPE('','',#752);
#752=PRODUCT_DEFINITION('','',#754,#753);
#753=PRODUCT_DEFINITION_CONTEXT('',#760,'design');
#754=PRODUCT_DEFINITION_FORMATION_WITH_SPECIFIED_SOURCE('','',#756,
 .NOT_KNOWN.);
#755=PRODUCT_RELATED_PRODUCT_CATEGORY('','',(#756));
#756=PRODUCT('162676 LFMAP-D-MAXI','162676 LFMAP-D-MAXI',
'162676 LFMAP-D-MAXI',(#758));
#757=PRODUCT_CATEGORY('','');
#758=PRODUCT_CONTEXT('',#760,'mechanical');
#759=APPLICATION_PROTOCOL_DEFINITION('international standard',
'automotive_design',2010,#760);
#760=APPLICATION_CONTEXT(
'core data for automotive mechanical design processes');
ENDSEC;
END-ISO-10303-21;
