ISO-10303-21;
HEADER;
/* Generated by software containing ST-Developer
 * from STEP Tools, Inc. (www.steptools.com) 
 */
/* OPTION: using custom renumber hook */

FILE_DESCRIPTION(
/* description */ ('STEP AP214'),
/* implementation_level */ '2;1');

FILE_NAME(
/* name */ '162677_MS4_D-MINI-LFM-B',
/* time_stamp */ '2024-09-09T14:48:49+02:00',
/* author */ ('License CC BY-ND 4.0'),
/* organization */ ('CADENAS'),
/* preprocessor_version */ 'ST-DEVELOPER v19.3',
/* originating_system */ 'PARTsolutions',
/* authorisation */ '  ');

FILE_SCHEMA (('AUTOMOTIVE_DESIGN {1 0 10303 214 3 1 1}'));
ENDSEC;

DATA;
#10=PROPERTY_DEFINITION_REPRESENTATION(#14,#12);
#11=PROPERTY_DEFINITION_REPRESENTATION(#15,#13);
#12=REPRESENTATION('',(#16),#611);
#13=REPRESENTATION('',(#17),#611);
#14=PROPERTY_DEFINITION('pmi validation property','',#616);
#15=PROPERTY_DEFINITION('pmi validation property','',#616);
#16=VALUE_REPRESENTATION_ITEM('number of annotations',COUNT_MEASURE(0.));
#17=VALUE_REPRESENTATION_ITEM('number of views',COUNT_MEASURE(0.));
#18=SHAPE_REPRESENTATION_RELATIONSHIP('','',#412,#19);
#19=ADVANCED_BREP_SHAPE_REPRESENTATION('',(#410),#611);
#20=CONICAL_SURFACE('',#446,7.,0.436332312998582);
#21=CONICAL_SURFACE('',#450,9.,0.785398163397448);
#22=TOROIDAL_SURFACE('',#419,10.25,0.499999999999994);
#23=TOROIDAL_SURFACE('',#423,10.5,1.5);
#24=TOROIDAL_SURFACE('',#428,10.5,1.5);
#25=TOROIDAL_SURFACE('',#431,9.75,0.999999999999999);
#26=TOROIDAL_SURFACE('',#436,8.25,0.749999999999999);
#27=CYLINDRICAL_SURFACE('',#417,10.75);
#28=CYLINDRICAL_SURFACE('',#426,12.);
#29=CYLINDRICAL_SURFACE('',#433,10.75);
#30=CYLINDRICAL_SURFACE('',#440,5.5);
#31=CYLINDRICAL_SURFACE('',#444,3.75);
#32=CYLINDRICAL_SURFACE('',#452,9.);
#33=CYLINDRICAL_SURFACE('',#456,7.5);
#34=ORIENTED_EDGE('',*,*,#76,.T.);
#35=ORIENTED_EDGE('',*,*,#77,.F.);
#36=ORIENTED_EDGE('',*,*,#78,.T.);
#37=ORIENTED_EDGE('',*,*,#76,.F.);
#38=ORIENTED_EDGE('',*,*,#79,.T.);
#39=ORIENTED_EDGE('',*,*,#78,.F.);
#40=ORIENTED_EDGE('',*,*,#80,.T.);
#41=ORIENTED_EDGE('',*,*,#79,.F.);
#42=ORIENTED_EDGE('',*,*,#81,.T.);
#43=ORIENTED_EDGE('',*,*,#82,.F.);
#44=ORIENTED_EDGE('',*,*,#83,.T.);
#45=ORIENTED_EDGE('',*,*,#81,.F.);
#46=ORIENTED_EDGE('',*,*,#77,.T.);
#47=ORIENTED_EDGE('',*,*,#83,.F.);
#48=ORIENTED_EDGE('',*,*,#84,.T.);
#49=ORIENTED_EDGE('',*,*,#85,.T.);
#50=ORIENTED_EDGE('',*,*,#84,.F.);
#51=ORIENTED_EDGE('',*,*,#85,.F.);
#52=ORIENTED_EDGE('',*,*,#86,.T.);
#53=ORIENTED_EDGE('',*,*,#86,.F.);
#54=ORIENTED_EDGE('',*,*,#82,.T.);
#55=ORIENTED_EDGE('',*,*,#80,.F.);
#56=ORIENTED_EDGE('',*,*,#87,.T.);
#57=ORIENTED_EDGE('',*,*,#88,.F.);
#58=ORIENTED_EDGE('',*,*,#89,.T.);
#59=ORIENTED_EDGE('',*,*,#88,.T.);
#60=ORIENTED_EDGE('',*,*,#89,.F.);
#61=ORIENTED_EDGE('',*,*,#90,.F.);
#62=ORIENTED_EDGE('',*,*,#90,.T.);
#63=ORIENTED_EDGE('',*,*,#91,.F.);
#64=ORIENTED_EDGE('',*,*,#91,.T.);
#65=ORIENTED_EDGE('',*,*,#92,.F.);
#66=ORIENTED_EDGE('',*,*,#92,.T.);
#67=ORIENTED_EDGE('',*,*,#93,.F.);
#68=ORIENTED_EDGE('',*,*,#93,.T.);
#69=ORIENTED_EDGE('',*,*,#94,.F.);
#70=ORIENTED_EDGE('',*,*,#94,.T.);
#71=ORIENTED_EDGE('',*,*,#95,.F.);
#72=ORIENTED_EDGE('',*,*,#95,.T.);
#73=ORIENTED_EDGE('',*,*,#96,.F.);
#74=ORIENTED_EDGE('',*,*,#96,.T.);
#75=ORIENTED_EDGE('',*,*,#87,.F.);
#76=EDGE_CURVE('',#97,#97,#118,.T.);
#77=EDGE_CURVE('',#98,#98,#119,.T.);
#78=EDGE_CURVE('',#99,#99,#120,.T.);
#79=EDGE_CURVE('',#100,#100,#121,.T.);
#80=EDGE_CURVE('',#101,#101,#122,.T.);
#81=EDGE_CURVE('',#102,#102,#123,.T.);
#82=EDGE_CURVE('',#103,#103,#124,.T.);
#83=EDGE_CURVE('',#104,#104,#125,.T.);
#84=EDGE_CURVE('',#105,#105,#126,.T.);
#85=EDGE_CURVE('',#106,#106,#127,.T.);
#86=EDGE_CURVE('',#107,#107,#128,.T.);
#87=EDGE_CURVE('',#108,#108,#129,.T.);
#88=EDGE_CURVE('',#109,#109,#130,.T.);
#89=EDGE_CURVE('',#110,#110,#131,.F.);
#90=EDGE_CURVE('',#111,#111,#132,.T.);
#91=EDGE_CURVE('',#112,#112,#133,.T.);
#92=EDGE_CURVE('',#113,#113,#134,.T.);
#93=EDGE_CURVE('',#114,#114,#135,.T.);
#94=EDGE_CURVE('',#115,#115,#136,.T.);
#95=EDGE_CURVE('',#116,#116,#137,.T.);
#96=EDGE_CURVE('',#117,#117,#138,.T.);
#97=VERTEX_POINT('',#548);
#98=VERTEX_POINT('',#550);
#99=VERTEX_POINT('',#553);
#100=VERTEX_POINT('',#556);
#101=VERTEX_POINT('',#559);
#102=VERTEX_POINT('',#562);
#103=VERTEX_POINT('',#564);
#104=VERTEX_POINT('',#567);
#105=VERTEX_POINT('',#571);
#106=VERTEX_POINT('',#574);
#107=VERTEX_POINT('',#577);
#108=VERTEX_POINT('',#581);
#109=VERTEX_POINT('',#584);
#110=VERTEX_POINT('',#587);
#111=VERTEX_POINT('',#590);
#112=VERTEX_POINT('',#593);
#113=VERTEX_POINT('',#596);
#114=VERTEX_POINT('',#599);
#115=VERTEX_POINT('',#602);
#116=VERTEX_POINT('',#605);
#117=VERTEX_POINT('',#608);
#118=CIRCLE('',#415,10.75);
#119=CIRCLE('',#416,10.5);
#120=CIRCLE('',#418,10.75);
#121=CIRCLE('',#420,10.25);
#122=CIRCLE('',#422,8.25);
#123=CIRCLE('',#424,12.);
#124=CIRCLE('',#425,10.5);
#125=CIRCLE('',#427,12.);
#126=CIRCLE('',#430,8.75);
#127=CIRCLE('',#432,10.75);
#128=CIRCLE('',#434,10.75);
#129=CIRCLE('',#437,7.5);
#130=CIRCLE('',#439,5.5);
#131=CIRCLE('',#441,5.5);
#132=CIRCLE('',#443,3.75);
#133=CIRCLE('',#445,3.75);
#134=CIRCLE('',#447,7.);
#135=CIRCLE('',#449,8.5);
#136=CIRCLE('',#451,9.);
#137=CIRCLE('',#453,9.);
#138=CIRCLE('',#455,7.5);
#139=EDGE_LOOP('',(#34));
#140=EDGE_LOOP('',(#35));
#141=EDGE_LOOP('',(#36));
#142=EDGE_LOOP('',(#37));
#143=EDGE_LOOP('',(#38));
#144=EDGE_LOOP('',(#39));
#145=EDGE_LOOP('',(#40));
#146=EDGE_LOOP('',(#41));
#147=EDGE_LOOP('',(#42));
#148=EDGE_LOOP('',(#43));
#149=EDGE_LOOP('',(#44));
#150=EDGE_LOOP('',(#45));
#151=EDGE_LOOP('',(#46));
#152=EDGE_LOOP('',(#47));
#153=EDGE_LOOP('',(#48));
#154=EDGE_LOOP('',(#49));
#155=EDGE_LOOP('',(#50));
#156=EDGE_LOOP('',(#51));
#157=EDGE_LOOP('',(#52));
#158=EDGE_LOOP('',(#53));
#159=EDGE_LOOP('',(#54));
#160=EDGE_LOOP('',(#55));
#161=EDGE_LOOP('',(#56));
#162=EDGE_LOOP('',(#57));
#163=EDGE_LOOP('',(#58));
#164=EDGE_LOOP('',(#59));
#165=EDGE_LOOP('',(#60));
#166=EDGE_LOOP('',(#61));
#167=EDGE_LOOP('',(#62));
#168=EDGE_LOOP('',(#63));
#169=EDGE_LOOP('',(#64));
#170=EDGE_LOOP('',(#65));
#171=EDGE_LOOP('',(#66));
#172=EDGE_LOOP('',(#67));
#173=EDGE_LOOP('',(#68));
#174=EDGE_LOOP('',(#69));
#175=EDGE_LOOP('',(#70));
#176=EDGE_LOOP('',(#71));
#177=EDGE_LOOP('',(#72));
#178=EDGE_LOOP('',(#73));
#179=EDGE_LOOP('',(#74));
#180=EDGE_LOOP('',(#75));
#181=FACE_BOUND('',#139,.T.);
#182=FACE_BOUND('',#140,.T.);
#183=FACE_BOUND('',#141,.T.);
#184=FACE_BOUND('',#142,.T.);
#185=FACE_BOUND('',#143,.T.);
#186=FACE_BOUND('',#144,.T.);
#187=FACE_BOUND('',#145,.T.);
#188=FACE_BOUND('',#146,.T.);
#189=FACE_BOUND('',#147,.T.);
#190=FACE_BOUND('',#148,.T.);
#191=FACE_BOUND('',#149,.T.);
#192=FACE_BOUND('',#150,.T.);
#193=FACE_BOUND('',#151,.T.);
#194=FACE_BOUND('',#152,.T.);
#195=FACE_BOUND('',#153,.T.);
#196=FACE_BOUND('',#154,.T.);
#197=FACE_BOUND('',#155,.T.);
#198=FACE_BOUND('',#156,.T.);
#199=FACE_BOUND('',#157,.T.);
#200=FACE_BOUND('',#158,.T.);
#201=FACE_BOUND('',#159,.T.);
#202=FACE_BOUND('',#160,.T.);
#203=FACE_BOUND('',#161,.T.);
#204=FACE_BOUND('',#162,.T.);
#205=FACE_BOUND('',#163,.T.);
#206=FACE_BOUND('',#164,.T.);
#207=FACE_BOUND('',#165,.T.);
#208=FACE_BOUND('',#166,.T.);
#209=FACE_BOUND('',#167,.T.);
#210=FACE_BOUND('',#168,.T.);
#211=FACE_BOUND('',#169,.T.);
#212=FACE_BOUND('',#170,.T.);
#213=FACE_BOUND('',#171,.T.);
#214=FACE_BOUND('',#172,.T.);
#215=FACE_BOUND('',#173,.T.);
#216=FACE_BOUND('',#174,.T.);
#217=FACE_BOUND('',#175,.T.);
#218=FACE_BOUND('',#176,.T.);
#219=FACE_BOUND('',#177,.T.);
#220=FACE_BOUND('',#178,.T.);
#221=FACE_BOUND('',#179,.T.);
#222=FACE_BOUND('',#180,.T.);
#223=PLANE('',#414);
#224=PLANE('',#421);
#225=PLANE('',#429);
#226=PLANE('',#435);
#227=PLANE('',#438);
#228=PLANE('',#442);
#229=PLANE('',#448);
#230=PLANE('',#454);
#231=STYLED_ITEM('',(#253),#387);
#232=STYLED_ITEM('',(#254),#388);
#233=STYLED_ITEM('',(#255),#389);
#234=STYLED_ITEM('',(#256),#390);
#235=STYLED_ITEM('',(#257),#391);
#236=STYLED_ITEM('',(#258),#392);
#237=STYLED_ITEM('',(#259),#393);
#238=STYLED_ITEM('',(#260),#394);
#239=STYLED_ITEM('',(#261),#395);
#240=STYLED_ITEM('',(#262),#396);
#241=STYLED_ITEM('',(#263),#397);
#242=STYLED_ITEM('',(#264),#398);
#243=STYLED_ITEM('',(#265),#399);
#244=STYLED_ITEM('',(#266),#400);
#245=STYLED_ITEM('',(#267),#401);
#246=STYLED_ITEM('',(#268),#402);
#247=STYLED_ITEM('',(#269),#403);
#248=STYLED_ITEM('',(#270),#404);
#249=STYLED_ITEM('',(#271),#405);
#250=STYLED_ITEM('',(#272),#406);
#251=STYLED_ITEM('',(#273),#407);
#252=STYLED_ITEM('',(#274),#408);
#253=PRESENTATION_STYLE_ASSIGNMENT((#275));
#254=PRESENTATION_STYLE_ASSIGNMENT((#276));
#255=PRESENTATION_STYLE_ASSIGNMENT((#277));
#256=PRESENTATION_STYLE_ASSIGNMENT((#278));
#257=PRESENTATION_STYLE_ASSIGNMENT((#279));
#258=PRESENTATION_STYLE_ASSIGNMENT((#280));
#259=PRESENTATION_STYLE_ASSIGNMENT((#281));
#260=PRESENTATION_STYLE_ASSIGNMENT((#282));
#261=PRESENTATION_STYLE_ASSIGNMENT((#283));
#262=PRESENTATION_STYLE_ASSIGNMENT((#284));
#263=PRESENTATION_STYLE_ASSIGNMENT((#285));
#264=PRESENTATION_STYLE_ASSIGNMENT((#286));
#265=PRESENTATION_STYLE_ASSIGNMENT((#287));
#266=PRESENTATION_STYLE_ASSIGNMENT((#288));
#267=PRESENTATION_STYLE_ASSIGNMENT((#289));
#268=PRESENTATION_STYLE_ASSIGNMENT((#290));
#269=PRESENTATION_STYLE_ASSIGNMENT((#291));
#270=PRESENTATION_STYLE_ASSIGNMENT((#292));
#271=PRESENTATION_STYLE_ASSIGNMENT((#293));
#272=PRESENTATION_STYLE_ASSIGNMENT((#294));
#273=PRESENTATION_STYLE_ASSIGNMENT((#295));
#274=PRESENTATION_STYLE_ASSIGNMENT((#296));
#275=SURFACE_STYLE_USAGE(.BOTH.,#297);
#276=SURFACE_STYLE_USAGE(.BOTH.,#298);
#277=SURFACE_STYLE_USAGE(.BOTH.,#299);
#278=SURFACE_STYLE_USAGE(.BOTH.,#300);
#279=SURFACE_STYLE_USAGE(.BOTH.,#301);
#280=SURFACE_STYLE_USAGE(.BOTH.,#302);
#281=SURFACE_STYLE_USAGE(.BOTH.,#303);
#282=SURFACE_STYLE_USAGE(.BOTH.,#304);
#283=SURFACE_STYLE_USAGE(.BOTH.,#305);
#284=SURFACE_STYLE_USAGE(.BOTH.,#306);
#285=SURFACE_STYLE_USAGE(.BOTH.,#307);
#286=SURFACE_STYLE_USAGE(.BOTH.,#308);
#287=SURFACE_STYLE_USAGE(.BOTH.,#309);
#288=SURFACE_STYLE_USAGE(.BOTH.,#310);
#289=SURFACE_STYLE_USAGE(.BOTH.,#311);
#290=SURFACE_STYLE_USAGE(.BOTH.,#312);
#291=SURFACE_STYLE_USAGE(.BOTH.,#313);
#292=SURFACE_STYLE_USAGE(.BOTH.,#314);
#293=SURFACE_STYLE_USAGE(.BOTH.,#315);
#294=SURFACE_STYLE_USAGE(.BOTH.,#316);
#295=SURFACE_STYLE_USAGE(.BOTH.,#317);
#296=SURFACE_STYLE_USAGE(.BOTH.,#318);
#297=SURFACE_SIDE_STYLE('',(#319));
#298=SURFACE_SIDE_STYLE('',(#320));
#299=SURFACE_SIDE_STYLE('',(#321));
#300=SURFACE_SIDE_STYLE('',(#322));
#301=SURFACE_SIDE_STYLE('',(#323));
#302=SURFACE_SIDE_STYLE('',(#324));
#303=SURFACE_SIDE_STYLE('',(#325));
#304=SURFACE_SIDE_STYLE('',(#326));
#305=SURFACE_SIDE_STYLE('',(#327));
#306=SURFACE_SIDE_STYLE('',(#328));
#307=SURFACE_SIDE_STYLE('',(#329));
#308=SURFACE_SIDE_STYLE('',(#330));
#309=SURFACE_SIDE_STYLE('',(#331));
#310=SURFACE_SIDE_STYLE('',(#332));
#311=SURFACE_SIDE_STYLE('',(#333));
#312=SURFACE_SIDE_STYLE('',(#334));
#313=SURFACE_SIDE_STYLE('',(#335));
#314=SURFACE_SIDE_STYLE('',(#336));
#315=SURFACE_SIDE_STYLE('',(#337));
#316=SURFACE_SIDE_STYLE('',(#338));
#317=SURFACE_SIDE_STYLE('',(#339));
#318=SURFACE_SIDE_STYLE('',(#340));
#319=SURFACE_STYLE_FILL_AREA(#341);
#320=SURFACE_STYLE_FILL_AREA(#342);
#321=SURFACE_STYLE_FILL_AREA(#343);
#322=SURFACE_STYLE_FILL_AREA(#344);
#323=SURFACE_STYLE_FILL_AREA(#345);
#324=SURFACE_STYLE_FILL_AREA(#346);
#325=SURFACE_STYLE_FILL_AREA(#347);
#326=SURFACE_STYLE_FILL_AREA(#348);
#327=SURFACE_STYLE_FILL_AREA(#349);
#328=SURFACE_STYLE_FILL_AREA(#350);
#329=SURFACE_STYLE_FILL_AREA(#351);
#330=SURFACE_STYLE_FILL_AREA(#352);
#331=SURFACE_STYLE_FILL_AREA(#353);
#332=SURFACE_STYLE_FILL_AREA(#354);
#333=SURFACE_STYLE_FILL_AREA(#355);
#334=SURFACE_STYLE_FILL_AREA(#356);
#335=SURFACE_STYLE_FILL_AREA(#357);
#336=SURFACE_STYLE_FILL_AREA(#358);
#337=SURFACE_STYLE_FILL_AREA(#359);
#338=SURFACE_STYLE_FILL_AREA(#360);
#339=SURFACE_STYLE_FILL_AREA(#361);
#340=SURFACE_STYLE_FILL_AREA(#362);
#341=FILL_AREA_STYLE('',(#363));
#342=FILL_AREA_STYLE('',(#364));
#343=FILL_AREA_STYLE('',(#365));
#344=FILL_AREA_STYLE('',(#366));
#345=FILL_AREA_STYLE('',(#367));
#346=FILL_AREA_STYLE('',(#368));
#347=FILL_AREA_STYLE('',(#369));
#348=FILL_AREA_STYLE('',(#370));
#349=FILL_AREA_STYLE('',(#371));
#350=FILL_AREA_STYLE('',(#372));
#351=FILL_AREA_STYLE('',(#373));
#352=FILL_AREA_STYLE('',(#374));
#353=FILL_AREA_STYLE('',(#375));
#354=FILL_AREA_STYLE('',(#376));
#355=FILL_AREA_STYLE('',(#377));
#356=FILL_AREA_STYLE('',(#378));
#357=FILL_AREA_STYLE('',(#379));
#358=FILL_AREA_STYLE('',(#380));
#359=FILL_AREA_STYLE('',(#381));
#360=FILL_AREA_STYLE('',(#382));
#361=FILL_AREA_STYLE('',(#383));
#362=FILL_AREA_STYLE('',(#384));
#363=FILL_AREA_STYLE_COLOUR('',#385);
#364=FILL_AREA_STYLE_COLOUR('',#385);
#365=FILL_AREA_STYLE_COLOUR('',#385);
#366=FILL_AREA_STYLE_COLOUR('',#385);
#367=FILL_AREA_STYLE_COLOUR('',#386);
#368=FILL_AREA_STYLE_COLOUR('',#386);
#369=FILL_AREA_STYLE_COLOUR('',#386);
#370=FILL_AREA_STYLE_COLOUR('',#385);
#371=FILL_AREA_STYLE_COLOUR('',#385);
#372=FILL_AREA_STYLE_COLOUR('',#385);
#373=FILL_AREA_STYLE_COLOUR('',#385);
#374=FILL_AREA_STYLE_COLOUR('',#385);
#375=FILL_AREA_STYLE_COLOUR('',#385);
#376=FILL_AREA_STYLE_COLOUR('',#385);
#377=FILL_AREA_STYLE_COLOUR('',#385);
#378=FILL_AREA_STYLE_COLOUR('',#385);
#379=FILL_AREA_STYLE_COLOUR('',#385);
#380=FILL_AREA_STYLE_COLOUR('',#385);
#381=FILL_AREA_STYLE_COLOUR('',#385);
#382=FILL_AREA_STYLE_COLOUR('',#385);
#383=FILL_AREA_STYLE_COLOUR('',#385);
#384=FILL_AREA_STYLE_COLOUR('',#385);
#385=COLOUR_RGB('',0.200000002980232,0.200000002980232,0.200000002980232);
#386=COLOUR_RGB('',0.75300002098083,0.75300002098083,0.75300002098083);
#387=ADVANCED_FACE('',(#181,#182),#223,.T.);
#388=ADVANCED_FACE('',(#183,#184),#27,.T.);
#389=ADVANCED_FACE('',(#185,#186),#22,.T.);
#390=ADVANCED_FACE('',(#187,#188),#224,.T.);
#391=ADVANCED_FACE('',(#189,#190),#23,.T.);
#392=ADVANCED_FACE('',(#191,#192),#28,.T.);
#393=ADVANCED_FACE('',(#193,#194),#24,.T.);
#394=ADVANCED_FACE('',(#195),#225,.F.);
#395=ADVANCED_FACE('',(#196,#197),#25,.T.);
#396=ADVANCED_FACE('',(#198,#199),#29,.T.);
#397=ADVANCED_FACE('',(#200,#201),#226,.F.);
#398=ADVANCED_FACE('',(#202,#203),#26,.T.);
#399=ADVANCED_FACE('',(#204),#227,.F.);
#400=ADVANCED_FACE('',(#205,#206),#30,.F.);
#401=ADVANCED_FACE('',(#207,#208),#228,.T.);
#402=ADVANCED_FACE('',(#209,#210),#31,.F.);
#403=ADVANCED_FACE('',(#211,#212),#20,.F.);
#404=ADVANCED_FACE('',(#213,#214),#229,.T.);
#405=ADVANCED_FACE('',(#215,#216),#21,.T.);
#406=ADVANCED_FACE('',(#217,#218),#32,.T.);
#407=ADVANCED_FACE('',(#219,#220),#230,.T.);
#408=ADVANCED_FACE('',(#221,#222),#33,.T.);
#409=CLOSED_SHELL('',(#387,#388,#389,#390,#391,#392,#393,#394,#395,#396,
#397,#398,#399,#400,#401,#402,#403,#404,#405,#406,#407,#408));
#410=MANIFOLD_SOLID_BREP('162677 MS4/D-MINI-LFM-B',#409);
#411=SHAPE_DEFINITION_REPRESENTATION(#616,#412);
#412=SHAPE_REPRESENTATION('162677 MS4/D-MINI-LFM-B',(#413),#611);
#413=AXIS2_PLACEMENT_3D('',#545,#457,#458);
#414=AXIS2_PLACEMENT_3D('',#546,#459,#460);
#415=AXIS2_PLACEMENT_3D('',#547,#461,#462);
#416=AXIS2_PLACEMENT_3D('',#549,#463,#464);
#417=AXIS2_PLACEMENT_3D('',#551,#465,#466);
#418=AXIS2_PLACEMENT_3D('',#552,#467,#468);
#419=AXIS2_PLACEMENT_3D('',#554,#469,#470);
#420=AXIS2_PLACEMENT_3D('',#555,#471,#472);
#421=AXIS2_PLACEMENT_3D('',#557,#473,#474);
#422=AXIS2_PLACEMENT_3D('',#558,#475,#476);
#423=AXIS2_PLACEMENT_3D('',#560,#477,#478);
#424=AXIS2_PLACEMENT_3D('',#561,#479,#480);
#425=AXIS2_PLACEMENT_3D('',#563,#481,#482);
#426=AXIS2_PLACEMENT_3D('',#565,#483,#484);
#427=AXIS2_PLACEMENT_3D('',#566,#485,#486);
#428=AXIS2_PLACEMENT_3D('',#568,#487,#488);
#429=AXIS2_PLACEMENT_3D('',#569,#489,#490);
#430=AXIS2_PLACEMENT_3D('',#570,#491,#492);
#431=AXIS2_PLACEMENT_3D('',#572,#493,#494);
#432=AXIS2_PLACEMENT_3D('',#573,#495,#496);
#433=AXIS2_PLACEMENT_3D('',#575,#497,#498);
#434=AXIS2_PLACEMENT_3D('',#576,#499,#500);
#435=AXIS2_PLACEMENT_3D('',#578,#501,#502);
#436=AXIS2_PLACEMENT_3D('',#579,#503,#504);
#437=AXIS2_PLACEMENT_3D('',#580,#505,#506);
#438=AXIS2_PLACEMENT_3D('',#582,#507,#508);
#439=AXIS2_PLACEMENT_3D('',#583,#509,#510);
#440=AXIS2_PLACEMENT_3D('',#585,#511,#512);
#441=AXIS2_PLACEMENT_3D('',#586,#513,#514);
#442=AXIS2_PLACEMENT_3D('',#588,#515,#516);
#443=AXIS2_PLACEMENT_3D('',#589,#517,#518);
#444=AXIS2_PLACEMENT_3D('',#591,#519,#520);
#445=AXIS2_PLACEMENT_3D('',#592,#521,#522);
#446=AXIS2_PLACEMENT_3D('',#594,#523,#524);
#447=AXIS2_PLACEMENT_3D('',#595,#525,#526);
#448=AXIS2_PLACEMENT_3D('',#597,#527,#528);
#449=AXIS2_PLACEMENT_3D('',#598,#529,#530);
#450=AXIS2_PLACEMENT_3D('',#600,#531,#532);
#451=AXIS2_PLACEMENT_3D('',#601,#533,#534);
#452=AXIS2_PLACEMENT_3D('',#603,#535,#536);
#453=AXIS2_PLACEMENT_3D('',#604,#537,#538);
#454=AXIS2_PLACEMENT_3D('',#606,#539,#540);
#455=AXIS2_PLACEMENT_3D('',#607,#541,#542);
#456=AXIS2_PLACEMENT_3D('',#609,#543,#544);
#457=DIRECTION('',(0.,0.,1.));
#458=DIRECTION('',(1.,0.,0.));
#459=DIRECTION('',(0.,-1.,0.));
#460=DIRECTION('',(0.,0.,-1.));
#461=DIRECTION('',(0.,-1.,0.));
#462=DIRECTION('',(0.,0.,-1.));
#463=DIRECTION('',(0.,-1.,0.));
#464=DIRECTION('',(0.,0.,-1.));
#465=DIRECTION('',(0.,-1.,0.));
#466=DIRECTION('',(0.,0.,-1.));
#467=DIRECTION('',(0.,-1.,0.));
#468=DIRECTION('',(0.,0.,-1.));
#469=DIRECTION('',(0.,-1.,0.));
#470=DIRECTION('',(0.,0.,-1.));
#471=DIRECTION('',(0.,-1.,0.));
#472=DIRECTION('',(0.,0.,-1.));
#473=DIRECTION('',(0.,1.,0.));
#474=DIRECTION('',(0.,0.,1.));
#475=DIRECTION('',(0.,-1.,0.));
#476=DIRECTION('',(0.,0.,-1.));
#477=DIRECTION('',(0.,-1.,0.));
#478=DIRECTION('',(0.,0.,-1.));
#479=DIRECTION('',(0.,-1.,0.));
#480=DIRECTION('',(0.,0.,-1.));
#481=DIRECTION('',(0.,-1.,0.));
#482=DIRECTION('',(0.,0.,-1.));
#483=DIRECTION('',(0.,-1.,0.));
#484=DIRECTION('',(0.,0.,-1.));
#485=DIRECTION('',(0.,-1.,0.));
#486=DIRECTION('',(0.,0.,-1.));
#487=DIRECTION('',(0.,-1.,0.));
#488=DIRECTION('',(0.,0.,-1.));
#489=DIRECTION('',(0.,1.,0.));
#490=DIRECTION('',(0.,0.,1.));
#491=DIRECTION('',(0.,-1.,0.));
#492=DIRECTION('',(0.,0.,-1.));
#493=DIRECTION('',(0.,-1.,0.));
#494=DIRECTION('',(0.,0.,-1.));
#495=DIRECTION('',(0.,-1.,0.));
#496=DIRECTION('',(0.,0.,-1.));
#497=DIRECTION('',(0.,-1.,0.));
#498=DIRECTION('',(0.,0.,-1.));
#499=DIRECTION('',(0.,-1.,0.));
#500=DIRECTION('',(0.,0.,-1.));
#501=DIRECTION('',(0.,-1.,0.));
#502=DIRECTION('',(0.,0.,-1.));
#503=DIRECTION('',(0.,1.,0.));
#504=DIRECTION('',(0.,0.,1.));
#505=DIRECTION('',(0.,-1.,0.));
#506=DIRECTION('',(0.,0.,-1.));
#507=DIRECTION('',(0.,-1.,0.));
#508=DIRECTION('',(0.,0.,-1.));
#509=DIRECTION('',(0.,-1.,0.));
#510=DIRECTION('',(0.,0.,-1.));
#511=DIRECTION('',(0.,-1.,0.));
#512=DIRECTION('',(0.,0.,-1.));
#513=DIRECTION('',(0.,-1.,0.));
#514=DIRECTION('',(0.,0.,-1.));
#515=DIRECTION('',(0.,-1.,0.));
#516=DIRECTION('',(0.,0.,-1.));
#517=DIRECTION('',(0.,-1.,0.));
#518=DIRECTION('',(0.,0.,-1.));
#519=DIRECTION('',(0.,-1.,0.));
#520=DIRECTION('',(0.,0.,-1.));
#521=DIRECTION('',(0.,-1.,0.));
#522=DIRECTION('',(0.,0.,-1.));
#523=DIRECTION('',(0.,1.,0.));
#524=DIRECTION('',(0.,0.,1.));
#525=DIRECTION('',(0.,-1.,0.));
#526=DIRECTION('',(0.,0.,-1.));
#527=DIRECTION('',(0.,1.,0.));
#528=DIRECTION('',(0.,0.,1.));
#529=DIRECTION('',(0.,-1.,0.));
#530=DIRECTION('',(0.,0.,-1.));
#531=DIRECTION('',(0.,-1.,0.));
#532=DIRECTION('',(0.,0.,-1.));
#533=DIRECTION('',(0.,-1.,0.));
#534=DIRECTION('',(0.,0.,-1.));
#535=DIRECTION('',(0.,-1.,0.));
#536=DIRECTION('',(0.,0.,-1.));
#537=DIRECTION('',(0.,-1.,0.));
#538=DIRECTION('',(0.,0.,-1.));
#539=DIRECTION('',(0.,-1.,0.));
#540=DIRECTION('',(0.,0.,-1.));
#541=DIRECTION('',(0.,-1.,0.));
#542=DIRECTION('',(0.,0.,-1.));
#543=DIRECTION('',(0.,-1.,0.));
#544=DIRECTION('',(0.,0.,-1.));
#545=CARTESIAN_POINT('',(0.,0.,0.));
#546=CARTESIAN_POINT('',(0.,47.7,-3.75));
#547=CARTESIAN_POINT('',(0.,47.7,0.));
#548=CARTESIAN_POINT('',(0.,47.7,-10.75));
#549=CARTESIAN_POINT('',(0.,47.7,0.));
#550=CARTESIAN_POINT('',(0.,47.7,-10.5));
#551=CARTESIAN_POINT('',(0.,47.7,0.));
#552=CARTESIAN_POINT('',(0.,52.7,0.));
#553=CARTESIAN_POINT('',(0.,52.7,-10.75));
#554=CARTESIAN_POINT('',(0.,52.7,0.));
#555=CARTESIAN_POINT('',(0.,53.2,0.));
#556=CARTESIAN_POINT('',(0.,53.2,-10.25));
#557=CARTESIAN_POINT('',(0.,53.2,-10.25));
#558=CARTESIAN_POINT('',(0.,53.2,0.));
#559=CARTESIAN_POINT('',(0.,53.2,-8.25));
#560=CARTESIAN_POINT('',(0.,8.3,0.));
#561=CARTESIAN_POINT('',(0.,8.3,0.));
#562=CARTESIAN_POINT('',(0.,8.3,-12.));
#563=CARTESIAN_POINT('',(0.,6.8,0.));
#564=CARTESIAN_POINT('',(0.,6.8,-10.5));
#565=CARTESIAN_POINT('',(0.,6.8,0.));
#566=CARTESIAN_POINT('',(0.,46.2,0.));
#567=CARTESIAN_POINT('',(0.,46.2,-12.));
#568=CARTESIAN_POINT('',(0.,46.2,0.));
#569=CARTESIAN_POINT('',(0.,1.,-8.75));
#570=CARTESIAN_POINT('',(0.,1.,0.));
#571=CARTESIAN_POINT('',(0.,1.,-8.75));
#572=CARTESIAN_POINT('',(0.,1.,0.));
#573=CARTESIAN_POINT('',(0.,1.,0.));
#574=CARTESIAN_POINT('',(0.,1.,-10.75));
#575=CARTESIAN_POINT('',(0.,1.,0.));
#576=CARTESIAN_POINT('',(0.,6.8,0.));
#577=CARTESIAN_POINT('',(0.,6.8,-10.75));
#578=CARTESIAN_POINT('',(0.,6.8,-8.5));
#579=CARTESIAN_POINT('',(0.,53.95,0.));
#580=CARTESIAN_POINT('',(0.,53.95,0.));
#581=CARTESIAN_POINT('',(0.,53.95,-7.5));
#582=CARTESIAN_POINT('',(0.,2.7,0.));
#583=CARTESIAN_POINT('',(0.,2.7,0.));
#584=CARTESIAN_POINT('',(0.,2.7,-5.5));
#585=CARTESIAN_POINT('',(0.,1.,0.));
#586=CARTESIAN_POINT('',(0.,47.7,0.));
#587=CARTESIAN_POINT('',(0.,47.7,-5.5));
#588=CARTESIAN_POINT('',(0.,47.7,-3.75));
#589=CARTESIAN_POINT('',(0.,47.7,0.));
#590=CARTESIAN_POINT('',(0.,47.7,-3.75));
#591=CARTESIAN_POINT('',(0.,47.7,0.));
#592=CARTESIAN_POINT('',(0.,52.9803525083439,0.));
#593=CARTESIAN_POINT('',(0.,52.9803525083439,-3.75));
#594=CARTESIAN_POINT('',(0.,59.95,0.));
#595=CARTESIAN_POINT('',(0.,59.95,0.));
#596=CARTESIAN_POINT('',(0.,59.95,-7.));
#597=CARTESIAN_POINT('',(0.,59.95,-8.5));
#598=CARTESIAN_POINT('',(0.,59.95,0.));
#599=CARTESIAN_POINT('',(0.,59.95,-8.5));
#600=CARTESIAN_POINT('',(0.,59.45,0.));
#601=CARTESIAN_POINT('',(0.,59.45,0.));
#602=CARTESIAN_POINT('',(0.,59.45,-9.));
#603=CARTESIAN_POINT('',(0.,47.7,0.));
#604=CARTESIAN_POINT('',(0.,55.2,0.));
#605=CARTESIAN_POINT('',(0.,55.2,-9.));
#606=CARTESIAN_POINT('',(0.,55.2,-7.5));
#607=CARTESIAN_POINT('',(0.,55.2,0.));
#608=CARTESIAN_POINT('',(0.,55.2,-7.5));
#609=CARTESIAN_POINT('',(0.,47.7,0.));
#610=MECHANICAL_DESIGN_GEOMETRIC_PRESENTATION_REPRESENTATION('',(#231,#232,
#233,#234,#235,#236,#237,#238,#239,#240,#241,#242,#243,#244,#245,#246,#247,
#248,#249,#250,#251,#252),#611);
#611=(
GEOMETRIC_REPRESENTATION_CONTEXT(3)
GLOBAL_UNCERTAINTY_ASSIGNED_CONTEXT((#612))
GLOBAL_UNIT_ASSIGNED_CONTEXT((#615,#614,#613))
REPRESENTATION_CONTEXT('162677 MS4/D-MINI-LFM-B',
'TOP_LEVEL_ASSEMBLY_PART')
);
#612=UNCERTAINTY_MEASURE_WITH_UNIT(LENGTH_MEASURE(0.005),#615,
'DISTANCE_ACCURACY_VALUE','Maximum Tolerance applied to model');
#613=(
NAMED_UNIT(*)
SI_UNIT($,.STERADIAN.)
SOLID_ANGLE_UNIT()
);
#614=(
NAMED_UNIT(*)
PLANE_ANGLE_UNIT()
SI_UNIT($,.RADIAN.)
);
#615=(
LENGTH_UNIT()
NAMED_UNIT(*)
SI_UNIT(.MILLI.,.METRE.)
);
#616=PRODUCT_DEFINITION_SHAPE('','',#617);
#617=PRODUCT_DEFINITION('','',#619,#618);
#618=PRODUCT_DEFINITION_CONTEXT('',#625,'design');
#619=PRODUCT_DEFINITION_FORMATION_WITH_SPECIFIED_SOURCE('','',#621,
 .NOT_KNOWN.);
#620=PRODUCT_RELATED_PRODUCT_CATEGORY('','',(#621));
#621=PRODUCT('162677 MS4/D-MINI-LFM-B','162677 MS4/D-MINI-LFM-B',
'162677 MS4/D-MINI-LFM-B',(#623));
#622=PRODUCT_CATEGORY('','');
#623=PRODUCT_CONTEXT('',#625,'mechanical');
#624=APPLICATION_PROTOCOL_DEFINITION('international standard',
'automotive_design',2010,#625);
#625=APPLICATION_CONTEXT(
'core data for automotive mechanical design processes');
ENDSEC;
END-ISO-10303-21;
