ISO-10303-21;
HEADER;
/* Generated by software containing ST-Developer
 * from STEP Tools, Inc. (www.steptools.com) 
 */
/* OPTION: using custom renumber hook */

FILE_DESCRIPTION(
/* description */ ('STEP AP214'),
/* implementation_level */ '2;1');

FILE_NAME(
/* name */ '162835_MA-40-10-1_8-EN',
/* time_stamp */ '2024-09-05T02:53:01+02:00',
/* author */ ('License CC BY-ND 4.0'),
/* organization */ ('CADENAS'),
/* preprocessor_version */ 'ST-DEVELOPER v19.3',
/* originating_system */ 'PARTsolutions',
/* authorisation */ '  ');

FILE_SCHEMA (('AUTOMOTIVE_DESIGN {1 0 10303 214 3 1 1}'));
ENDSEC;

DATA;
#10=PROPERTY_DEFINITION_REPRESENTATION(#14,#12);
#11=PROPERTY_DEFINITION_REPRESENTATION(#15,#13);
#12=REPRESENTATION('',(#16),#653);
#13=REPRESENTATION('',(#17),#653);
#14=PROPERTY_DEFINITION('pmi validation property','',#658);
#15=PROPERTY_DEFINITION('pmi validation property','',#658);
#16=VALUE_REPRESENTATION_ITEM('number of annotations',COUNT_MEASURE(0.));
#17=VALUE_REPRESENTATION_ITEM('number of views',COUNT_MEASURE(0.));
#18=SHAPE_REPRESENTATION_RELATIONSHIP('','',#369,#19);
#19=ADVANCED_BREP_SHAPE_REPRESENTATION('',(#367),#653);
#20=LINE('',#628,#32);
#21=LINE('',#631,#33);
#22=LINE('',#633,#34);
#23=LINE('',#635,#35);
#24=LINE('',#637,#36);
#25=LINE('',#639,#37);
#26=LINE('',#641,#38);
#27=LINE('',#642,#39);
#28=LINE('',#644,#40);
#29=LINE('',#646,#41);
#30=LINE('',#648,#42);
#31=LINE('',#650,#43);
#32=VECTOR('',#493,1000.);
#33=VECTOR('',#494,1000.);
#34=VECTOR('',#495,1000.);
#35=VECTOR('',#496,1000.);
#36=VECTOR('',#497,1000.);
#37=VECTOR('',#498,1000.);
#38=VECTOR('',#501,1000.);
#39=VECTOR('',#502,1000.);
#40=VECTOR('',#505,1000.);
#41=VECTOR('',#508,1000.);
#42=VECTOR('',#511,1000.);
#43=VECTOR('',#514,1000.);
#44=TOROIDAL_SURFACE('',#406,16.2787074736196,3.);
#45=B_SPLINE_CURVE_WITH_KNOTS('',3,(#553,#554,#555,#556),.UNSPECIFIED.,
 .F.,.F.,(4,4),(0.0134539836543224,0.0175040634160064),.UNSPECIFIED.);
#46=B_SPLINE_CURVE_WITH_KNOTS('',3,(#558,#559,#560,#561),.UNSPECIFIED.,
 .F.,.F.,(4,4),(0.00404168282443506,0.00808313470876244),.UNSPECIFIED.);
#47=B_SPLINE_CURVE_WITH_KNOTS('',3,(#563,#564,#565,#566),.UNSPECIFIED.,
 .F.,.F.,(4,4),(0.00404168282443506,0.00808313470876244),.UNSPECIFIED.);
#48=B_SPLINE_CURVE_WITH_KNOTS('',3,(#568,#569,#570,#571),.UNSPECIFIED.,
 .F.,.F.,(4,4),(2.30940107675998E-7,0.00404168282443506),.UNSPECIFIED.);
#49=B_SPLINE_CURVE_WITH_KNOTS('',3,(#573,#574,#575,#576),.UNSPECIFIED.,
 .F.,.F.,(4,4),(0.0175040634160065,0.0215517139460402),.UNSPECIFIED.);
#50=B_SPLINE_CURVE_WITH_KNOTS('',3,(#578,#579,#580,#581),.UNSPECIFIED.,
 .F.,.F.,(4,4),(2.30940107675636E-7,0.00404168282443506),.UNSPECIFIED.);
#51=B_SPLINE_CURVE_WITH_KNOTS('',3,(#583,#584,#585,#586),.UNSPECIFIED.,
 .F.,.F.,(4,4),(0.00404168282443506,0.00808313470877595),.UNSPECIFIED.);
#52=B_SPLINE_CURVE_WITH_KNOTS('',3,(#588,#589,#590,#591),.UNSPECIFIED.,
 .F.,.F.,(4,4),(0.0134539836543495,0.0175040634160065),.UNSPECIFIED.);
#53=B_SPLINE_CURVE_WITH_KNOTS('',3,(#593,#594,#595,#596),.UNSPECIFIED.,
 .F.,.F.,(4,4),(0.00404168282443506,0.00808313470876244),.UNSPECIFIED.);
#54=B_SPLINE_CURVE_WITH_KNOTS('',3,(#598,#599,#600,#601),.UNSPECIFIED.,
 .F.,.F.,(4,4),(2.30940107676018E-7,0.00404168282443506),.UNSPECIFIED.);
#55=B_SPLINE_CURVE_WITH_KNOTS('',3,(#603,#604,#605,#606),.UNSPECIFIED.,
 .F.,.F.,(4,4),(0.0175040634160064,0.0215517139460402),.UNSPECIFIED.);
#56=B_SPLINE_CURVE_WITH_KNOTS('',3,(#608,#609,#610,#611),.UNSPECIFIED.,
 .F.,.F.,(4,4),(2.30940107675636E-7,0.00404168282443506),.UNSPECIFIED.);
#57=DEGENERATE_TOROIDAL_SURFACE('',#392,6.02008064647258,7.99999999999991,
 .T.);
#58=DEGENERATE_TOROIDAL_SURFACE('',#393,6.02008064647258,7.99999999999991,
 .T.);
#59=DEGENERATE_TOROIDAL_SURFACE('',#394,6.02008064647258,7.99999999999991,
 .T.);
#60=DEGENERATE_TOROIDAL_SURFACE('',#395,6.02008064647258,7.99999999999991,
 .T.);
#61=DEGENERATE_TOROIDAL_SURFACE('',#396,6.02008064647258,7.99999999999991,
 .T.);
#62=DEGENERATE_TOROIDAL_SURFACE('',#397,6.02008064647258,7.99999999999991,
 .T.);
#63=CONICAL_SURFACE('',#386,3.77034137435581,0.785398163397448);
#64=CONICAL_SURFACE('',#388,4.77034137435581,0.0312094049979787);
#65=CONICAL_SURFACE('',#404,19.5,0.00961508829970243);
#66=CYLINDRICAL_SURFACE('',#379,5.1);
#67=CYLINDRICAL_SURFACE('',#381,0.75);
#68=CYLINDRICAL_SURFACE('',#400,19.25);
#69=ORIENTED_EDGE('',*,*,#153,.F.);
#70=ORIENTED_EDGE('',*,*,#154,.T.);
#71=ORIENTED_EDGE('',*,*,#155,.T.);
#72=ORIENTED_EDGE('',*,*,#156,.T.);
#73=ORIENTED_EDGE('',*,*,#157,.T.);
#74=ORIENTED_EDGE('',*,*,#158,.T.);
#75=ORIENTED_EDGE('',*,*,#159,.T.);
#76=ORIENTED_EDGE('',*,*,#153,.T.);
#77=ORIENTED_EDGE('',*,*,#160,.F.);
#78=ORIENTED_EDGE('',*,*,#161,.T.);
#79=ORIENTED_EDGE('',*,*,#162,.T.);
#80=ORIENTED_EDGE('',*,*,#163,.T.);
#81=ORIENTED_EDGE('',*,*,#161,.F.);
#82=ORIENTED_EDGE('',*,*,#164,.T.);
#83=ORIENTED_EDGE('',*,*,#163,.F.);
#84=ORIENTED_EDGE('',*,*,#165,.T.);
#85=ORIENTED_EDGE('',*,*,#164,.F.);
#86=ORIENTED_EDGE('',*,*,#160,.T.);
#87=ORIENTED_EDGE('',*,*,#165,.F.);
#88=ORIENTED_EDGE('',*,*,#162,.F.);
#89=ORIENTED_EDGE('',*,*,#166,.T.);
#90=ORIENTED_EDGE('',*,*,#156,.F.);
#91=ORIENTED_EDGE('',*,*,#167,.T.);
#92=ORIENTED_EDGE('',*,*,#168,.T.);
#93=ORIENTED_EDGE('',*,*,#169,.T.);
#94=ORIENTED_EDGE('',*,*,#155,.F.);
#95=ORIENTED_EDGE('',*,*,#170,.T.);
#96=ORIENTED_EDGE('',*,*,#171,.T.);
#97=ORIENTED_EDGE('',*,*,#154,.F.);
#98=ORIENTED_EDGE('',*,*,#172,.T.);
#99=ORIENTED_EDGE('',*,*,#173,.T.);
#100=ORIENTED_EDGE('',*,*,#159,.F.);
#101=ORIENTED_EDGE('',*,*,#174,.T.);
#102=ORIENTED_EDGE('',*,*,#175,.T.);
#103=ORIENTED_EDGE('',*,*,#158,.F.);
#104=ORIENTED_EDGE('',*,*,#176,.T.);
#105=ORIENTED_EDGE('',*,*,#177,.T.);
#106=ORIENTED_EDGE('',*,*,#157,.F.);
#107=ORIENTED_EDGE('',*,*,#178,.F.);
#108=ORIENTED_EDGE('',*,*,#179,.F.);
#109=ORIENTED_EDGE('',*,*,#178,.T.);
#110=ORIENTED_EDGE('',*,*,#180,.F.);
#111=ORIENTED_EDGE('',*,*,#179,.T.);
#112=ORIENTED_EDGE('',*,*,#181,.F.);
#113=ORIENTED_EDGE('',*,*,#180,.T.);
#114=ORIENTED_EDGE('',*,*,#181,.T.);
#115=ORIENTED_EDGE('',*,*,#182,.F.);
#116=ORIENTED_EDGE('',*,*,#183,.F.);
#117=ORIENTED_EDGE('',*,*,#184,.F.);
#118=ORIENTED_EDGE('',*,*,#185,.F.);
#119=ORIENTED_EDGE('',*,*,#186,.F.);
#120=ORIENTED_EDGE('',*,*,#187,.F.);
#121=ORIENTED_EDGE('',*,*,#188,.F.);
#122=ORIENTED_EDGE('',*,*,#182,.T.);
#123=ORIENTED_EDGE('',*,*,#169,.F.);
#124=ORIENTED_EDGE('',*,*,#189,.T.);
#125=ORIENTED_EDGE('',*,*,#183,.T.);
#126=ORIENTED_EDGE('',*,*,#190,.F.);
#127=ORIENTED_EDGE('',*,*,#167,.F.);
#128=ORIENTED_EDGE('',*,*,#171,.F.);
#129=ORIENTED_EDGE('',*,*,#191,.T.);
#130=ORIENTED_EDGE('',*,*,#184,.T.);
#131=ORIENTED_EDGE('',*,*,#189,.F.);
#132=ORIENTED_EDGE('',*,*,#168,.F.);
#133=ORIENTED_EDGE('',*,*,#173,.F.);
#134=ORIENTED_EDGE('',*,*,#192,.T.);
#135=ORIENTED_EDGE('',*,*,#185,.T.);
#136=ORIENTED_EDGE('',*,*,#191,.F.);
#137=ORIENTED_EDGE('',*,*,#170,.F.);
#138=ORIENTED_EDGE('',*,*,#175,.F.);
#139=ORIENTED_EDGE('',*,*,#193,.T.);
#140=ORIENTED_EDGE('',*,*,#186,.T.);
#141=ORIENTED_EDGE('',*,*,#192,.F.);
#142=ORIENTED_EDGE('',*,*,#172,.F.);
#143=ORIENTED_EDGE('',*,*,#177,.F.);
#144=ORIENTED_EDGE('',*,*,#194,.T.);
#145=ORIENTED_EDGE('',*,*,#187,.T.);
#146=ORIENTED_EDGE('',*,*,#193,.F.);
#147=ORIENTED_EDGE('',*,*,#174,.F.);
#148=ORIENTED_EDGE('',*,*,#166,.F.);
#149=ORIENTED_EDGE('',*,*,#190,.T.);
#150=ORIENTED_EDGE('',*,*,#188,.T.);
#151=ORIENTED_EDGE('',*,*,#194,.F.);
#152=ORIENTED_EDGE('',*,*,#176,.F.);
#153=EDGE_CURVE('',#195,#195,#225,.T.);
#154=EDGE_CURVE('',#196,#197,#226,.T.);
#155=EDGE_CURVE('',#197,#198,#227,.T.);
#156=EDGE_CURVE('',#198,#199,#228,.T.);
#157=EDGE_CURVE('',#199,#200,#229,.T.);
#158=EDGE_CURVE('',#200,#201,#230,.T.);
#159=EDGE_CURVE('',#201,#196,#231,.T.);
#160=EDGE_CURVE('',#202,#202,#232,.T.);
#161=EDGE_CURVE('',#203,#203,#233,.T.);
#162=EDGE_CURVE('',#204,#204,#234,.F.);
#163=EDGE_CURVE('',#205,#205,#235,.T.);
#164=EDGE_CURVE('',#206,#206,#236,.T.);
#165=EDGE_CURVE('',#207,#207,#237,.T.);
#166=EDGE_CURVE('',#208,#199,#45,.T.);
#167=EDGE_CURVE('',#198,#208,#46,.T.);
#168=EDGE_CURVE('',#197,#209,#47,.T.);
#169=EDGE_CURVE('',#209,#198,#48,.T.);
#170=EDGE_CURVE('',#196,#210,#49,.T.);
#171=EDGE_CURVE('',#210,#197,#50,.T.);
#172=EDGE_CURVE('',#201,#211,#51,.T.);
#173=EDGE_CURVE('',#211,#196,#52,.T.);
#174=EDGE_CURVE('',#200,#212,#53,.T.);
#175=EDGE_CURVE('',#212,#201,#54,.T.);
#176=EDGE_CURVE('',#199,#213,#55,.T.);
#177=EDGE_CURVE('',#213,#200,#56,.T.);
#178=EDGE_CURVE('',#214,#214,#238,.T.);
#179=EDGE_CURVE('',#215,#215,#239,.T.);
#180=EDGE_CURVE('',#216,#216,#240,.T.);
#181=EDGE_CURVE('',#217,#217,#241,.T.);
#182=EDGE_CURVE('',#218,#218,#242,.T.);
#183=EDGE_CURVE('',#219,#220,#20,.T.);
#184=EDGE_CURVE('',#221,#219,#21,.T.);
#185=EDGE_CURVE('',#222,#221,#22,.T.);
#186=EDGE_CURVE('',#223,#222,#23,.T.);
#187=EDGE_CURVE('',#224,#223,#24,.T.);
#188=EDGE_CURVE('',#220,#224,#25,.T.);
#189=EDGE_CURVE('',#209,#219,#26,.T.);
#190=EDGE_CURVE('',#208,#220,#27,.T.);
#191=EDGE_CURVE('',#210,#221,#28,.T.);
#192=EDGE_CURVE('',#211,#222,#29,.T.);
#193=EDGE_CURVE('',#212,#223,#30,.T.);
#194=EDGE_CURVE('',#213,#224,#31,.T.);
#195=VERTEX_POINT('',#520);
#196=VERTEX_POINT('',#522);
#197=VERTEX_POINT('',#523);
#198=VERTEX_POINT('',#525);
#199=VERTEX_POINT('',#527);
#200=VERTEX_POINT('',#529);
#201=VERTEX_POINT('',#531);
#202=VERTEX_POINT('',#535);
#203=VERTEX_POINT('',#538);
#204=VERTEX_POINT('',#540);
#205=VERTEX_POINT('',#543);
#206=VERTEX_POINT('',#546);
#207=VERTEX_POINT('',#549);
#208=VERTEX_POINT('',#557);
#209=VERTEX_POINT('',#567);
#210=VERTEX_POINT('',#577);
#211=VERTEX_POINT('',#587);
#212=VERTEX_POINT('',#597);
#213=VERTEX_POINT('',#607);
#214=VERTEX_POINT('',#614);
#215=VERTEX_POINT('',#617);
#216=VERTEX_POINT('',#620);
#217=VERTEX_POINT('',#623);
#218=VERTEX_POINT('',#626);
#219=VERTEX_POINT('',#629);
#220=VERTEX_POINT('',#630);
#221=VERTEX_POINT('',#632);
#222=VERTEX_POINT('',#634);
#223=VERTEX_POINT('',#636);
#224=VERTEX_POINT('',#638);
#225=CIRCLE('',#372,5.1);
#226=CIRCLE('',#373,7.00000000000001);
#227=CIRCLE('',#374,7.00000000000001);
#228=CIRCLE('',#375,7.00000000000001);
#229=CIRCLE('',#376,7.00000000000001);
#230=CIRCLE('',#377,7.00000000000001);
#231=CIRCLE('',#378,7.00000000000001);
#232=CIRCLE('',#380,5.1);
#233=CIRCLE('',#382,0.75);
#234=CIRCLE('',#383,0.75);
#235=CIRCLE('',#385,3.77034137435581);
#236=CIRCLE('',#387,4.77034137435581);
#237=CIRCLE('',#389,5.05131725128838);
#238=CIRCLE('',#399,19.25);
#239=CIRCLE('',#401,19.25);
#240=CIRCLE('',#403,19.5);
#241=CIRCLE('',#405,19.2785687998034);
#242=CIRCLE('',#407,16.2787074736196);
#243=EDGE_LOOP('',(#69));
#244=EDGE_LOOP('',(#70,#71,#72,#73,#74,#75));
#245=EDGE_LOOP('',(#76));
#246=EDGE_LOOP('',(#77));
#247=EDGE_LOOP('',(#78));
#248=EDGE_LOOP('',(#79));
#249=EDGE_LOOP('',(#80));
#250=EDGE_LOOP('',(#81));
#251=EDGE_LOOP('',(#82));
#252=EDGE_LOOP('',(#83));
#253=EDGE_LOOP('',(#84));
#254=EDGE_LOOP('',(#85));
#255=EDGE_LOOP('',(#86));
#256=EDGE_LOOP('',(#87));
#257=EDGE_LOOP('',(#88));
#258=EDGE_LOOP('',(#89,#90,#91));
#259=EDGE_LOOP('',(#92,#93,#94));
#260=EDGE_LOOP('',(#95,#96,#97));
#261=EDGE_LOOP('',(#98,#99,#100));
#262=EDGE_LOOP('',(#101,#102,#103));
#263=EDGE_LOOP('',(#104,#105,#106));
#264=EDGE_LOOP('',(#107));
#265=EDGE_LOOP('',(#108));
#266=EDGE_LOOP('',(#109));
#267=EDGE_LOOP('',(#110));
#268=EDGE_LOOP('',(#111));
#269=EDGE_LOOP('',(#112));
#270=EDGE_LOOP('',(#113));
#271=EDGE_LOOP('',(#114));
#272=EDGE_LOOP('',(#115));
#273=EDGE_LOOP('',(#116,#117,#118,#119,#120,#121));
#274=EDGE_LOOP('',(#122));
#275=EDGE_LOOP('',(#123,#124,#125,#126,#127));
#276=EDGE_LOOP('',(#128,#129,#130,#131,#132));
#277=EDGE_LOOP('',(#133,#134,#135,#136,#137));
#278=EDGE_LOOP('',(#138,#139,#140,#141,#142));
#279=EDGE_LOOP('',(#143,#144,#145,#146,#147));
#280=EDGE_LOOP('',(#148,#149,#150,#151,#152));
#281=FACE_BOUND('',#243,.T.);
#282=FACE_BOUND('',#244,.T.);
#283=FACE_BOUND('',#245,.T.);
#284=FACE_BOUND('',#246,.T.);
#285=FACE_BOUND('',#247,.T.);
#286=FACE_BOUND('',#248,.T.);
#287=FACE_BOUND('',#249,.T.);
#288=FACE_BOUND('',#250,.T.);
#289=FACE_BOUND('',#251,.T.);
#290=FACE_BOUND('',#252,.T.);
#291=FACE_BOUND('',#253,.T.);
#292=FACE_BOUND('',#254,.T.);
#293=FACE_BOUND('',#255,.T.);
#294=FACE_BOUND('',#256,.T.);
#295=FACE_BOUND('',#257,.T.);
#296=FACE_BOUND('',#258,.T.);
#297=FACE_BOUND('',#259,.T.);
#298=FACE_BOUND('',#260,.T.);
#299=FACE_BOUND('',#261,.T.);
#300=FACE_BOUND('',#262,.T.);
#301=FACE_BOUND('',#263,.T.);
#302=FACE_BOUND('',#264,.T.);
#303=FACE_BOUND('',#265,.T.);
#304=FACE_BOUND('',#266,.T.);
#305=FACE_BOUND('',#267,.T.);
#306=FACE_BOUND('',#268,.T.);
#307=FACE_BOUND('',#269,.T.);
#308=FACE_BOUND('',#270,.T.);
#309=FACE_BOUND('',#271,.T.);
#310=FACE_BOUND('',#272,.T.);
#311=FACE_BOUND('',#273,.T.);
#312=FACE_BOUND('',#274,.T.);
#313=FACE_BOUND('',#275,.T.);
#314=FACE_BOUND('',#276,.T.);
#315=FACE_BOUND('',#277,.T.);
#316=FACE_BOUND('',#278,.T.);
#317=FACE_BOUND('',#279,.T.);
#318=FACE_BOUND('',#280,.T.);
#319=PLANE('',#371);
#320=PLANE('',#384);
#321=PLANE('',#390);
#322=PLANE('',#391);
#323=PLANE('',#398);
#324=PLANE('',#402);
#325=PLANE('',#408);
#326=PLANE('',#409);
#327=PLANE('',#410);
#328=PLANE('',#411);
#329=PLANE('',#412);
#330=PLANE('',#413);
#331=PLANE('',#414);
#332=ADVANCED_FACE('',(#281,#282),#319,.T.);
#333=ADVANCED_FACE('',(#283,#284),#66,.T.);
#334=ADVANCED_FACE('',(#285,#286),#67,.F.);
#335=ADVANCED_FACE('',(#287,#288),#320,.T.);
#336=ADVANCED_FACE('',(#289,#290),#63,.T.);
#337=ADVANCED_FACE('',(#291,#292),#64,.T.);
#338=ADVANCED_FACE('',(#293,#294),#321,.T.);
#339=ADVANCED_FACE('',(#295),#322,.T.);
#340=ADVANCED_FACE('',(#296),#57,.T.);
#341=ADVANCED_FACE('',(#297),#58,.T.);
#342=ADVANCED_FACE('',(#298),#59,.T.);
#343=ADVANCED_FACE('',(#299),#60,.T.);
#344=ADVANCED_FACE('',(#300),#61,.T.);
#345=ADVANCED_FACE('',(#301),#62,.T.);
#346=ADVANCED_FACE('',(#302),#323,.F.);
#347=ADVANCED_FACE('',(#303,#304),#68,.F.);
#348=ADVANCED_FACE('',(#305,#306),#324,.F.);
#349=ADVANCED_FACE('',(#307,#308),#65,.T.);
#350=ADVANCED_FACE('',(#309,#310),#44,.T.);
#351=ADVANCED_FACE('',(#311,#312),#325,.F.);
#352=ADVANCED_FACE('',(#313),#326,.F.);
#353=ADVANCED_FACE('',(#314),#327,.F.);
#354=ADVANCED_FACE('',(#315),#328,.F.);
#355=ADVANCED_FACE('',(#316),#329,.F.);
#356=ADVANCED_FACE('',(#317),#330,.F.);
#357=ADVANCED_FACE('',(#318),#331,.F.);
#358=CLOSED_SHELL('',(#332,#333,#334,#335,#336,#337,#338,#339,#340,#341,
#342,#343,#344,#345,#346,#347,#348,#349,#350,#351,#352,#353,#354,#355,#356,
#357));
#359=STYLED_ITEM('',(#360),#367);
#360=PRESENTATION_STYLE_ASSIGNMENT((#361));
#361=SURFACE_STYLE_USAGE(.BOTH.,#362);
#362=SURFACE_SIDE_STYLE('',(#363));
#363=SURFACE_STYLE_FILL_AREA(#364);
#364=FILL_AREA_STYLE('',(#365));
#365=FILL_AREA_STYLE_COLOUR('',#366);
#366=COLOUR_RGB('',0.689999997615814,0.689999997615814,0.689999997615814);
#367=MANIFOLD_SOLID_BREP('162835 MA-40-10-1/8 EN',#358);
#368=SHAPE_DEFINITION_REPRESENTATION(#658,#369);
#369=SHAPE_REPRESENTATION('162835 MA-40-10-1/8 EN',(#370),#653);
#370=AXIS2_PLACEMENT_3D('',#517,#415,#416);
#371=AXIS2_PLACEMENT_3D('',#518,#417,#418);
#372=AXIS2_PLACEMENT_3D('',#519,#419,#420);
#373=AXIS2_PLACEMENT_3D('',#521,#421,#422);
#374=AXIS2_PLACEMENT_3D('',#524,#423,#424);
#375=AXIS2_PLACEMENT_3D('',#526,#425,#426);
#376=AXIS2_PLACEMENT_3D('',#528,#427,#428);
#377=AXIS2_PLACEMENT_3D('',#530,#429,#430);
#378=AXIS2_PLACEMENT_3D('',#532,#431,#432);
#379=AXIS2_PLACEMENT_3D('',#533,#433,#434);
#380=AXIS2_PLACEMENT_3D('',#534,#435,#436);
#381=AXIS2_PLACEMENT_3D('',#536,#437,#438);
#382=AXIS2_PLACEMENT_3D('',#537,#439,#440);
#383=AXIS2_PLACEMENT_3D('',#539,#441,#442);
#384=AXIS2_PLACEMENT_3D('',#541,#443,#444);
#385=AXIS2_PLACEMENT_3D('',#542,#445,#446);
#386=AXIS2_PLACEMENT_3D('',#544,#447,#448);
#387=AXIS2_PLACEMENT_3D('',#545,#449,#450);
#388=AXIS2_PLACEMENT_3D('',#547,#451,#452);
#389=AXIS2_PLACEMENT_3D('',#548,#453,#454);
#390=AXIS2_PLACEMENT_3D('',#550,#455,#456);
#391=AXIS2_PLACEMENT_3D('',#551,#457,#458);
#392=AXIS2_PLACEMENT_3D('',#552,#459,#460);
#393=AXIS2_PLACEMENT_3D('',#562,#461,#462);
#394=AXIS2_PLACEMENT_3D('',#572,#463,#464);
#395=AXIS2_PLACEMENT_3D('',#582,#465,#466);
#396=AXIS2_PLACEMENT_3D('',#592,#467,#468);
#397=AXIS2_PLACEMENT_3D('',#602,#469,#470);
#398=AXIS2_PLACEMENT_3D('',#612,#471,#472);
#399=AXIS2_PLACEMENT_3D('',#613,#473,#474);
#400=AXIS2_PLACEMENT_3D('',#615,#475,#476);
#401=AXIS2_PLACEMENT_3D('',#616,#477,#478);
#402=AXIS2_PLACEMENT_3D('',#618,#479,#480);
#403=AXIS2_PLACEMENT_3D('',#619,#481,#482);
#404=AXIS2_PLACEMENT_3D('',#621,#483,#484);
#405=AXIS2_PLACEMENT_3D('',#622,#485,#486);
#406=AXIS2_PLACEMENT_3D('',#624,#487,#488);
#407=AXIS2_PLACEMENT_3D('',#625,#489,#490);
#408=AXIS2_PLACEMENT_3D('',#627,#491,#492);
#409=AXIS2_PLACEMENT_3D('',#640,#499,#500);
#410=AXIS2_PLACEMENT_3D('',#643,#503,#504);
#411=AXIS2_PLACEMENT_3D('',#645,#506,#507);
#412=AXIS2_PLACEMENT_3D('',#647,#509,#510);
#413=AXIS2_PLACEMENT_3D('',#649,#512,#513);
#414=AXIS2_PLACEMENT_3D('',#651,#515,#516);
#415=DIRECTION('',(0.,0.,1.));
#416=DIRECTION('',(1.,0.,0.));
#417=DIRECTION('',(1.,0.,0.));
#418=DIRECTION('',(0.,0.,-1.));
#419=DIRECTION('',(1.,0.,0.));
#420=DIRECTION('',(0.,0.,-1.));
#421=DIRECTION('',(1.,0.,0.));
#422=DIRECTION('',(0.,0.,-1.));
#423=DIRECTION('',(1.,0.,0.));
#424=DIRECTION('',(0.,0.,-1.));
#425=DIRECTION('',(1.,0.,0.));
#426=DIRECTION('',(0.,0.,-1.));
#427=DIRECTION('',(1.,0.,0.));
#428=DIRECTION('',(0.,0.,-1.));
#429=DIRECTION('',(1.,0.,0.));
#430=DIRECTION('',(0.,0.,-1.));
#431=DIRECTION('',(1.,0.,0.));
#432=DIRECTION('',(0.,0.,-1.));
#433=DIRECTION('',(1.,0.,0.));
#434=DIRECTION('',(0.,0.,-1.));
#435=DIRECTION('',(1.,0.,0.));
#436=DIRECTION('',(0.,0.,-1.));
#437=DIRECTION('',(1.,0.,0.));
#438=DIRECTION('',(0.,0.,-1.));
#439=DIRECTION('',(1.,0.,0.));
#440=DIRECTION('',(0.,0.,-1.));
#441=DIRECTION('',(1.,0.,0.));
#442=DIRECTION('',(0.,0.,-1.));
#443=DIRECTION('',(1.,0.,0.));
#444=DIRECTION('',(0.,0.,-1.));
#445=DIRECTION('',(1.,0.,0.));
#446=DIRECTION('',(0.,0.,-1.));
#447=DIRECTION('',(-1.,0.,0.));
#448=DIRECTION('',(0.,0.,1.));
#449=DIRECTION('',(1.,0.,0.));
#450=DIRECTION('',(0.,0.,-1.));
#451=DIRECTION('',(-1.,0.,0.));
#452=DIRECTION('',(0.,0.,1.));
#453=DIRECTION('',(1.,0.,0.));
#454=DIRECTION('',(0.,0.,-1.));
#455=DIRECTION('',(1.,0.,0.));
#456=DIRECTION('',(0.,0.,-1.));
#457=DIRECTION('',(1.,0.,0.));
#458=DIRECTION('',(0.,0.,-1.));
#459=DIRECTION('',(1.,0.,0.));
#460=DIRECTION('',(0.,0.,-1.));
#461=DIRECTION('',(1.,0.,0.));
#462=DIRECTION('',(0.,0.,-1.));
#463=DIRECTION('',(1.,0.,0.));
#464=DIRECTION('',(0.,0.,-1.));
#465=DIRECTION('',(1.,0.,0.));
#466=DIRECTION('',(0.,0.,-1.));
#467=DIRECTION('',(1.,0.,0.));
#468=DIRECTION('',(0.,0.,-1.));
#469=DIRECTION('',(1.,0.,0.));
#470=DIRECTION('',(0.,0.,-1.));
#471=DIRECTION('',(1.,0.,0.));
#472=DIRECTION('',(0.,0.,-1.));
#473=DIRECTION('',(1.,0.,0.));
#474=DIRECTION('',(0.,0.,-1.));
#475=DIRECTION('',(1.,0.,0.));
#476=DIRECTION('',(0.,0.,-1.));
#477=DIRECTION('',(1.,0.,0.));
#478=DIRECTION('',(0.,0.,-1.));
#479=DIRECTION('',(1.,0.,0.));
#480=DIRECTION('',(0.,0.,-1.));
#481=DIRECTION('',(1.,0.,0.));
#482=DIRECTION('',(0.,0.,-1.));
#483=DIRECTION('',(-1.,0.,0.));
#484=DIRECTION('',(0.,0.,1.));
#485=DIRECTION('',(1.,0.,0.));
#486=DIRECTION('',(0.,0.,-1.));
#487=DIRECTION('',(1.,0.,0.));
#488=DIRECTION('',(0.,0.,-1.));
#489=DIRECTION('',(1.,0.,0.));
#490=DIRECTION('',(0.,0.,-1.));
#491=DIRECTION('',(-1.,0.,0.));
#492=DIRECTION('',(0.,0.,1.));
#493=DIRECTION('',(0.,-0.5,0.866025403784439));
#494=DIRECTION('',(0.,0.5,0.866025403784439));
#495=DIRECTION('',(0.,1.,0.));
#496=DIRECTION('',(0.,0.5,-0.866025403784439));
#497=DIRECTION('',(0.,-0.5,-0.866025403784439));
#498=DIRECTION('',(0.,-1.,0.));
#499=DIRECTION('',(0.,-0.866025403784439,-0.5));
#500=DIRECTION('',(0.,0.5,-0.866025403784439));
#501=DIRECTION('',(-1.,0.,0.));
#502=DIRECTION('',(-1.,0.,0.));
#503=DIRECTION('',(0.,-0.866025403784439,0.5));
#504=DIRECTION('',(0.,-0.5,-0.866025403784439));
#505=DIRECTION('',(-1.,0.,0.));
#506=DIRECTION('',(0.,0.,1.));
#507=DIRECTION('',(1.,0.,0.));
#508=DIRECTION('',(-1.,0.,0.));
#509=DIRECTION('',(0.,0.866025403784439,0.5));
#510=DIRECTION('',(0.,-0.5,0.866025403784439));
#511=DIRECTION('',(-1.,0.,0.));
#512=DIRECTION('',(0.,0.866025403784439,-0.5));
#513=DIRECTION('',(0.,0.5,0.866025403784439));
#514=DIRECTION('',(-1.,0.,0.));
#515=DIRECTION('',(0.,0.,-1.));
#516=DIRECTION('',(-1.,0.,0.));
#517=CARTESIAN_POINT('',(0.,0.,0.));
#518=CARTESIAN_POINT('',(0.,0.,0.));
#519=CARTESIAN_POINT('',(0.,0.,0.));
#520=CARTESIAN_POINT('',(0.,0.,-5.1));
#521=CARTESIAN_POINT('',(1.73472347597681E-15,0.,0.));
#522=CARTESIAN_POINT('',(0.,0.,-7.));
#523=CARTESIAN_POINT('',(1.73472347597681E-15,6.06217782649107,-3.5));
#524=CARTESIAN_POINT('',(1.73472347597681E-15,0.,0.));
#525=CARTESIAN_POINT('',(1.73472347597681E-15,6.06217782649107,3.5));
#526=CARTESIAN_POINT('',(1.73472347597681E-15,0.,0.));
#527=CARTESIAN_POINT('',(1.73472347597681E-15,0.,7.));
#528=CARTESIAN_POINT('',(1.73472347597681E-15,0.,0.));
#529=CARTESIAN_POINT('',(1.73472347597681E-15,-6.06217782649107,3.5));
#530=CARTESIAN_POINT('',(1.73472347597681E-15,0.,0.));
#531=CARTESIAN_POINT('',(1.73472347597681E-15,-6.06217782649107,-3.5));
#532=CARTESIAN_POINT('',(1.73472347597681E-15,0.,0.));
#533=CARTESIAN_POINT('',(12.,0.,0.));
#534=CARTESIAN_POINT('',(2.,0.,0.));
#535=CARTESIAN_POINT('',(2.,0.,-5.1));
#536=CARTESIAN_POINT('',(12.,0.,0.));
#537=CARTESIAN_POINT('',(12.,0.,0.));
#538=CARTESIAN_POINT('',(12.,0.,-0.75));
#539=CARTESIAN_POINT('',(0.,0.,0.));
#540=CARTESIAN_POINT('',(0.,0.,-0.75));
#541=CARTESIAN_POINT('',(12.,0.75,0.));
#542=CARTESIAN_POINT('',(12.,0.,0.));
#543=CARTESIAN_POINT('',(12.,0.,-3.77034137435581));
#544=CARTESIAN_POINT('',(12.,0.,0.));
#545=CARTESIAN_POINT('',(11.,0.,0.));
#546=CARTESIAN_POINT('',(11.,0.,-4.77034137435581));
#547=CARTESIAN_POINT('',(11.,0.,0.));
#548=CARTESIAN_POINT('',(2.,0.,0.));
#549=CARTESIAN_POINT('',(2.,0.,-5.05131725128838));
#550=CARTESIAN_POINT('',(2.,5.05131725128838,0.));
#551=CARTESIAN_POINT('',(0.,0.,0.));
#552=CARTESIAN_POINT('',(-7.93975806058226,0.,0.));
#553=CARTESIAN_POINT('',(-0.210284548978177,4.04145188432738,7.));
#554=CARTESIAN_POINT('',(-0.0306187346300902,2.69502315952693,7.));
#555=CARTESIAN_POINT('',(2.02249643446205E-18,1.34761244483251,7.));
#556=CARTESIAN_POINT('',(9.74843230853606E-17,4.01772031620388E-15,7.));
#557=CARTESIAN_POINT('',(-0.210284548977693,4.04145188432738,7.));
#558=CARTESIAN_POINT('',(5.418108097865E-16,6.06217782649107,3.5));
#559=CARTESIAN_POINT('',(4.94717509412833E-16,5.38860251243651,4.66666666666667));
#560=CARTESIAN_POINT('',(-0.0305224047285645,4.71502719838194,5.83333333333334));
#561=CARTESIAN_POINT('',(-0.210284548977693,4.04145188432738,7.));
#562=CARTESIAN_POINT('',(-7.93975806058226,0.,0.));
#563=CARTESIAN_POINT('',(3.51016638417469E-16,6.06217782649107,-3.5));
#564=CARTESIAN_POINT('',(3.98109938791136E-16,6.73575314054563,-2.33333333333333));
#565=CARTESIAN_POINT('',(-0.0305224047285636,7.4093284546002,-1.16666666666667));
#566=CARTESIAN_POINT('',(-0.210284548977692,8.08290376865476,-4.10309914762282E-15));
#567=CARTESIAN_POINT('',(-0.210284548978177,8.08290376865476,0.));
#568=CARTESIAN_POINT('',(-0.210284548977692,8.08290376865476,5.29250835426741E-17));
#569=CARTESIAN_POINT('',(-0.0305224047285632,7.4093284546002,1.16666666666667));
#570=CARTESIAN_POINT('',(1.49352279871484E-15,6.73575314054563,2.33333333333333));
#571=CARTESIAN_POINT('',(1.44642949834117E-15,6.06217782649107,3.5));
#572=CARTESIAN_POINT('',(-7.93975806058226,0.,0.));
#573=CARTESIAN_POINT('',(2.04668830083691E-15,9.14106453437865E-16,-7.));
#574=CARTESIAN_POINT('',(2.02498197855519E-15,1.346804148948,-7.));
#575=CARTESIAN_POINT('',(-0.0309657011485284,2.6976233519378,-7.));
#576=CARTESIAN_POINT('',(-0.210284548978161,4.04145188432727,-7.));
#577=CARTESIAN_POINT('',(-0.210284548977693,4.04145188432738,-7.));
#578=CARTESIAN_POINT('',(-0.210284548977693,4.04145188432738,-7.));
#579=CARTESIAN_POINT('',(-0.0305224047285643,4.71502719838194,-5.83333333333333));
#580=CARTESIAN_POINT('',(2.02871466806672E-15,5.38860251243651,-4.66666666666667));
#581=CARTESIAN_POINT('',(2.07580796844039E-15,6.06217782649107,-3.5));
#582=CARTESIAN_POINT('',(-7.93975806058226,0.,0.));
#583=CARTESIAN_POINT('',(5.418108097865E-16,-6.06217782649107,-3.5));
#584=CARTESIAN_POINT('',(4.94717509412676E-16,-5.38860251243426,-4.66666666667057));
#585=CARTESIAN_POINT('',(-0.0305224047286851,-4.71502719837744,-5.83333333334113));
#586=CARTESIAN_POINT('',(-0.210284548979496,-4.04145188432063,-7.0000000000117));
#587=CARTESIAN_POINT('',(-0.210284548974571,-4.04145188430036,-7.));
#588=CARTESIAN_POINT('',(-0.21028454897457,-4.04145188430036,-7.));
#589=CARTESIAN_POINT('',(-0.0306187346298453,-2.6950231595089,-7.));
#590=CARTESIAN_POINT('',(7.64890674634784E-16,-1.34761244482349,-7.));
#591=CARTESIAN_POINT('',(7.42956419586308E-16,9.23151224121465E-16,-7.));
#592=CARTESIAN_POINT('',(-7.93975806058226,0.,0.));
#593=CARTESIAN_POINT('',(3.51016638417469E-16,-6.06217782649107,3.5));
#594=CARTESIAN_POINT('',(3.98109938791136E-16,-6.73575314054563,2.33333333333333));
#595=CARTESIAN_POINT('',(-0.0305224047285636,-7.4093284546002,1.16666666666667));
#596=CARTESIAN_POINT('',(-0.210284548977692,-8.08290376865476,4.10309914762282E-15));
#597=CARTESIAN_POINT('',(-0.210284548977692,-8.08290376865476,-3.02342785694257E-17));
#598=CARTESIAN_POINT('',(-0.210284548977692,-8.08290376865476,-6.56508436764961E-17));
#599=CARTESIAN_POINT('',(-0.0305224047285632,-7.4093284546002,-1.16666666666667));
#600=CARTESIAN_POINT('',(1.49352279871484E-15,-6.73575314054563,-2.33333333333333));
#601=CARTESIAN_POINT('',(1.44642949834117E-15,-6.06217782649107,-3.5));
#602=CARTESIAN_POINT('',(-7.93975806058226,0.,0.));
#603=CARTESIAN_POINT('',(2.35879347212051E-15,1.43030620486728E-15,7.));
#604=CARTESIAN_POINT('',(2.39275744571202E-15,-1.346804148948,7.));
#605=CARTESIAN_POINT('',(-0.0309657011485287,-2.6976233519378,7.));
#606=CARTESIAN_POINT('',(-0.210284548978161,-4.04145188432727,7.));
#607=CARTESIAN_POINT('',(-0.210284548977693,-4.04145188432738,7.));
#608=CARTESIAN_POINT('',(-0.210284548977693,-4.04145188432738,7.));
#609=CARTESIAN_POINT('',(-0.0305224047285643,-4.71502719838194,5.83333333333333));
#610=CARTESIAN_POINT('',(2.02871466806672E-15,-5.38860251243651,4.66666666666667));
#611=CARTESIAN_POINT('',(2.07580796844039E-15,-6.06217782649107,3.5));
#612=CARTESIAN_POINT('',(-33.5,0.,0.));
#613=CARTESIAN_POINT('',(-33.5,0.,0.));
#614=CARTESIAN_POINT('',(-33.5,0.,-19.25));
#615=CARTESIAN_POINT('',(-8.,0.,0.));
#616=CARTESIAN_POINT('',(-34.,0.,0.));
#617=CARTESIAN_POINT('',(-34.,0.,-19.25));
#618=CARTESIAN_POINT('',(-34.,19.25,0.));
#619=CARTESIAN_POINT('',(-34.,0.,0.));
#620=CARTESIAN_POINT('',(-34.,0.,-19.5));
#621=CARTESIAN_POINT('',(-34.,0.,0.));
#622=CARTESIAN_POINT('',(-10.9711551795559,0.,0.));
#623=CARTESIAN_POINT('',(-10.9711551795559,0.,-19.2785687998034));
#624=CARTESIAN_POINT('',(-11.,0.,0.));
#625=CARTESIAN_POINT('',(-8.,0.,0.));
#626=CARTESIAN_POINT('',(-8.,0.,-16.2787074736196));
#627=CARTESIAN_POINT('',(-8.,16.2787074736196,0.));
#628=CARTESIAN_POINT('',(-8.,8.08290376865476,0.));
#629=CARTESIAN_POINT('',(-8.,8.08290376865476,-4.33680868994202E-16));
#630=CARTESIAN_POINT('',(-8.,4.04145188432738,7.));
#631=CARTESIAN_POINT('',(-8.,4.04145188432738,-7.));
#632=CARTESIAN_POINT('',(-8.,4.04145188432738,-7.));
#633=CARTESIAN_POINT('',(-8.,-4.04145188432738,-7.));
#634=CARTESIAN_POINT('',(-8.,-4.04145188432738,-7.));
#635=CARTESIAN_POINT('',(-8.,-8.08290376865476,0.));
#636=CARTESIAN_POINT('',(-8.,-8.08290376865476,0.));
#637=CARTESIAN_POINT('',(-8.,-4.04145188432738,7.));
#638=CARTESIAN_POINT('',(-8.,-4.04145188432738,7.));
#639=CARTESIAN_POINT('',(-8.,4.04145188432738,7.));
#640=CARTESIAN_POINT('',(0.,8.08290376865476,0.));
#641=CARTESIAN_POINT('',(0.,8.08290376865476,0.));
#642=CARTESIAN_POINT('',(0.,4.04145188432738,7.));
#643=CARTESIAN_POINT('',(0.,4.04145188432738,-7.));
#644=CARTESIAN_POINT('',(0.,4.04145188432738,-7.));
#645=CARTESIAN_POINT('',(0.,-4.04145188432738,-7.));
#646=CARTESIAN_POINT('',(0.,-4.04145188432738,-7.));
#647=CARTESIAN_POINT('',(0.,-8.08290376865476,0.));
#648=CARTESIAN_POINT('',(0.,-8.08290376865476,0.));
#649=CARTESIAN_POINT('',(0.,-4.04145188432738,7.));
#650=CARTESIAN_POINT('',(0.,-4.04145188432738,7.));
#651=CARTESIAN_POINT('',(0.,4.04145188432738,7.));
#652=MECHANICAL_DESIGN_GEOMETRIC_PRESENTATION_REPRESENTATION('',(#359),
#653);
#653=(
GEOMETRIC_REPRESENTATION_CONTEXT(3)
GLOBAL_UNCERTAINTY_ASSIGNED_CONTEXT((#654))
GLOBAL_UNIT_ASSIGNED_CONTEXT((#657,#656,#655))
REPRESENTATION_CONTEXT('162835 MA-40-10-1/8 EN',
'TOP_LEVEL_ASSEMBLY_PART')
);
#654=UNCERTAINTY_MEASURE_WITH_UNIT(LENGTH_MEASURE(0.005),#657,
'DISTANCE_ACCURACY_VALUE','Maximum Tolerance applied to model');
#655=(
NAMED_UNIT(*)
SI_UNIT($,.STERADIAN.)
SOLID_ANGLE_UNIT()
);
#656=(
NAMED_UNIT(*)
PLANE_ANGLE_UNIT()
SI_UNIT($,.RADIAN.)
);
#657=(
LENGTH_UNIT()
NAMED_UNIT(*)
SI_UNIT(.MILLI.,.METRE.)
);
#658=PRODUCT_DEFINITION_SHAPE('','',#659);
#659=PRODUCT_DEFINITION('','',#661,#660);
#660=PRODUCT_DEFINITION_CONTEXT('',#667,'design');
#661=PRODUCT_DEFINITION_FORMATION_WITH_SPECIFIED_SOURCE('','',#663,
 .NOT_KNOWN.);
#662=PRODUCT_RELATED_PRODUCT_CATEGORY('','',(#663));
#663=PRODUCT('162835 MA-40-10-1/8 EN','162835 MA-40-10-1/8 EN',
'162835 MA-40-10-1/8 EN',(#665));
#664=PRODUCT_CATEGORY('','');
#665=PRODUCT_CONTEXT('',#667,'mechanical');
#666=APPLICATION_PROTOCOL_DEFINITION('international standard',
'automotive_design',2010,#667);
#667=APPLICATION_CONTEXT(
'core data for automotive mechanical design processes');
ENDSEC;
END-ISO-10303-21;
