ISO-10303-21;
HEADER;
/* Generated by software containing ST-Developer
 * from STEP Tools, Inc. (www.steptools.com) 
 */
/* OPTION: using custom renumber hook */

FILE_DESCRIPTION(
/* description */ ('STEP AP214'),
/* implementation_level */ '2;1');

FILE_NAME(
/* name */ '162838_MA-50-10-1_4-EN',
/* time_stamp */ '2024-09-04T21:58:52+02:00',
/* author */ ('License CC BY-ND 4.0'),
/* organization */ ('CADENAS'),
/* preprocessor_version */ 'ST-DEVELOPER v19.3',
/* originating_system */ 'PARTsolutions',
/* authorisation */ '  ');

FILE_SCHEMA (('AUTOMOTIVE_DESIGN {1 0 10303 214 3 1 1}'));
ENDSEC;

DATA;
#10=PROPERTY_DEFINITION_REPRESENTATION(#14,#12);
#11=PROPERTY_DEFINITION_REPRESENTATION(#15,#13);
#12=REPRESENTATION('',(#16),#425);
#13=REPRESENTATION('',(#17),#425);
#14=PROPERTY_DEFINITION('pmi validation property','',#430);
#15=PROPERTY_DEFINITION('pmi validation property','',#430);
#16=VALUE_REPRESENTATION_ITEM('number of annotations',COUNT_MEASURE(0.));
#17=VALUE_REPRESENTATION_ITEM('number of views',COUNT_MEASURE(0.));
#18=SHAPE_REPRESENTATION_RELATIONSHIP('','',#255,#19);
#19=ADVANCED_BREP_SHAPE_REPRESENTATION('',(#253),#425);
#20=CONICAL_SURFACE('',#276,6.5785,0.785398163397449);
#21=LINE('',#375,#33);
#22=LINE('',#378,#34);
#23=LINE('',#380,#35);
#24=LINE('',#382,#36);
#25=LINE('',#384,#37);
#26=LINE('',#387,#38);
#27=LINE('',#388,#39);
#28=LINE('',#390,#40);
#29=LINE('',#392,#41);
#30=LINE('',#394,#42);
#31=LINE('',#396,#43);
#32=LINE('',#398,#44);
#33=VECTOR('',#307,1000.);
#34=VECTOR('',#308,1000.);
#35=VECTOR('',#309,1000.);
#36=VECTOR('',#310,1000.);
#37=VECTOR('',#313,1000.);
#38=VECTOR('',#314,1000.);
#39=VECTOR('',#315,1000.);
#40=VECTOR('',#318,1000.);
#41=VECTOR('',#319,1000.);
#42=VECTOR('',#322,1000.);
#43=VECTOR('',#323,1000.);
#44=VECTOR('',#326,1000.);
#45=CYLINDRICAL_SURFACE('',#261,24.5);
#46=CYLINDRICAL_SURFACE('',#274,6.5785);
#47=CYLINDRICAL_SURFACE('',#280,4.75);
#48=CYLINDRICAL_SURFACE('',#284,2.5);
#49=TOROIDAL_SURFACE('',#259,21.5,3.);
#50=TOROIDAL_SURFACE('',#263,23.,1.5);
#51=TOROIDAL_SURFACE('',#272,7.03675756949559,1.1);
#52=ORIENTED_EDGE('',*,*,#100,.F.);
#53=ORIENTED_EDGE('',*,*,#100,.T.);
#54=ORIENTED_EDGE('',*,*,#101,.F.);
#55=ORIENTED_EDGE('',*,*,#102,.F.);
#56=ORIENTED_EDGE('',*,*,#101,.T.);
#57=ORIENTED_EDGE('',*,*,#102,.T.);
#58=ORIENTED_EDGE('',*,*,#103,.F.);
#59=ORIENTED_EDGE('',*,*,#104,.T.);
#60=ORIENTED_EDGE('',*,*,#105,.F.);
#61=ORIENTED_EDGE('',*,*,#106,.F.);
#62=ORIENTED_EDGE('',*,*,#107,.F.);
#63=ORIENTED_EDGE('',*,*,#103,.T.);
#64=ORIENTED_EDGE('',*,*,#108,.F.);
#65=ORIENTED_EDGE('',*,*,#109,.F.);
#66=ORIENTED_EDGE('',*,*,#107,.T.);
#67=ORIENTED_EDGE('',*,*,#110,.T.);
#68=ORIENTED_EDGE('',*,*,#111,.F.);
#69=ORIENTED_EDGE('',*,*,#110,.F.);
#70=ORIENTED_EDGE('',*,*,#106,.T.);
#71=ORIENTED_EDGE('',*,*,#112,.T.);
#72=ORIENTED_EDGE('',*,*,#113,.F.);
#73=ORIENTED_EDGE('',*,*,#112,.F.);
#74=ORIENTED_EDGE('',*,*,#105,.T.);
#75=ORIENTED_EDGE('',*,*,#114,.T.);
#76=ORIENTED_EDGE('',*,*,#115,.F.);
#77=ORIENTED_EDGE('',*,*,#114,.F.);
#78=ORIENTED_EDGE('',*,*,#104,.F.);
#79=ORIENTED_EDGE('',*,*,#109,.T.);
#80=ORIENTED_EDGE('',*,*,#116,.F.);
#81=ORIENTED_EDGE('',*,*,#108,.T.);
#82=ORIENTED_EDGE('',*,*,#111,.T.);
#83=ORIENTED_EDGE('',*,*,#113,.T.);
#84=ORIENTED_EDGE('',*,*,#115,.T.);
#85=ORIENTED_EDGE('',*,*,#117,.F.);
#86=ORIENTED_EDGE('',*,*,#116,.T.);
#87=ORIENTED_EDGE('',*,*,#118,.F.);
#88=ORIENTED_EDGE('',*,*,#117,.T.);
#89=ORIENTED_EDGE('',*,*,#119,.F.);
#90=ORIENTED_EDGE('',*,*,#118,.T.);
#91=ORIENTED_EDGE('',*,*,#120,.F.);
#92=ORIENTED_EDGE('',*,*,#119,.T.);
#93=ORIENTED_EDGE('',*,*,#121,.F.);
#94=ORIENTED_EDGE('',*,*,#120,.T.);
#95=ORIENTED_EDGE('',*,*,#122,.F.);
#96=ORIENTED_EDGE('',*,*,#121,.T.);
#97=ORIENTED_EDGE('',*,*,#123,.F.);
#98=ORIENTED_EDGE('',*,*,#122,.T.);
#99=ORIENTED_EDGE('',*,*,#123,.T.);
#100=EDGE_CURVE('',#124,#124,#144,.T.);
#101=EDGE_CURVE('',#125,#125,#145,.T.);
#102=EDGE_CURVE('',#126,#126,#146,.T.);
#103=EDGE_CURVE('',#127,#127,#147,.T.);
#104=EDGE_CURVE('',#128,#129,#21,.T.);
#105=EDGE_CURVE('',#130,#129,#22,.T.);
#106=EDGE_CURVE('',#131,#130,#23,.T.);
#107=EDGE_CURVE('',#128,#131,#24,.T.);
#108=EDGE_CURVE('',#132,#133,#25,.T.);
#109=EDGE_CURVE('',#128,#132,#26,.T.);
#110=EDGE_CURVE('',#131,#133,#27,.T.);
#111=EDGE_CURVE('',#133,#134,#28,.T.);
#112=EDGE_CURVE('',#130,#134,#29,.T.);
#113=EDGE_CURVE('',#134,#135,#30,.T.);
#114=EDGE_CURVE('',#129,#135,#31,.T.);
#115=EDGE_CURVE('',#135,#132,#32,.T.);
#116=EDGE_CURVE('',#136,#136,#148,.T.);
#117=EDGE_CURVE('',#137,#137,#149,.T.);
#118=EDGE_CURVE('',#138,#138,#150,.T.);
#119=EDGE_CURVE('',#139,#139,#151,.T.);
#120=EDGE_CURVE('',#140,#140,#152,.T.);
#121=EDGE_CURVE('',#141,#141,#153,.T.);
#122=EDGE_CURVE('',#142,#142,#154,.T.);
#123=EDGE_CURVE('',#143,#143,#155,.T.);
#124=VERTEX_POINT('',#364);
#125=VERTEX_POINT('',#367);
#126=VERTEX_POINT('',#370);
#127=VERTEX_POINT('',#373);
#128=VERTEX_POINT('',#376);
#129=VERTEX_POINT('',#377);
#130=VERTEX_POINT('',#379);
#131=VERTEX_POINT('',#381);
#132=VERTEX_POINT('',#385);
#133=VERTEX_POINT('',#386);
#134=VERTEX_POINT('',#391);
#135=VERTEX_POINT('',#395);
#136=VERTEX_POINT('',#401);
#137=VERTEX_POINT('',#404);
#138=VERTEX_POINT('',#407);
#139=VERTEX_POINT('',#410);
#140=VERTEX_POINT('',#413);
#141=VERTEX_POINT('',#416);
#142=VERTEX_POINT('',#419);
#143=VERTEX_POINT('',#422);
#144=CIRCLE('',#258,21.5);
#145=CIRCLE('',#260,24.5);
#146=CIRCLE('',#262,24.5);
#147=CIRCLE('',#264,23.);
#148=CIRCLE('',#271,6.5785);
#149=CIRCLE('',#273,6.5785);
#150=CIRCLE('',#275,6.5785);
#151=CIRCLE('',#277,5.7225);
#152=CIRCLE('',#279,4.75);
#153=CIRCLE('',#281,4.75);
#154=CIRCLE('',#283,2.5);
#155=CIRCLE('',#285,2.5);
#156=EDGE_LOOP('',(#52));
#157=EDGE_LOOP('',(#53));
#158=EDGE_LOOP('',(#54));
#159=EDGE_LOOP('',(#55));
#160=EDGE_LOOP('',(#56));
#161=EDGE_LOOP('',(#57));
#162=EDGE_LOOP('',(#58));
#163=EDGE_LOOP('',(#59,#60,#61,#62));
#164=EDGE_LOOP('',(#63));
#165=EDGE_LOOP('',(#64,#65,#66,#67));
#166=EDGE_LOOP('',(#68,#69,#70,#71));
#167=EDGE_LOOP('',(#72,#73,#74,#75));
#168=EDGE_LOOP('',(#76,#77,#78,#79));
#169=EDGE_LOOP('',(#80));
#170=EDGE_LOOP('',(#81,#82,#83,#84));
#171=EDGE_LOOP('',(#85));
#172=EDGE_LOOP('',(#86));
#173=EDGE_LOOP('',(#87));
#174=EDGE_LOOP('',(#88));
#175=EDGE_LOOP('',(#89));
#176=EDGE_LOOP('',(#90));
#177=EDGE_LOOP('',(#91));
#178=EDGE_LOOP('',(#92));
#179=EDGE_LOOP('',(#93));
#180=EDGE_LOOP('',(#94));
#181=EDGE_LOOP('',(#95));
#182=EDGE_LOOP('',(#96));
#183=EDGE_LOOP('',(#97));
#184=EDGE_LOOP('',(#98));
#185=EDGE_LOOP('',(#99));
#186=FACE_BOUND('',#156,.T.);
#187=FACE_BOUND('',#157,.T.);
#188=FACE_BOUND('',#158,.T.);
#189=FACE_BOUND('',#159,.T.);
#190=FACE_BOUND('',#160,.T.);
#191=FACE_BOUND('',#161,.T.);
#192=FACE_BOUND('',#162,.T.);
#193=FACE_BOUND('',#163,.T.);
#194=FACE_BOUND('',#164,.T.);
#195=FACE_BOUND('',#165,.T.);
#196=FACE_BOUND('',#166,.T.);
#197=FACE_BOUND('',#167,.T.);
#198=FACE_BOUND('',#168,.T.);
#199=FACE_BOUND('',#169,.T.);
#200=FACE_BOUND('',#170,.T.);
#201=FACE_BOUND('',#171,.T.);
#202=FACE_BOUND('',#172,.T.);
#203=FACE_BOUND('',#173,.T.);
#204=FACE_BOUND('',#174,.T.);
#205=FACE_BOUND('',#175,.T.);
#206=FACE_BOUND('',#176,.T.);
#207=FACE_BOUND('',#177,.T.);
#208=FACE_BOUND('',#178,.T.);
#209=FACE_BOUND('',#179,.T.);
#210=FACE_BOUND('',#180,.T.);
#211=FACE_BOUND('',#181,.T.);
#212=FACE_BOUND('',#182,.T.);
#213=FACE_BOUND('',#183,.T.);
#214=FACE_BOUND('',#184,.T.);
#215=FACE_BOUND('',#185,.T.);
#216=PLANE('',#257);
#217=PLANE('',#265);
#218=PLANE('',#266);
#219=PLANE('',#267);
#220=PLANE('',#268);
#221=PLANE('',#269);
#222=PLANE('',#270);
#223=PLANE('',#278);
#224=PLANE('',#282);
#225=PLANE('',#286);
#226=ADVANCED_FACE('',(#186),#216,.F.);
#227=ADVANCED_FACE('',(#187,#188),#49,.T.);
#228=ADVANCED_FACE('',(#189,#190),#45,.T.);
#229=ADVANCED_FACE('',(#191,#192),#50,.T.);
#230=ADVANCED_FACE('',(#193,#194),#217,.F.);
#231=ADVANCED_FACE('',(#195),#218,.T.);
#232=ADVANCED_FACE('',(#196),#219,.T.);
#233=ADVANCED_FACE('',(#197),#220,.T.);
#234=ADVANCED_FACE('',(#198),#221,.T.);
#235=ADVANCED_FACE('',(#199,#200),#222,.T.);
#236=ADVANCED_FACE('',(#201,#202),#51,.F.);
#237=ADVANCED_FACE('',(#203,#204),#46,.T.);
#238=ADVANCED_FACE('',(#205,#206),#20,.T.);
#239=ADVANCED_FACE('',(#207,#208),#223,.F.);
#240=ADVANCED_FACE('',(#209,#210),#47,.T.);
#241=ADVANCED_FACE('',(#211,#212),#224,.F.);
#242=ADVANCED_FACE('',(#213,#214),#48,.T.);
#243=ADVANCED_FACE('',(#215),#225,.F.);
#244=CLOSED_SHELL('',(#226,#227,#228,#229,#230,#231,#232,#233,#234,#235,
#236,#237,#238,#239,#240,#241,#242,#243));
#245=STYLED_ITEM('',(#246),#253);
#246=PRESENTATION_STYLE_ASSIGNMENT((#247));
#247=SURFACE_STYLE_USAGE(.BOTH.,#248);
#248=SURFACE_SIDE_STYLE('',(#249));
#249=SURFACE_STYLE_FILL_AREA(#250);
#250=FILL_AREA_STYLE('',(#251));
#251=FILL_AREA_STYLE_COLOUR('',#252);
#252=COLOUR_RGB('',0.689999997615814,0.689999997615814,0.689999997615814);
#253=MANIFOLD_SOLID_BREP('162838 MA-50-10-1/4-EN',#244);
#254=SHAPE_DEFINITION_REPRESENTATION(#430,#255);
#255=SHAPE_REPRESENTATION('162838 MA-50-10-1/4-EN',(#256),#425);
#256=AXIS2_PLACEMENT_3D('',#361,#287,#288);
#257=AXIS2_PLACEMENT_3D('',#362,#289,#290);
#258=AXIS2_PLACEMENT_3D('',#363,#291,#292);
#259=AXIS2_PLACEMENT_3D('',#365,#293,#294);
#260=AXIS2_PLACEMENT_3D('',#366,#295,#296);
#261=AXIS2_PLACEMENT_3D('',#368,#297,#298);
#262=AXIS2_PLACEMENT_3D('',#369,#299,#300);
#263=AXIS2_PLACEMENT_3D('',#371,#301,#302);
#264=AXIS2_PLACEMENT_3D('',#372,#303,#304);
#265=AXIS2_PLACEMENT_3D('',#374,#305,#306);
#266=AXIS2_PLACEMENT_3D('',#383,#311,#312);
#267=AXIS2_PLACEMENT_3D('',#389,#316,#317);
#268=AXIS2_PLACEMENT_3D('',#393,#320,#321);
#269=AXIS2_PLACEMENT_3D('',#397,#324,#325);
#270=AXIS2_PLACEMENT_3D('',#399,#327,#328);
#271=AXIS2_PLACEMENT_3D('',#400,#329,#330);
#272=AXIS2_PLACEMENT_3D('',#402,#331,#332);
#273=AXIS2_PLACEMENT_3D('',#403,#333,#334);
#274=AXIS2_PLACEMENT_3D('',#405,#335,#336);
#275=AXIS2_PLACEMENT_3D('',#406,#337,#338);
#276=AXIS2_PLACEMENT_3D('',#408,#339,#340);
#277=AXIS2_PLACEMENT_3D('',#409,#341,#342);
#278=AXIS2_PLACEMENT_3D('',#411,#343,#344);
#279=AXIS2_PLACEMENT_3D('',#412,#345,#346);
#280=AXIS2_PLACEMENT_3D('',#414,#347,#348);
#281=AXIS2_PLACEMENT_3D('',#415,#349,#350);
#282=AXIS2_PLACEMENT_3D('',#417,#351,#352);
#283=AXIS2_PLACEMENT_3D('',#418,#353,#354);
#284=AXIS2_PLACEMENT_3D('',#420,#355,#356);
#285=AXIS2_PLACEMENT_3D('',#421,#357,#358);
#286=AXIS2_PLACEMENT_3D('',#423,#359,#360);
#287=DIRECTION('',(0.,0.,1.));
#288=DIRECTION('',(1.,0.,0.));
#289=DIRECTION('',(1.,0.,0.));
#290=DIRECTION('',(0.,0.,-1.));
#291=DIRECTION('',(1.,0.,0.));
#292=DIRECTION('',(0.,0.,-1.));
#293=DIRECTION('',(1.,0.,0.));
#294=DIRECTION('',(0.,0.,-1.));
#295=DIRECTION('',(1.,0.,0.));
#296=DIRECTION('',(0.,0.,-1.));
#297=DIRECTION('',(1.,0.,0.));
#298=DIRECTION('',(0.,0.,-1.));
#299=DIRECTION('',(1.,0.,0.));
#300=DIRECTION('',(0.,0.,-1.));
#301=DIRECTION('',(1.,0.,0.));
#302=DIRECTION('',(0.,0.,-1.));
#303=DIRECTION('',(1.,0.,0.));
#304=DIRECTION('',(0.,0.,-1.));
#305=DIRECTION('',(-1.,0.,0.));
#306=DIRECTION('',(0.,0.,1.));
#307=DIRECTION('',(0.,0.,-1.));
#308=DIRECTION('',(0.,1.,0.));
#309=DIRECTION('',(0.,0.,-1.));
#310=DIRECTION('',(0.,-1.,0.));
#311=DIRECTION('',(0.,0.,1.));
#312=DIRECTION('',(1.,0.,0.));
#313=DIRECTION('',(0.,-1.,0.));
#314=DIRECTION('',(1.,0.,0.));
#315=DIRECTION('',(1.,0.,0.));
#316=DIRECTION('',(0.,-1.,0.));
#317=DIRECTION('',(0.,0.,-1.));
#318=DIRECTION('',(0.,0.,-1.));
#319=DIRECTION('',(1.,0.,0.));
#320=DIRECTION('',(0.,0.,-1.));
#321=DIRECTION('',(-1.,0.,0.));
#322=DIRECTION('',(0.,1.,0.));
#323=DIRECTION('',(1.,0.,0.));
#324=DIRECTION('',(0.,1.,0.));
#325=DIRECTION('',(0.,0.,1.));
#326=DIRECTION('',(0.,0.,1.));
#327=DIRECTION('',(1.,0.,0.));
#328=DIRECTION('',(0.,0.,-1.));
#329=DIRECTION('',(1.,0.,0.));
#330=DIRECTION('',(0.,0.,-1.));
#331=DIRECTION('',(1.,0.,0.));
#332=DIRECTION('',(0.,0.,-1.));
#333=DIRECTION('',(1.,0.,0.));
#334=DIRECTION('',(0.,0.,-1.));
#335=DIRECTION('',(1.,0.,0.));
#336=DIRECTION('',(0.,0.,-1.));
#337=DIRECTION('',(1.,0.,0.));
#338=DIRECTION('',(0.,0.,-1.));
#339=DIRECTION('',(-1.,0.,0.));
#340=DIRECTION('',(0.,0.,1.));
#341=DIRECTION('',(1.,0.,0.));
#342=DIRECTION('',(0.,0.,-1.));
#343=DIRECTION('',(-1.,0.,0.));
#344=DIRECTION('',(0.,0.,1.));
#345=DIRECTION('',(1.,0.,0.));
#346=DIRECTION('',(0.,0.,-1.));
#347=DIRECTION('',(1.,0.,0.));
#348=DIRECTION('',(0.,0.,-1.));
#349=DIRECTION('',(1.,0.,0.));
#350=DIRECTION('',(0.,0.,-1.));
#351=DIRECTION('',(-1.,0.,0.));
#352=DIRECTION('',(0.,0.,1.));
#353=DIRECTION('',(1.,0.,0.));
#354=DIRECTION('',(0.,0.,-1.));
#355=DIRECTION('',(1.,0.,0.));
#356=DIRECTION('',(0.,0.,-1.));
#357=DIRECTION('',(1.,0.,0.));
#358=DIRECTION('',(0.,0.,-1.));
#359=DIRECTION('',(-1.,0.,0.));
#360=DIRECTION('',(0.,0.,1.));
#361=CARTESIAN_POINT('',(0.,0.,0.));
#362=CARTESIAN_POINT('',(-34.5,0.,0.));
#363=CARTESIAN_POINT('',(-34.5,0.,0.));
#364=CARTESIAN_POINT('',(-34.5,0.,-21.5));
#365=CARTESIAN_POINT('',(-31.5,0.,0.));
#366=CARTESIAN_POINT('',(-31.5,0.,0.));
#367=CARTESIAN_POINT('',(-31.5,0.,-24.5));
#368=CARTESIAN_POINT('',(-8.,0.,0.));
#369=CARTESIAN_POINT('',(-9.5,0.,0.));
#370=CARTESIAN_POINT('',(-9.5,0.,-24.5));
#371=CARTESIAN_POINT('',(-9.5,0.,0.));
#372=CARTESIAN_POINT('',(-8.,0.,0.));
#373=CARTESIAN_POINT('',(-8.,0.,-23.));
#374=CARTESIAN_POINT('',(-8.,23.,0.));
#375=CARTESIAN_POINT('',(-8.,7.,0.));
#376=CARTESIAN_POINT('',(-8.,7.,7.));
#377=CARTESIAN_POINT('',(-8.,7.,-7.));
#378=CARTESIAN_POINT('',(-8.,-7.,-7.));
#379=CARTESIAN_POINT('',(-8.,-7.,-7.));
#380=CARTESIAN_POINT('',(-8.,-7.,7.));
#381=CARTESIAN_POINT('',(-8.,-7.,7.));
#382=CARTESIAN_POINT('',(-8.,7.,7.));
#383=CARTESIAN_POINT('',(-8.,7.,7.));
#384=CARTESIAN_POINT('',(0.,7.,7.));
#385=CARTESIAN_POINT('',(0.,7.,7.));
#386=CARTESIAN_POINT('',(0.,-7.,7.));
#387=CARTESIAN_POINT('',(-8.,7.,7.));
#388=CARTESIAN_POINT('',(-8.,-7.,7.));
#389=CARTESIAN_POINT('',(-8.,-7.,7.));
#390=CARTESIAN_POINT('',(0.,-7.,7.));
#391=CARTESIAN_POINT('',(0.,-7.,-7.));
#392=CARTESIAN_POINT('',(-8.,-7.,-7.));
#393=CARTESIAN_POINT('',(-8.,-7.,-7.));
#394=CARTESIAN_POINT('',(0.,-7.,-7.));
#395=CARTESIAN_POINT('',(0.,7.,-7.));
#396=CARTESIAN_POINT('',(-8.,7.,-7.));
#397=CARTESIAN_POINT('',(-8.,7.,-7.));
#398=CARTESIAN_POINT('',(0.,7.,-7.));
#399=CARTESIAN_POINT('',(0.,0.,0.));
#400=CARTESIAN_POINT('',(0.,0.,0.));
#401=CARTESIAN_POINT('',(0.,0.,-6.5785));
#402=CARTESIAN_POINT('',(1.,0.,0.));
#403=CARTESIAN_POINT('',(2.,0.,0.));
#404=CARTESIAN_POINT('',(2.,0.,-6.5785));
#405=CARTESIAN_POINT('',(15.,0.,0.));
#406=CARTESIAN_POINT('',(10.144,0.,0.));
#407=CARTESIAN_POINT('',(10.144,0.,-6.5785));
#408=CARTESIAN_POINT('',(10.144,0.,0.));
#409=CARTESIAN_POINT('',(11.,0.,0.));
#410=CARTESIAN_POINT('',(11.,0.,-5.7225));
#411=CARTESIAN_POINT('',(11.,5.7225,0.));
#412=CARTESIAN_POINT('',(11.,0.,0.));
#413=CARTESIAN_POINT('',(11.,0.,-4.75));
#414=CARTESIAN_POINT('',(15.,0.,0.));
#415=CARTESIAN_POINT('',(13.,0.,0.));
#416=CARTESIAN_POINT('',(13.,0.,-4.75));
#417=CARTESIAN_POINT('',(13.,4.75,0.));
#418=CARTESIAN_POINT('',(13.,0.,0.));
#419=CARTESIAN_POINT('',(13.,0.,-2.5));
#420=CARTESIAN_POINT('',(15.,0.,0.));
#421=CARTESIAN_POINT('',(15.,0.,0.));
#422=CARTESIAN_POINT('',(15.,0.,-2.5));
#423=CARTESIAN_POINT('',(15.,2.5,0.));
#424=MECHANICAL_DESIGN_GEOMETRIC_PRESENTATION_REPRESENTATION('',(#245),
#425);
#425=(
GEOMETRIC_REPRESENTATION_CONTEXT(3)
GLOBAL_UNCERTAINTY_ASSIGNED_CONTEXT((#426))
GLOBAL_UNIT_ASSIGNED_CONTEXT((#429,#428,#427))
REPRESENTATION_CONTEXT('162838 MA-50-10-1/4-EN',
'TOP_LEVEL_ASSEMBLY_PART')
);
#426=UNCERTAINTY_MEASURE_WITH_UNIT(LENGTH_MEASURE(0.005),#429,
'DISTANCE_ACCURACY_VALUE','Maximum Tolerance applied to model');
#427=(
NAMED_UNIT(*)
SI_UNIT($,.STERADIAN.)
SOLID_ANGLE_UNIT()
);
#428=(
NAMED_UNIT(*)
PLANE_ANGLE_UNIT()
SI_UNIT($,.RADIAN.)
);
#429=(
LENGTH_UNIT()
NAMED_UNIT(*)
SI_UNIT(.MILLI.,.METRE.)
);
#430=PRODUCT_DEFINITION_SHAPE('','',#431);
#431=PRODUCT_DEFINITION('','',#433,#432);
#432=PRODUCT_DEFINITION_CONTEXT('',#439,'design');
#433=PRODUCT_DEFINITION_FORMATION_WITH_SPECIFIED_SOURCE('','',#435,
 .NOT_KNOWN.);
#434=PRODUCT_RELATED_PRODUCT_CATEGORY('','',(#435));
#435=PRODUCT('162838 MA-50-10-1/4-EN','162838 MA-50-10-1/4-EN',
'162838 MA-50-10-1/4-EN',(#437));
#436=PRODUCT_CATEGORY('','');
#437=PRODUCT_CONTEXT('',#439,'mechanical');
#438=APPLICATION_PROTOCOL_DEFINITION('international standard',
'automotive_design',2010,#439);
#439=APPLICATION_CONTEXT(
'core data for automotive mechanical design processes');
ENDSEC;
END-ISO-10303-21;
