ISO-10303-21;
HEADER;
/* Generated by software containing ST-Developer
 * from STEP Tools, Inc. (www.steptools.com) 
 */
/* OPTION: using custom renumber hook */

FILE_DESCRIPTION(
/* description */ ('STEP AP214'),
/* implementation_level */ '2;1');

FILE_NAME(
/* name */ '164936_HR-D-MINI',
/* time_stamp */ '2024-08-21T04:03:38+02:00',
/* author */ ('License CC BY-ND 4.0'),
/* organization */ ('CADENAS'),
/* preprocessor_version */ 'ST-DEVELOPER v19.3',
/* originating_system */ 'PARTsolutions',
/* authorisation */ '  ');

FILE_SCHEMA (('AUTOMOTIVE_DESIGN {1 0 10303 214 3 1 1}'));
ENDSEC;

DATA;
#10=PROPERTY_DEFINITION_REPRESENTATION(#14,#12);
#11=PROPERTY_DEFINITION_REPRESENTATION(#15,#13);
#12=REPRESENTATION('',(#16),#705);
#13=REPRESENTATION('',(#17),#705);
#14=PROPERTY_DEFINITION('pmi validation property','',#710);
#15=PROPERTY_DEFINITION('pmi validation property','',#710);
#16=VALUE_REPRESENTATION_ITEM('number of annotations',COUNT_MEASURE(0.));
#17=VALUE_REPRESENTATION_ITEM('number of views',COUNT_MEASURE(0.));
#18=SHAPE_REPRESENTATION_RELATIONSHIP('','',#429,#19);
#19=ADVANCED_BREP_SHAPE_REPRESENTATION('',(#427),#705);
#20=CYLINDRICAL_SURFACE('',#446,4.);
#21=CYLINDRICAL_SURFACE('',#458,21.5);
#22=CYLINDRICAL_SURFACE('',#459,21.5);
#23=CYLINDRICAL_SURFACE('',#460,18.05);
#24=CYLINDRICAL_SURFACE('',#462,3.25);
#25=CYLINDRICAL_SURFACE('',#464,3.25);
#26=CYLINDRICAL_SURFACE('',#466,3.25);
#27=CYLINDRICAL_SURFACE('',#468,3.25);
#28=CYLINDRICAL_SURFACE('',#469,7.);
#29=LINE('',#592,#67);
#30=LINE('',#595,#68);
#31=LINE('',#599,#69);
#32=LINE('',#603,#70);
#33=LINE('',#607,#71);
#34=LINE('',#612,#72);
#35=LINE('',#616,#73);
#36=LINE('',#618,#74);
#37=LINE('',#620,#75);
#38=LINE('',#623,#76);
#39=LINE('',#625,#77);
#40=LINE('',#627,#78);
#41=LINE('',#629,#79);
#42=LINE('',#634,#80);
#43=LINE('',#637,#81);
#44=LINE('',#642,#82);
#45=LINE('',#645,#83);
#46=LINE('',#647,#84);
#47=LINE('',#649,#85);
#48=LINE('',#651,#86);
#49=LINE('',#652,#87);
#50=LINE('',#656,#88);
#51=LINE('',#660,#89);
#52=LINE('',#665,#90);
#53=LINE('',#668,#91);
#54=LINE('',#673,#92);
#55=LINE('',#676,#93);
#56=LINE('',#677,#94);
#57=LINE('',#680,#95);
#58=LINE('',#683,#96);
#59=LINE('',#688,#97);
#60=LINE('',#689,#98);
#61=LINE('',#691,#99);
#62=LINE('',#693,#100);
#63=LINE('',#696,#101);
#64=LINE('',#697,#102);
#65=LINE('',#699,#103);
#66=LINE('',#701,#104);
#67=VECTOR('',#476,1000.);
#68=VECTOR('',#477,1000.);
#69=VECTOR('',#480,1000.);
#70=VECTOR('',#483,1000.);
#71=VECTOR('',#488,1000.);
#72=VECTOR('',#491,1000.);
#73=VECTOR('',#494,1000.);
#74=VECTOR('',#495,1000.);
#75=VECTOR('',#498,1000.);
#76=VECTOR('',#499,1000.);
#77=VECTOR('',#500,1000.);
#78=VECTOR('',#501,1000.);
#79=VECTOR('',#504,1000.);
#80=VECTOR('',#507,1000.);
#81=VECTOR('',#510,1000.);
#82=VECTOR('',#513,1000.);
#83=VECTOR('',#516,1000.);
#84=VECTOR('',#517,1000.);
#85=VECTOR('',#518,1000.);
#86=VECTOR('',#521,1000.);
#87=VECTOR('',#522,1000.);
#88=VECTOR('',#527,1000.);
#89=VECTOR('',#532,1000.);
#90=VECTOR('',#535,1000.);
#91=VECTOR('',#538,1000.);
#92=VECTOR('',#541,1000.);
#93=VECTOR('',#544,1000.);
#94=VECTOR('',#545,1000.);
#95=VECTOR('',#550,1000.);
#96=VECTOR('',#555,1000.);
#97=VECTOR('',#564,1000.);
#98=VECTOR('',#565,1000.);
#99=VECTOR('',#568,1000.);
#100=VECTOR('',#571,1000.);
#101=VECTOR('',#576,1000.);
#102=VECTOR('',#577,1000.);
#103=VECTOR('',#580,1000.);
#104=VECTOR('',#583,1000.);
#105=ORIENTED_EDGE('',*,*,#217,.F.);
#106=ORIENTED_EDGE('',*,*,#218,.T.);
#107=ORIENTED_EDGE('',*,*,#219,.T.);
#108=ORIENTED_EDGE('',*,*,#220,.T.);
#109=ORIENTED_EDGE('',*,*,#221,.F.);
#110=ORIENTED_EDGE('',*,*,#222,.T.);
#111=ORIENTED_EDGE('',*,*,#223,.F.);
#112=ORIENTED_EDGE('',*,*,#224,.F.);
#113=ORIENTED_EDGE('',*,*,#225,.F.);
#114=ORIENTED_EDGE('',*,*,#226,.T.);
#115=ORIENTED_EDGE('',*,*,#227,.T.);
#116=ORIENTED_EDGE('',*,*,#228,.T.);
#117=ORIENTED_EDGE('',*,*,#229,.T.);
#118=ORIENTED_EDGE('',*,*,#230,.F.);
#119=ORIENTED_EDGE('',*,*,#231,.T.);
#120=ORIENTED_EDGE('',*,*,#232,.F.);
#121=ORIENTED_EDGE('',*,*,#233,.F.);
#122=ORIENTED_EDGE('',*,*,#234,.T.);
#123=ORIENTED_EDGE('',*,*,#235,.F.);
#124=ORIENTED_EDGE('',*,*,#236,.F.);
#125=ORIENTED_EDGE('',*,*,#237,.F.);
#126=ORIENTED_EDGE('',*,*,#238,.F.);
#127=ORIENTED_EDGE('',*,*,#239,.F.);
#128=ORIENTED_EDGE('',*,*,#240,.F.);
#129=ORIENTED_EDGE('',*,*,#241,.F.);
#130=ORIENTED_EDGE('',*,*,#242,.F.);
#131=ORIENTED_EDGE('',*,*,#243,.T.);
#132=ORIENTED_EDGE('',*,*,#244,.F.);
#133=ORIENTED_EDGE('',*,*,#245,.F.);
#134=ORIENTED_EDGE('',*,*,#232,.T.);
#135=ORIENTED_EDGE('',*,*,#221,.T.);
#136=ORIENTED_EDGE('',*,*,#246,.T.);
#137=ORIENTED_EDGE('',*,*,#227,.F.);
#138=ORIENTED_EDGE('',*,*,#247,.T.);
#139=ORIENTED_EDGE('',*,*,#248,.F.);
#140=ORIENTED_EDGE('',*,*,#249,.F.);
#141=ORIENTED_EDGE('',*,*,#250,.T.);
#142=ORIENTED_EDGE('',*,*,#230,.T.);
#143=ORIENTED_EDGE('',*,*,#251,.F.);
#144=ORIENTED_EDGE('',*,*,#252,.F.);
#145=ORIENTED_EDGE('',*,*,#253,.F.);
#146=ORIENTED_EDGE('',*,*,#254,.F.);
#147=ORIENTED_EDGE('',*,*,#255,.F.);
#148=ORIENTED_EDGE('',*,*,#256,.F.);
#149=ORIENTED_EDGE('',*,*,#257,.F.);
#150=ORIENTED_EDGE('',*,*,#258,.F.);
#151=ORIENTED_EDGE('',*,*,#259,.T.);
#152=ORIENTED_EDGE('',*,*,#234,.F.);
#153=ORIENTED_EDGE('',*,*,#260,.F.);
#154=ORIENTED_EDGE('',*,*,#249,.T.);
#155=ORIENTED_EDGE('',*,*,#261,.T.);
#156=ORIENTED_EDGE('',*,*,#223,.T.);
#157=ORIENTED_EDGE('',*,*,#262,.F.);
#158=ORIENTED_EDGE('',*,*,#225,.T.);
#159=ORIENTED_EDGE('',*,*,#250,.F.);
#160=ORIENTED_EDGE('',*,*,#260,.T.);
#161=ORIENTED_EDGE('',*,*,#233,.T.);
#162=ORIENTED_EDGE('',*,*,#245,.T.);
#163=ORIENTED_EDGE('',*,*,#219,.F.);
#164=ORIENTED_EDGE('',*,*,#263,.F.);
#165=ORIENTED_EDGE('',*,*,#243,.F.);
#166=ORIENTED_EDGE('',*,*,#231,.F.);
#167=ORIENTED_EDGE('',*,*,#259,.F.);
#168=ORIENTED_EDGE('',*,*,#248,.T.);
#169=ORIENTED_EDGE('',*,*,#229,.F.);
#170=ORIENTED_EDGE('',*,*,#264,.T.);
#171=ORIENTED_EDGE('',*,*,#264,.F.);
#172=ORIENTED_EDGE('',*,*,#228,.F.);
#173=ORIENTED_EDGE('',*,*,#246,.F.);
#174=ORIENTED_EDGE('',*,*,#220,.F.);
#175=ORIENTED_EDGE('',*,*,#247,.F.);
#176=ORIENTED_EDGE('',*,*,#226,.F.);
#177=ORIENTED_EDGE('',*,*,#262,.T.);
#178=ORIENTED_EDGE('',*,*,#222,.F.);
#179=ORIENTED_EDGE('',*,*,#224,.T.);
#180=ORIENTED_EDGE('',*,*,#217,.T.);
#181=ORIENTED_EDGE('',*,*,#239,.T.);
#182=ORIENTED_EDGE('',*,*,#265,.F.);
#183=ORIENTED_EDGE('',*,*,#255,.T.);
#184=ORIENTED_EDGE('',*,*,#266,.T.);
#185=ORIENTED_EDGE('',*,*,#240,.T.);
#186=ORIENTED_EDGE('',*,*,#266,.F.);
#187=ORIENTED_EDGE('',*,*,#258,.T.);
#188=ORIENTED_EDGE('',*,*,#267,.T.);
#189=ORIENTED_EDGE('',*,*,#241,.T.);
#190=ORIENTED_EDGE('',*,*,#267,.F.);
#191=ORIENTED_EDGE('',*,*,#257,.T.);
#192=ORIENTED_EDGE('',*,*,#268,.T.);
#193=ORIENTED_EDGE('',*,*,#242,.T.);
#194=ORIENTED_EDGE('',*,*,#268,.F.);
#195=ORIENTED_EDGE('',*,*,#256,.T.);
#196=ORIENTED_EDGE('',*,*,#265,.T.);
#197=ORIENTED_EDGE('',*,*,#235,.T.);
#198=ORIENTED_EDGE('',*,*,#269,.F.);
#199=ORIENTED_EDGE('',*,*,#251,.T.);
#200=ORIENTED_EDGE('',*,*,#270,.T.);
#201=ORIENTED_EDGE('',*,*,#236,.T.);
#202=ORIENTED_EDGE('',*,*,#270,.F.);
#203=ORIENTED_EDGE('',*,*,#254,.T.);
#204=ORIENTED_EDGE('',*,*,#271,.T.);
#205=ORIENTED_EDGE('',*,*,#237,.T.);
#206=ORIENTED_EDGE('',*,*,#271,.F.);
#207=ORIENTED_EDGE('',*,*,#253,.T.);
#208=ORIENTED_EDGE('',*,*,#272,.T.);
#209=ORIENTED_EDGE('',*,*,#238,.T.);
#210=ORIENTED_EDGE('',*,*,#272,.F.);
#211=ORIENTED_EDGE('',*,*,#252,.T.);
#212=ORIENTED_EDGE('',*,*,#269,.T.);
#213=ORIENTED_EDGE('',*,*,#263,.T.);
#214=ORIENTED_EDGE('',*,*,#218,.F.);
#215=ORIENTED_EDGE('',*,*,#261,.F.);
#216=ORIENTED_EDGE('',*,*,#244,.T.);
#217=EDGE_CURVE('',#273,#273,#311,.F.);
#218=EDGE_CURVE('',#274,#275,#29,.T.);
#219=EDGE_CURVE('',#275,#276,#30,.T.);
#220=EDGE_CURVE('',#276,#277,#312,.F.);
#221=EDGE_CURVE('',#278,#277,#31,.T.);
#222=EDGE_CURVE('',#278,#279,#313,.F.);
#223=EDGE_CURVE('',#274,#279,#32,.T.);
#224=EDGE_CURVE('',#280,#280,#314,.F.);
#225=EDGE_CURVE('',#281,#282,#33,.T.);
#226=EDGE_CURVE('',#281,#283,#315,.F.);
#227=EDGE_CURVE('',#283,#284,#34,.T.);
#228=EDGE_CURVE('',#284,#285,#316,.F.);
#229=EDGE_CURVE('',#285,#286,#35,.T.);
#230=EDGE_CURVE('',#282,#286,#36,.T.);
#231=EDGE_CURVE('',#287,#288,#37,.T.);
#232=EDGE_CURVE('',#289,#288,#38,.T.);
#233=EDGE_CURVE('',#290,#289,#39,.T.);
#234=EDGE_CURVE('',#290,#287,#40,.T.);
#235=EDGE_CURVE('',#291,#292,#41,.T.);
#236=EDGE_CURVE('',#293,#291,#317,.F.);
#237=EDGE_CURVE('',#294,#293,#42,.T.);
#238=EDGE_CURVE('',#292,#294,#318,.F.);
#239=EDGE_CURVE('',#295,#296,#43,.T.);
#240=EDGE_CURVE('',#297,#295,#319,.F.);
#241=EDGE_CURVE('',#298,#297,#44,.T.);
#242=EDGE_CURVE('',#296,#298,#320,.F.);
#243=EDGE_CURVE('',#288,#299,#45,.T.);
#244=EDGE_CURVE('',#300,#299,#46,.T.);
#245=EDGE_CURVE('',#289,#300,#47,.T.);
#246=EDGE_CURVE('',#277,#284,#48,.F.);
#247=EDGE_CURVE('',#283,#278,#49,.T.);
#248=EDGE_CURVE('',#301,#286,#321,.T.);
#249=EDGE_CURVE('',#302,#301,#50,.T.);
#250=EDGE_CURVE('',#302,#282,#322,.T.);
#251=EDGE_CURVE('',#303,#304,#51,.T.);
#252=EDGE_CURVE('',#305,#303,#323,.F.);
#253=EDGE_CURVE('',#306,#305,#52,.T.);
#254=EDGE_CURVE('',#304,#306,#324,.F.);
#255=EDGE_CURVE('',#307,#308,#53,.T.);
#256=EDGE_CURVE('',#309,#307,#325,.F.);
#257=EDGE_CURVE('',#310,#309,#54,.T.);
#258=EDGE_CURVE('',#308,#310,#326,.F.);
#259=EDGE_CURVE('',#301,#287,#55,.T.);
#260=EDGE_CURVE('',#302,#290,#56,.T.);
#261=EDGE_CURVE('',#300,#274,#327,.T.);
#262=EDGE_CURVE('',#281,#279,#57,.T.);
#263=EDGE_CURVE('',#299,#275,#328,.T.);
#264=EDGE_CURVE('',#285,#276,#58,.T.);
#265=EDGE_CURVE('',#307,#296,#59,.T.);
#266=EDGE_CURVE('',#308,#295,#60,.T.);
#267=EDGE_CURVE('',#310,#297,#61,.T.);
#268=EDGE_CURVE('',#309,#298,#62,.T.);
#269=EDGE_CURVE('',#303,#292,#63,.T.);
#270=EDGE_CURVE('',#304,#291,#64,.T.);
#271=EDGE_CURVE('',#306,#293,#65,.T.);
#272=EDGE_CURVE('',#305,#294,#66,.T.);
#273=VERTEX_POINT('',#591);
#274=VERTEX_POINT('',#593);
#275=VERTEX_POINT('',#594);
#276=VERTEX_POINT('',#596);
#277=VERTEX_POINT('',#598);
#278=VERTEX_POINT('',#600);
#279=VERTEX_POINT('',#602);
#280=VERTEX_POINT('',#606);
#281=VERTEX_POINT('',#608);
#282=VERTEX_POINT('',#609);
#283=VERTEX_POINT('',#611);
#284=VERTEX_POINT('',#613);
#285=VERTEX_POINT('',#615);
#286=VERTEX_POINT('',#617);
#287=VERTEX_POINT('',#621);
#288=VERTEX_POINT('',#622);
#289=VERTEX_POINT('',#624);
#290=VERTEX_POINT('',#626);
#291=VERTEX_POINT('',#630);
#292=VERTEX_POINT('',#631);
#293=VERTEX_POINT('',#633);
#294=VERTEX_POINT('',#635);
#295=VERTEX_POINT('',#638);
#296=VERTEX_POINT('',#639);
#297=VERTEX_POINT('',#641);
#298=VERTEX_POINT('',#643);
#299=VERTEX_POINT('',#646);
#300=VERTEX_POINT('',#648);
#301=VERTEX_POINT('',#655);
#302=VERTEX_POINT('',#657);
#303=VERTEX_POINT('',#661);
#304=VERTEX_POINT('',#662);
#305=VERTEX_POINT('',#664);
#306=VERTEX_POINT('',#666);
#307=VERTEX_POINT('',#669);
#308=VERTEX_POINT('',#670);
#309=VERTEX_POINT('',#672);
#310=VERTEX_POINT('',#674);
#311=CIRCLE('',#432,18.05);
#312=CIRCLE('',#433,21.5);
#313=CIRCLE('',#434,21.5);
#314=CIRCLE('',#436,18.05);
#315=CIRCLE('',#437,21.5);
#316=CIRCLE('',#438,21.5);
#317=CIRCLE('',#441,3.25);
#318=CIRCLE('',#442,3.25);
#319=CIRCLE('',#443,3.25);
#320=CIRCLE('',#444,3.25);
#321=CIRCLE('',#447,4.);
#322=CIRCLE('',#448,4.);
#323=CIRCLE('',#450,3.25);
#324=CIRCLE('',#451,3.25);
#325=CIRCLE('',#452,3.25);
#326=CIRCLE('',#453,3.25);
#327=CIRCLE('',#455,7.);
#328=CIRCLE('',#457,7.);
#329=EDGE_LOOP('',(#105));
#330=EDGE_LOOP('',(#106,#107,#108,#109,#110,#111));
#331=EDGE_LOOP('',(#112));
#332=EDGE_LOOP('',(#113,#114,#115,#116,#117,#118));
#333=EDGE_LOOP('',(#119,#120,#121,#122));
#334=EDGE_LOOP('',(#123,#124,#125,#126));
#335=EDGE_LOOP('',(#127,#128,#129,#130));
#336=EDGE_LOOP('',(#131,#132,#133,#134));
#337=EDGE_LOOP('',(#135,#136,#137,#138));
#338=EDGE_LOOP('',(#139,#140,#141,#142));
#339=EDGE_LOOP('',(#143,#144,#145,#146));
#340=EDGE_LOOP('',(#147,#148,#149,#150));
#341=EDGE_LOOP('',(#151,#152,#153,#154));
#342=EDGE_LOOP('',(#155,#156,#157,#158,#159,#160,#161,#162));
#343=EDGE_LOOP('',(#163,#164,#165,#166,#167,#168,#169,#170));
#344=EDGE_LOOP('',(#171,#172,#173,#174));
#345=EDGE_LOOP('',(#175,#176,#177,#178));
#346=EDGE_LOOP('',(#179));
#347=EDGE_LOOP('',(#180));
#348=EDGE_LOOP('',(#181,#182,#183,#184));
#349=EDGE_LOOP('',(#185,#186,#187,#188));
#350=EDGE_LOOP('',(#189,#190,#191,#192));
#351=EDGE_LOOP('',(#193,#194,#195,#196));
#352=EDGE_LOOP('',(#197,#198,#199,#200));
#353=EDGE_LOOP('',(#201,#202,#203,#204));
#354=EDGE_LOOP('',(#205,#206,#207,#208));
#355=EDGE_LOOP('',(#209,#210,#211,#212));
#356=EDGE_LOOP('',(#213,#214,#215,#216));
#357=FACE_BOUND('',#329,.T.);
#358=FACE_BOUND('',#330,.T.);
#359=FACE_BOUND('',#331,.T.);
#360=FACE_BOUND('',#332,.T.);
#361=FACE_BOUND('',#333,.T.);
#362=FACE_BOUND('',#334,.T.);
#363=FACE_BOUND('',#335,.T.);
#364=FACE_BOUND('',#336,.T.);
#365=FACE_BOUND('',#337,.T.);
#366=FACE_BOUND('',#338,.T.);
#367=FACE_BOUND('',#339,.T.);
#368=FACE_BOUND('',#340,.T.);
#369=FACE_BOUND('',#341,.T.);
#370=FACE_BOUND('',#342,.T.);
#371=FACE_BOUND('',#343,.T.);
#372=FACE_BOUND('',#344,.T.);
#373=FACE_BOUND('',#345,.T.);
#374=FACE_BOUND('',#346,.T.);
#375=FACE_BOUND('',#347,.T.);
#376=FACE_BOUND('',#348,.T.);
#377=FACE_BOUND('',#349,.T.);
#378=FACE_BOUND('',#350,.T.);
#379=FACE_BOUND('',#351,.T.);
#380=FACE_BOUND('',#352,.T.);
#381=FACE_BOUND('',#353,.T.);
#382=FACE_BOUND('',#354,.T.);
#383=FACE_BOUND('',#355,.T.);
#384=FACE_BOUND('',#356,.T.);
#385=PLANE('',#431);
#386=PLANE('',#435);
#387=PLANE('',#439);
#388=PLANE('',#440);
#389=PLANE('',#445);
#390=PLANE('',#449);
#391=PLANE('',#454);
#392=PLANE('',#456);
#393=PLANE('',#461);
#394=PLANE('',#463);
#395=PLANE('',#465);
#396=PLANE('',#467);
#397=ADVANCED_FACE('',(#357,#358),#385,.F.);
#398=ADVANCED_FACE('',(#359,#360),#386,.F.);
#399=ADVANCED_FACE('',(#361),#387,.F.);
#400=ADVANCED_FACE('',(#362,#363,#364),#388,.F.);
#401=ADVANCED_FACE('',(#365),#389,.F.);
#402=ADVANCED_FACE('',(#366),#20,.F.);
#403=ADVANCED_FACE('',(#367,#368,#369),#390,.F.);
#404=ADVANCED_FACE('',(#370),#391,.T.);
#405=ADVANCED_FACE('',(#371),#392,.F.);
#406=ADVANCED_FACE('',(#372),#21,.T.);
#407=ADVANCED_FACE('',(#373),#22,.T.);
#408=ADVANCED_FACE('',(#374,#375),#23,.F.);
#409=ADVANCED_FACE('',(#376),#393,.T.);
#410=ADVANCED_FACE('',(#377),#24,.F.);
#411=ADVANCED_FACE('',(#378),#394,.T.);
#412=ADVANCED_FACE('',(#379),#25,.F.);
#413=ADVANCED_FACE('',(#380),#395,.T.);
#414=ADVANCED_FACE('',(#381),#26,.F.);
#415=ADVANCED_FACE('',(#382),#396,.T.);
#416=ADVANCED_FACE('',(#383),#27,.F.);
#417=ADVANCED_FACE('',(#384),#28,.T.);
#418=CLOSED_SHELL('',(#397,#398,#399,#400,#401,#402,#403,#404,#405,#406,
#407,#408,#409,#410,#411,#412,#413,#414,#415,#416,#417));
#419=STYLED_ITEM('',(#420),#427);
#420=PRESENTATION_STYLE_ASSIGNMENT((#421));
#421=SURFACE_STYLE_USAGE(.BOTH.,#422);
#422=SURFACE_SIDE_STYLE('',(#423));
#423=SURFACE_STYLE_FILL_AREA(#424);
#424=FILL_AREA_STYLE('',(#425));
#425=FILL_AREA_STYLE_COLOUR('',#426);
#426=COLOUR_RGB('',0.689999997615814,0.689999997615814,0.689999997615814);
#427=MANIFOLD_SOLID_BREP('164936 HR-D-MINI',#418);
#428=SHAPE_DEFINITION_REPRESENTATION(#710,#429);
#429=SHAPE_REPRESENTATION('164936 HR-D-MINI',(#430),#705);
#430=AXIS2_PLACEMENT_3D('',#588,#470,#471);
#431=AXIS2_PLACEMENT_3D('',#589,#472,#473);
#432=AXIS2_PLACEMENT_3D('',#590,#474,#475);
#433=AXIS2_PLACEMENT_3D('',#597,#478,#479);
#434=AXIS2_PLACEMENT_3D('',#601,#481,#482);
#435=AXIS2_PLACEMENT_3D('',#604,#484,#485);
#436=AXIS2_PLACEMENT_3D('',#605,#486,#487);
#437=AXIS2_PLACEMENT_3D('',#610,#489,#490);
#438=AXIS2_PLACEMENT_3D('',#614,#492,#493);
#439=AXIS2_PLACEMENT_3D('',#619,#496,#497);
#440=AXIS2_PLACEMENT_3D('',#628,#502,#503);
#441=AXIS2_PLACEMENT_3D('',#632,#505,#506);
#442=AXIS2_PLACEMENT_3D('',#636,#508,#509);
#443=AXIS2_PLACEMENT_3D('',#640,#511,#512);
#444=AXIS2_PLACEMENT_3D('',#644,#514,#515);
#445=AXIS2_PLACEMENT_3D('',#650,#519,#520);
#446=AXIS2_PLACEMENT_3D('',#653,#523,#524);
#447=AXIS2_PLACEMENT_3D('',#654,#525,#526);
#448=AXIS2_PLACEMENT_3D('',#658,#528,#529);
#449=AXIS2_PLACEMENT_3D('',#659,#530,#531);
#450=AXIS2_PLACEMENT_3D('',#663,#533,#534);
#451=AXIS2_PLACEMENT_3D('',#667,#536,#537);
#452=AXIS2_PLACEMENT_3D('',#671,#539,#540);
#453=AXIS2_PLACEMENT_3D('',#675,#542,#543);
#454=AXIS2_PLACEMENT_3D('',#678,#546,#547);
#455=AXIS2_PLACEMENT_3D('',#679,#548,#549);
#456=AXIS2_PLACEMENT_3D('',#681,#551,#552);
#457=AXIS2_PLACEMENT_3D('',#682,#553,#554);
#458=AXIS2_PLACEMENT_3D('',#684,#556,#557);
#459=AXIS2_PLACEMENT_3D('',#685,#558,#559);
#460=AXIS2_PLACEMENT_3D('',#686,#560,#561);
#461=AXIS2_PLACEMENT_3D('',#687,#562,#563);
#462=AXIS2_PLACEMENT_3D('',#690,#566,#567);
#463=AXIS2_PLACEMENT_3D('',#692,#569,#570);
#464=AXIS2_PLACEMENT_3D('',#694,#572,#573);
#465=AXIS2_PLACEMENT_3D('',#695,#574,#575);
#466=AXIS2_PLACEMENT_3D('',#698,#578,#579);
#467=AXIS2_PLACEMENT_3D('',#700,#581,#582);
#468=AXIS2_PLACEMENT_3D('',#702,#584,#585);
#469=AXIS2_PLACEMENT_3D('',#703,#586,#587);
#470=DIRECTION('',(0.,0.,1.));
#471=DIRECTION('',(1.,0.,0.));
#472=DIRECTION('',(0.,1.,0.));
#473=DIRECTION('',(0.,0.,1.));
#474=DIRECTION('',(0.,1.,0.));
#475=DIRECTION('',(0.,0.,1.));
#476=DIRECTION('',(0.,0.,-1.));
#477=DIRECTION('',(1.,0.,0.));
#478=DIRECTION('',(0.,1.,0.));
#479=DIRECTION('',(0.,0.,1.));
#480=DIRECTION('',(0.,0.,-1.));
#481=DIRECTION('',(0.,1.,0.));
#482=DIRECTION('',(0.,0.,1.));
#483=DIRECTION('',(1.,0.,0.));
#484=DIRECTION('',(0.,-1.,0.));
#485=DIRECTION('',(0.,0.,-1.));
#486=DIRECTION('',(0.,-1.,0.));
#487=DIRECTION('',(0.,0.,-1.));
#488=DIRECTION('',(-1.,0.,0.));
#489=DIRECTION('',(0.,-1.,0.));
#490=DIRECTION('',(0.,0.,-1.));
#491=DIRECTION('',(0.,0.,-1.));
#492=DIRECTION('',(0.,-1.,0.));
#493=DIRECTION('',(0.,0.,-1.));
#494=DIRECTION('',(-1.,0.,0.));
#495=DIRECTION('',(0.,0.,-1.));
#496=DIRECTION('',(0.,-1.,0.));
#497=DIRECTION('',(0.,0.,-1.));
#498=DIRECTION('',(-1.,0.,0.));
#499=DIRECTION('',(0.,0.,-1.));
#500=DIRECTION('',(-1.,0.,0.));
#501=DIRECTION('',(0.,0.,-1.));
#502=DIRECTION('',(1.,0.,0.));
#503=DIRECTION('',(0.,0.,-1.));
#504=DIRECTION('',(0.,0.,-1.));
#505=DIRECTION('',(1.,0.,0.));
#506=DIRECTION('',(0.,0.,-1.));
#507=DIRECTION('',(0.,0.,1.));
#508=DIRECTION('',(1.,0.,0.));
#509=DIRECTION('',(0.,0.,-1.));
#510=DIRECTION('',(0.,0.,-1.));
#511=DIRECTION('',(1.,0.,0.));
#512=DIRECTION('',(0.,0.,-1.));
#513=DIRECTION('',(0.,0.,1.));
#514=DIRECTION('',(1.,0.,0.));
#515=DIRECTION('',(0.,0.,-1.));
#516=DIRECTION('',(0.,-1.,0.));
#517=DIRECTION('',(0.,0.,-1.));
#518=DIRECTION('',(0.,-1.,0.));
#519=DIRECTION('',(-1.,0.,0.));
#520=DIRECTION('',(0.,0.,1.));
#521=DIRECTION('',(0.,-1.,0.));
#522=DIRECTION('',(0.,-1.,0.));
#523=DIRECTION('',(0.,0.,-1.));
#524=DIRECTION('',(-1.,0.,0.));
#525=DIRECTION('',(0.,0.,1.));
#526=DIRECTION('',(1.,0.,0.));
#527=DIRECTION('',(0.,0.,-1.));
#528=DIRECTION('',(0.,0.,1.));
#529=DIRECTION('',(1.,0.,0.));
#530=DIRECTION('',(-1.,0.,0.));
#531=DIRECTION('',(0.,0.,1.));
#532=DIRECTION('',(0.,0.,1.));
#533=DIRECTION('',(-1.,0.,0.));
#534=DIRECTION('',(0.,0.,1.));
#535=DIRECTION('',(0.,0.,-1.));
#536=DIRECTION('',(-1.,0.,0.));
#537=DIRECTION('',(0.,0.,1.));
#538=DIRECTION('',(0.,0.,1.));
#539=DIRECTION('',(-1.,0.,0.));
#540=DIRECTION('',(0.,0.,1.));
#541=DIRECTION('',(0.,0.,-1.));
#542=DIRECTION('',(-1.,0.,0.));
#543=DIRECTION('',(0.,0.,1.));
#544=DIRECTION('',(0.,1.,0.));
#545=DIRECTION('',(0.,1.,0.));
#546=DIRECTION('',(0.,0.,1.));
#547=DIRECTION('',(1.,0.,0.));
#548=DIRECTION('',(0.,0.,1.));
#549=DIRECTION('',(1.,0.,0.));
#550=DIRECTION('',(0.,-1.,0.));
#551=DIRECTION('',(0.,0.,1.));
#552=DIRECTION('',(1.,0.,0.));
#553=DIRECTION('',(0.,0.,1.));
#554=DIRECTION('',(1.,0.,0.));
#555=DIRECTION('',(0.,-1.,0.));
#556=DIRECTION('',(0.,-1.,0.));
#557=DIRECTION('',(0.,0.,-1.));
#558=DIRECTION('',(0.,-1.,0.));
#559=DIRECTION('',(0.,0.,-1.));
#560=DIRECTION('',(0.,-1.,0.));
#561=DIRECTION('',(0.,0.,-1.));
#562=DIRECTION('',(0.,-1.,0.));
#563=DIRECTION('',(0.,0.,-1.));
#564=DIRECTION('',(-1.,0.,0.));
#565=DIRECTION('',(-1.,0.,0.));
#566=DIRECTION('',(-1.,0.,0.));
#567=DIRECTION('',(0.,0.,1.));
#568=DIRECTION('',(-1.,0.,0.));
#569=DIRECTION('',(0.,1.,0.));
#570=DIRECTION('',(0.,0.,1.));
#571=DIRECTION('',(-1.,0.,0.));
#572=DIRECTION('',(-1.,0.,0.));
#573=DIRECTION('',(0.,0.,1.));
#574=DIRECTION('',(0.,-1.,0.));
#575=DIRECTION('',(0.,0.,-1.));
#576=DIRECTION('',(-1.,0.,0.));
#577=DIRECTION('',(-1.,0.,0.));
#578=DIRECTION('',(-1.,0.,0.));
#579=DIRECTION('',(0.,0.,1.));
#580=DIRECTION('',(-1.,0.,0.));
#581=DIRECTION('',(0.,1.,0.));
#582=DIRECTION('',(0.,0.,1.));
#583=DIRECTION('',(-1.,0.,0.));
#584=DIRECTION('',(-1.,0.,0.));
#585=DIRECTION('',(0.,0.,1.));
#586=DIRECTION('',(0.,0.,-1.));
#587=DIRECTION('',(-1.,0.,0.));
#588=CARTESIAN_POINT('',(0.,0.,0.));
#589=CARTESIAN_POINT('',(0.,0.,21.));
#590=CARTESIAN_POINT('',(36.,0.,0.));
#591=CARTESIAN_POINT('',(36.,0.,18.05));
#592=CARTESIAN_POINT('',(7.,0.,21.));
#593=CARTESIAN_POINT('',(7.,0.,21.));
#594=CARTESIAN_POINT('',(7.,0.,-21.));
#595=CARTESIAN_POINT('',(0.,0.,-21.));
#596=CARTESIAN_POINT('',(40.6197722286464,0.,-21.));
#597=CARTESIAN_POINT('',(36.01,0.,-1.73472347597681E-15));
#598=CARTESIAN_POINT('',(57.5,0.,-0.655667598711515));
#599=CARTESIAN_POINT('',(57.5,0.,21.));
#600=CARTESIAN_POINT('',(57.5,0.,0.655667598711512));
#601=CARTESIAN_POINT('',(36.01,0.,-1.73472347597681E-15));
#602=CARTESIAN_POINT('',(40.6197722286464,0.,21.));
#603=CARTESIAN_POINT('',(0.,0.,21.));
#604=CARTESIAN_POINT('',(57.5,3.,21.));
#605=CARTESIAN_POINT('',(36.,3.,0.));
#606=CARTESIAN_POINT('',(36.,3.,-18.05));
#607=CARTESIAN_POINT('',(57.5,3.,21.));
#608=CARTESIAN_POINT('',(40.6197722286464,3.,21.));
#609=CARTESIAN_POINT('',(7.,3.,21.));
#610=CARTESIAN_POINT('',(36.01,3.,-1.73472347597681E-15));
#611=CARTESIAN_POINT('',(57.5,3.,0.655667598711429));
#612=CARTESIAN_POINT('',(57.5,3.,21.));
#613=CARTESIAN_POINT('',(57.5,3.,-0.655667598711433));
#614=CARTESIAN_POINT('',(36.01,3.,-1.73472347597681E-15));
#615=CARTESIAN_POINT('',(40.6197722286464,3.,-21.));
#616=CARTESIAN_POINT('',(57.5,3.,-21.));
#617=CARTESIAN_POINT('',(7.,3.,-21.));
#618=CARTESIAN_POINT('',(7.,3.,21.));
#619=CARTESIAN_POINT('',(3.,25.,21.));
#620=CARTESIAN_POINT('',(3.,25.,-21.));
#621=CARTESIAN_POINT('',(3.,25.,-21.));
#622=CARTESIAN_POINT('',(0.,25.,-21.));
#623=CARTESIAN_POINT('',(0.,25.,21.));
#624=CARTESIAN_POINT('',(0.,25.,21.));
#625=CARTESIAN_POINT('',(3.,25.,21.));
#626=CARTESIAN_POINT('',(3.,25.,21.));
#627=CARTESIAN_POINT('',(3.,25.,21.));
#628=CARTESIAN_POINT('',(0.,25.,21.));
#629=CARTESIAN_POINT('',(0.,21.25,21.));
#630=CARTESIAN_POINT('',(0.,21.25,15.));
#631=CARTESIAN_POINT('',(0.,21.25,13.));
#632=CARTESIAN_POINT('',(0.,18.,15.));
#633=CARTESIAN_POINT('',(0.,14.75,15.));
#634=CARTESIAN_POINT('',(0.,14.75,21.));
#635=CARTESIAN_POINT('',(0.,14.75,13.));
#636=CARTESIAN_POINT('',(0.,18.,13.));
#637=CARTESIAN_POINT('',(0.,21.25,21.));
#638=CARTESIAN_POINT('',(0.,21.25,-13.));
#639=CARTESIAN_POINT('',(0.,21.25,-15.));
#640=CARTESIAN_POINT('',(0.,18.,-13.));
#641=CARTESIAN_POINT('',(0.,14.75,-13.));
#642=CARTESIAN_POINT('',(0.,14.75,21.));
#643=CARTESIAN_POINT('',(0.,14.75,-15.));
#644=CARTESIAN_POINT('',(0.,18.,-15.));
#645=CARTESIAN_POINT('',(0.,25.,-21.));
#646=CARTESIAN_POINT('',(0.,7.,-21.));
#647=CARTESIAN_POINT('',(-8.67361737988404E-16,7.,21.));
#648=CARTESIAN_POINT('',(-8.67361737988404E-16,7.,21.));
#649=CARTESIAN_POINT('',(0.,25.,21.));
#650=CARTESIAN_POINT('',(57.5,0.,21.));
#651=CARTESIAN_POINT('',(57.5,4.,-0.655667598711515));
#652=CARTESIAN_POINT('',(57.5,4.,0.655667598711512));
#653=CARTESIAN_POINT('',(7.,7.,21.));
#654=CARTESIAN_POINT('',(7.,7.,-21.));
#655=CARTESIAN_POINT('',(3.,7.,-21.));
#656=CARTESIAN_POINT('',(3.,7.,21.));
#657=CARTESIAN_POINT('',(3.,7.,21.));
#658=CARTESIAN_POINT('',(7.,7.,21.));
#659=CARTESIAN_POINT('',(3.,7.,21.));
#660=CARTESIAN_POINT('',(3.,21.25,21.));
#661=CARTESIAN_POINT('',(3.,21.25,13.));
#662=CARTESIAN_POINT('',(3.,21.25,15.));
#663=CARTESIAN_POINT('',(3.,18.,13.));
#664=CARTESIAN_POINT('',(3.,14.75,13.));
#665=CARTESIAN_POINT('',(3.,14.75,21.));
#666=CARTESIAN_POINT('',(3.,14.75,15.));
#667=CARTESIAN_POINT('',(3.,18.,15.));
#668=CARTESIAN_POINT('',(3.,21.25,21.));
#669=CARTESIAN_POINT('',(3.,21.25,-15.));
#670=CARTESIAN_POINT('',(3.,21.25,-13.));
#671=CARTESIAN_POINT('',(3.,18.,-15.));
#672=CARTESIAN_POINT('',(3.,14.75,-15.));
#673=CARTESIAN_POINT('',(3.,14.75,21.));
#674=CARTESIAN_POINT('',(3.,14.75,-13.));
#675=CARTESIAN_POINT('',(3.,18.,-13.));
#676=CARTESIAN_POINT('',(3.,7.,-21.));
#677=CARTESIAN_POINT('',(3.,7.,21.));
#678=CARTESIAN_POINT('',(7.,7.,21.));
#679=CARTESIAN_POINT('',(7.,7.,21.));
#680=CARTESIAN_POINT('',(40.6197722286464,4.,21.));
#681=CARTESIAN_POINT('',(7.,7.,-21.));
#682=CARTESIAN_POINT('',(7.,7.,-21.));
#683=CARTESIAN_POINT('',(40.6197722286464,4.,-21.));
#684=CARTESIAN_POINT('',(36.01,4.,-1.73472347597681E-15));
#685=CARTESIAN_POINT('',(36.01,4.,-1.73472347597681E-15));
#686=CARTESIAN_POINT('',(36.,4.,0.));
#687=CARTESIAN_POINT('',(4.,21.25,-15.));
#688=CARTESIAN_POINT('',(4.,21.25,-15.));
#689=CARTESIAN_POINT('',(4.,21.25,-13.));
#690=CARTESIAN_POINT('',(4.,18.,-13.));
#691=CARTESIAN_POINT('',(4.,14.75,-13.));
#692=CARTESIAN_POINT('',(4.,14.75,-13.));
#693=CARTESIAN_POINT('',(4.,14.75,-15.));
#694=CARTESIAN_POINT('',(4.,18.,-15.));
#695=CARTESIAN_POINT('',(4.,21.25,13.));
#696=CARTESIAN_POINT('',(4.,21.25,13.));
#697=CARTESIAN_POINT('',(4.,21.25,15.));
#698=CARTESIAN_POINT('',(4.,18.,15.));
#699=CARTESIAN_POINT('',(4.,14.75,15.));
#700=CARTESIAN_POINT('',(4.,14.75,15.));
#701=CARTESIAN_POINT('',(4.,14.75,13.));
#702=CARTESIAN_POINT('',(4.,18.,13.));
#703=CARTESIAN_POINT('',(7.,7.,21.));
#704=MECHANICAL_DESIGN_GEOMETRIC_PRESENTATION_REPRESENTATION('',(#419),
#705);
#705=(
GEOMETRIC_REPRESENTATION_CONTEXT(3)
GLOBAL_UNCERTAINTY_ASSIGNED_CONTEXT((#706))
GLOBAL_UNIT_ASSIGNED_CONTEXT((#709,#708,#707))
REPRESENTATION_CONTEXT('164936 HR-D-MINI','TOP_LEVEL_ASSEMBLY_PART')
);
#706=UNCERTAINTY_MEASURE_WITH_UNIT(LENGTH_MEASURE(0.005),#709,
'DISTANCE_ACCURACY_VALUE','Maximum Tolerance applied to model');
#707=(
NAMED_UNIT(*)
SI_UNIT($,.STERADIAN.)
SOLID_ANGLE_UNIT()
);
#708=(
NAMED_UNIT(*)
PLANE_ANGLE_UNIT()
SI_UNIT($,.RADIAN.)
);
#709=(
LENGTH_UNIT()
NAMED_UNIT(*)
SI_UNIT(.MILLI.,.METRE.)
);
#710=PRODUCT_DEFINITION_SHAPE('','',#711);
#711=PRODUCT_DEFINITION('','',#713,#712);
#712=PRODUCT_DEFINITION_CONTEXT('',#719,'design');
#713=PRODUCT_DEFINITION_FORMATION_WITH_SPECIFIED_SOURCE('','',#715,
 .NOT_KNOWN.);
#714=PRODUCT_RELATED_PRODUCT_CATEGORY('','',(#715));
#715=PRODUCT('164936 HR-D-MINI','164936 HR-D-MINI','164936 HR-D-MINI',(#717));
#716=PRODUCT_CATEGORY('','');
#717=PRODUCT_CONTEXT('',#719,'mechanical');
#718=APPLICATION_PROTOCOL_DEFINITION('international standard',
'automotive_design',2010,#719);
#719=APPLICATION_CONTEXT(
'core data for automotive mechanical design processes');
ENDSEC;
END-ISO-10303-21;
