ISO-10303-21;
HEADER;
/* Generated by software containing ST-Developer
 * from STEP Tools, Inc. (www.steptools.com) 
 */
/* OPTION: using custom renumber hook */

FILE_DESCRIPTION(
/* description */ ('STEP AP214'),
/* implementation_level */ '2;1');

FILE_NAME(
/* name */ '1707427_UC-3_8',
/* time_stamp */ '2024-09-11T08:30:09+02:00',
/* author */ ('License CC BY-ND 4.0'),
/* organization */ ('CADENAS'),
/* preprocessor_version */ 'ST-DEVELOPER v19.3',
/* originating_system */ 'PARTsolutions',
/* authorisation */ '  ');

FILE_SCHEMA (('AUTOMOTIVE_DESIGN {1 0 10303 214 3 1 1}'));
ENDSEC;

DATA;
#10=PROPERTY_DEFINITION_REPRESENTATION(#14,#12);
#11=PROPERTY_DEFINITION_REPRESENTATION(#15,#13);
#12=REPRESENTATION('',(#16),#449);
#13=REPRESENTATION('',(#17),#449);
#14=PROPERTY_DEFINITION('pmi validation property','',#454);
#15=PROPERTY_DEFINITION('pmi validation property','',#454);
#16=VALUE_REPRESENTATION_ITEM('number of annotations',COUNT_MEASURE(0.));
#17=VALUE_REPRESENTATION_ITEM('number of views',COUNT_MEASURE(0.));
#18=SHAPE_REPRESENTATION_RELATIONSHIP('','',#304,#19);
#19=ADVANCED_BREP_SHAPE_REPRESENTATION('',(#302),#449);
#20=SPHERICAL_SURFACE('',#334,30.);
#21=CONICAL_SURFACE('',#319,8.331,1.0471975511966);
#22=CONICAL_SURFACE('',#325,5.65,0.785398163397449);
#23=CYLINDRICAL_SURFACE('',#311,9.20833333333334);
#24=CYLINDRICAL_SURFACE('',#317,8.331);
#25=CYLINDRICAL_SURFACE('',#321,7.3);
#26=CYLINDRICAL_SURFACE('',#327,5.25);
#27=CYLINDRICAL_SURFACE('',#333,11.);
#28=CYLINDRICAL_SURFACE('',#336,11.05);
#29=PLANE('',#309);
#30=PLANE('',#313);
#31=PLANE('',#323);
#32=PLANE('',#329);
#33=PLANE('',#330);
#34=ORIENTED_EDGE('',*,*,#64,.F.);
#35=ORIENTED_EDGE('',*,*,#65,.F.);
#36=ORIENTED_EDGE('',*,*,#66,.F.);
#37=ORIENTED_EDGE('',*,*,#65,.T.);
#38=ORIENTED_EDGE('',*,*,#67,.F.);
#39=ORIENTED_EDGE('',*,*,#66,.T.);
#40=ORIENTED_EDGE('',*,*,#68,.F.);
#41=ORIENTED_EDGE('',*,*,#67,.T.);
#42=ORIENTED_EDGE('',*,*,#69,.F.);
#43=ORIENTED_EDGE('',*,*,#68,.T.);
#44=ORIENTED_EDGE('',*,*,#70,.F.);
#45=ORIENTED_EDGE('',*,*,#69,.T.);
#46=ORIENTED_EDGE('',*,*,#71,.F.);
#47=ORIENTED_EDGE('',*,*,#70,.T.);
#48=ORIENTED_EDGE('',*,*,#72,.F.);
#49=ORIENTED_EDGE('',*,*,#71,.T.);
#50=ORIENTED_EDGE('',*,*,#73,.F.);
#51=ORIENTED_EDGE('',*,*,#72,.T.);
#52=ORIENTED_EDGE('',*,*,#74,.F.);
#53=ORIENTED_EDGE('',*,*,#73,.T.);
#54=ORIENTED_EDGE('',*,*,#75,.F.);
#55=ORIENTED_EDGE('',*,*,#74,.T.);
#56=ORIENTED_EDGE('',*,*,#75,.T.);
#57=ORIENTED_EDGE('',*,*,#76,.F.);
#58=ORIENTED_EDGE('',*,*,#77,.T.);
#59=ORIENTED_EDGE('',*,*,#77,.F.);
#60=ORIENTED_EDGE('',*,*,#64,.T.);
#61=ORIENTED_EDGE('',*,*,#78,.F.);
#62=ORIENTED_EDGE('',*,*,#76,.T.);
#63=ORIENTED_EDGE('',*,*,#78,.T.);
#64=EDGE_CURVE('',#79,#79,#94,.T.);
#65=EDGE_CURVE('',#80,#80,#95,.T.);
#66=EDGE_CURVE('',#81,#81,#96,.T.);
#67=EDGE_CURVE('',#82,#82,#97,.T.);
#68=EDGE_CURVE('',#83,#83,#98,.T.);
#69=EDGE_CURVE('',#84,#84,#99,.T.);
#70=EDGE_CURVE('',#85,#85,#100,.T.);
#71=EDGE_CURVE('',#86,#86,#101,.T.);
#72=EDGE_CURVE('',#87,#87,#102,.T.);
#73=EDGE_CURVE('',#88,#88,#103,.T.);
#74=EDGE_CURVE('',#89,#89,#104,.T.);
#75=EDGE_CURVE('',#90,#90,#105,.T.);
#76=EDGE_CURVE('',#91,#91,#106,.T.);
#77=EDGE_CURVE('',#92,#92,#107,.T.);
#78=EDGE_CURVE('',#93,#93,#108,.T.);
#79=VERTEX_POINT('',#404);
#80=VERTEX_POINT('',#406);
#81=VERTEX_POINT('',#409);
#82=VERTEX_POINT('',#412);
#83=VERTEX_POINT('',#415);
#84=VERTEX_POINT('',#418);
#85=VERTEX_POINT('',#421);
#86=VERTEX_POINT('',#424);
#87=VERTEX_POINT('',#427);
#88=VERTEX_POINT('',#430);
#89=VERTEX_POINT('',#433);
#90=VERTEX_POINT('',#436);
#91=VERTEX_POINT('',#440);
#92=VERTEX_POINT('',#442);
#93=VERTEX_POINT('',#446);
#94=CIRCLE('',#307,11.);
#95=CIRCLE('',#308,10.65);
#96=CIRCLE('',#310,9.20833333333334);
#97=CIRCLE('',#312,9.20833333333334);
#98=CIRCLE('',#314,8.531);
#99=CIRCLE('',#316,8.331);
#100=CIRCLE('',#318,8.331);
#101=CIRCLE('',#320,7.3);
#102=CIRCLE('',#322,7.3);
#103=CIRCLE('',#324,5.65);
#104=CIRCLE('',#326,5.25);
#105=CIRCLE('',#328,5.25);
#106=CIRCLE('',#331,11.05);
#107=CIRCLE('',#332,11.);
#108=CIRCLE('',#335,11.05);
#109=EDGE_LOOP('',(#34));
#110=EDGE_LOOP('',(#35));
#111=EDGE_LOOP('',(#36));
#112=EDGE_LOOP('',(#37));
#113=EDGE_LOOP('',(#38));
#114=EDGE_LOOP('',(#39));
#115=EDGE_LOOP('',(#40));
#116=EDGE_LOOP('',(#41));
#117=EDGE_LOOP('',(#42));
#118=EDGE_LOOP('',(#43));
#119=EDGE_LOOP('',(#44));
#120=EDGE_LOOP('',(#45));
#121=EDGE_LOOP('',(#46));
#122=EDGE_LOOP('',(#47));
#123=EDGE_LOOP('',(#48));
#124=EDGE_LOOP('',(#49));
#125=EDGE_LOOP('',(#50));
#126=EDGE_LOOP('',(#51));
#127=EDGE_LOOP('',(#52));
#128=EDGE_LOOP('',(#53));
#129=EDGE_LOOP('',(#54));
#130=EDGE_LOOP('',(#55));
#131=EDGE_LOOP('',(#56));
#132=EDGE_LOOP('',(#57));
#133=EDGE_LOOP('',(#58));
#134=EDGE_LOOP('',(#59));
#135=EDGE_LOOP('',(#60));
#136=EDGE_LOOP('',(#61));
#137=EDGE_LOOP('',(#62));
#138=EDGE_LOOP('',(#63));
#139=FACE_BOUND('',#109,.T.);
#140=FACE_BOUND('',#110,.T.);
#141=FACE_BOUND('',#111,.T.);
#142=FACE_BOUND('',#112,.T.);
#143=FACE_BOUND('',#113,.T.);
#144=FACE_BOUND('',#114,.T.);
#145=FACE_BOUND('',#115,.T.);
#146=FACE_BOUND('',#116,.T.);
#147=FACE_BOUND('',#117,.T.);
#148=FACE_BOUND('',#118,.T.);
#149=FACE_BOUND('',#119,.T.);
#150=FACE_BOUND('',#120,.T.);
#151=FACE_BOUND('',#121,.T.);
#152=FACE_BOUND('',#122,.T.);
#153=FACE_BOUND('',#123,.T.);
#154=FACE_BOUND('',#124,.T.);
#155=FACE_BOUND('',#125,.T.);
#156=FACE_BOUND('',#126,.T.);
#157=FACE_BOUND('',#127,.T.);
#158=FACE_BOUND('',#128,.T.);
#159=FACE_BOUND('',#129,.T.);
#160=FACE_BOUND('',#130,.T.);
#161=FACE_BOUND('',#131,.T.);
#162=FACE_BOUND('',#132,.T.);
#163=FACE_BOUND('',#133,.T.);
#164=FACE_BOUND('',#134,.T.);
#165=FACE_BOUND('',#135,.T.);
#166=FACE_BOUND('',#136,.T.);
#167=FACE_BOUND('',#137,.T.);
#168=FACE_BOUND('',#138,.T.);
#169=TOROIDAL_SURFACE('',#306,10.65,0.400000000000001);
#170=TOROIDAL_SURFACE('',#315,8.531,0.200000000000001);
#171=STYLED_ITEM('',(#187),#285);
#172=STYLED_ITEM('',(#188),#286);
#173=STYLED_ITEM('',(#189),#287);
#174=STYLED_ITEM('',(#190),#288);
#175=STYLED_ITEM('',(#191),#289);
#176=STYLED_ITEM('',(#192),#290);
#177=STYLED_ITEM('',(#193),#291);
#178=STYLED_ITEM('',(#194),#292);
#179=STYLED_ITEM('',(#195),#293);
#180=STYLED_ITEM('',(#196),#294);
#181=STYLED_ITEM('',(#197),#295);
#182=STYLED_ITEM('',(#198),#296);
#183=STYLED_ITEM('',(#199),#297);
#184=STYLED_ITEM('',(#200),#298);
#185=STYLED_ITEM('',(#201),#299);
#186=STYLED_ITEM('',(#202),#300);
#187=PRESENTATION_STYLE_ASSIGNMENT((#203));
#188=PRESENTATION_STYLE_ASSIGNMENT((#204));
#189=PRESENTATION_STYLE_ASSIGNMENT((#205));
#190=PRESENTATION_STYLE_ASSIGNMENT((#206));
#191=PRESENTATION_STYLE_ASSIGNMENT((#207));
#192=PRESENTATION_STYLE_ASSIGNMENT((#208));
#193=PRESENTATION_STYLE_ASSIGNMENT((#209));
#194=PRESENTATION_STYLE_ASSIGNMENT((#210));
#195=PRESENTATION_STYLE_ASSIGNMENT((#211));
#196=PRESENTATION_STYLE_ASSIGNMENT((#212));
#197=PRESENTATION_STYLE_ASSIGNMENT((#213));
#198=PRESENTATION_STYLE_ASSIGNMENT((#214));
#199=PRESENTATION_STYLE_ASSIGNMENT((#215));
#200=PRESENTATION_STYLE_ASSIGNMENT((#216));
#201=PRESENTATION_STYLE_ASSIGNMENT((#217));
#202=PRESENTATION_STYLE_ASSIGNMENT((#218));
#203=SURFACE_STYLE_USAGE(.BOTH.,#219);
#204=SURFACE_STYLE_USAGE(.BOTH.,#220);
#205=SURFACE_STYLE_USAGE(.BOTH.,#221);
#206=SURFACE_STYLE_USAGE(.BOTH.,#222);
#207=SURFACE_STYLE_USAGE(.BOTH.,#223);
#208=SURFACE_STYLE_USAGE(.BOTH.,#224);
#209=SURFACE_STYLE_USAGE(.BOTH.,#225);
#210=SURFACE_STYLE_USAGE(.BOTH.,#226);
#211=SURFACE_STYLE_USAGE(.BOTH.,#227);
#212=SURFACE_STYLE_USAGE(.BOTH.,#228);
#213=SURFACE_STYLE_USAGE(.BOTH.,#229);
#214=SURFACE_STYLE_USAGE(.BOTH.,#230);
#215=SURFACE_STYLE_USAGE(.BOTH.,#231);
#216=SURFACE_STYLE_USAGE(.BOTH.,#232);
#217=SURFACE_STYLE_USAGE(.BOTH.,#233);
#218=SURFACE_STYLE_USAGE(.BOTH.,#234);
#219=SURFACE_SIDE_STYLE('',(#235));
#220=SURFACE_SIDE_STYLE('',(#236));
#221=SURFACE_SIDE_STYLE('',(#237));
#222=SURFACE_SIDE_STYLE('',(#238));
#223=SURFACE_SIDE_STYLE('',(#239));
#224=SURFACE_SIDE_STYLE('',(#240));
#225=SURFACE_SIDE_STYLE('',(#241));
#226=SURFACE_SIDE_STYLE('',(#242));
#227=SURFACE_SIDE_STYLE('',(#243));
#228=SURFACE_SIDE_STYLE('',(#244));
#229=SURFACE_SIDE_STYLE('',(#245));
#230=SURFACE_SIDE_STYLE('',(#246));
#231=SURFACE_SIDE_STYLE('',(#247));
#232=SURFACE_SIDE_STYLE('',(#248));
#233=SURFACE_SIDE_STYLE('',(#249));
#234=SURFACE_SIDE_STYLE('',(#250));
#235=SURFACE_STYLE_FILL_AREA(#251);
#236=SURFACE_STYLE_FILL_AREA(#252);
#237=SURFACE_STYLE_FILL_AREA(#253);
#238=SURFACE_STYLE_FILL_AREA(#254);
#239=SURFACE_STYLE_FILL_AREA(#255);
#240=SURFACE_STYLE_FILL_AREA(#256);
#241=SURFACE_STYLE_FILL_AREA(#257);
#242=SURFACE_STYLE_FILL_AREA(#258);
#243=SURFACE_STYLE_FILL_AREA(#259);
#244=SURFACE_STYLE_FILL_AREA(#260);
#245=SURFACE_STYLE_FILL_AREA(#261);
#246=SURFACE_STYLE_FILL_AREA(#262);
#247=SURFACE_STYLE_FILL_AREA(#263);
#248=SURFACE_STYLE_FILL_AREA(#264);
#249=SURFACE_STYLE_FILL_AREA(#265);
#250=SURFACE_STYLE_FILL_AREA(#266);
#251=FILL_AREA_STYLE('',(#267));
#252=FILL_AREA_STYLE('',(#268));
#253=FILL_AREA_STYLE('',(#269));
#254=FILL_AREA_STYLE('',(#270));
#255=FILL_AREA_STYLE('',(#271));
#256=FILL_AREA_STYLE('',(#272));
#257=FILL_AREA_STYLE('',(#273));
#258=FILL_AREA_STYLE('',(#274));
#259=FILL_AREA_STYLE('',(#275));
#260=FILL_AREA_STYLE('',(#276));
#261=FILL_AREA_STYLE('',(#277));
#262=FILL_AREA_STYLE('',(#278));
#263=FILL_AREA_STYLE('',(#279));
#264=FILL_AREA_STYLE('',(#280));
#265=FILL_AREA_STYLE('',(#281));
#266=FILL_AREA_STYLE('',(#282));
#267=FILL_AREA_STYLE_COLOUR('',#283);
#268=FILL_AREA_STYLE_COLOUR('',#283);
#269=FILL_AREA_STYLE_COLOUR('',#283);
#270=FILL_AREA_STYLE_COLOUR('',#283);
#271=FILL_AREA_STYLE_COLOUR('',#283);
#272=FILL_AREA_STYLE_COLOUR('',#283);
#273=FILL_AREA_STYLE_COLOUR('',#283);
#274=FILL_AREA_STYLE_COLOUR('',#283);
#275=FILL_AREA_STYLE_COLOUR('',#283);
#276=FILL_AREA_STYLE_COLOUR('',#283);
#277=FILL_AREA_STYLE_COLOUR('',#283);
#278=FILL_AREA_STYLE_COLOUR('',#284);
#279=FILL_AREA_STYLE_COLOUR('',#284);
#280=FILL_AREA_STYLE_COLOUR('',#283);
#281=FILL_AREA_STYLE_COLOUR('',#284);
#282=FILL_AREA_STYLE_COLOUR('',#284);
#283=COLOUR_RGB('',0.,0.60000002384186,1.);
#284=COLOUR_RGB('',0.689999997615814,0.689999997615814,0.689999997615814);
#285=ADVANCED_FACE('',(#139,#140),#169,.T.);
#286=ADVANCED_FACE('',(#141,#142),#29,.F.);
#287=ADVANCED_FACE('',(#143,#144),#23,.T.);
#288=ADVANCED_FACE('',(#145,#146),#30,.F.);
#289=ADVANCED_FACE('',(#147,#148),#170,.F.);
#290=ADVANCED_FACE('',(#149,#150),#24,.T.);
#291=ADVANCED_FACE('',(#151,#152),#21,.T.);
#292=ADVANCED_FACE('',(#153,#154),#25,.T.);
#293=ADVANCED_FACE('',(#155,#156),#31,.F.);
#294=ADVANCED_FACE('',(#157,#158),#22,.F.);
#295=ADVANCED_FACE('',(#159,#160),#26,.F.);
#296=ADVANCED_FACE('',(#161),#32,.F.);
#297=ADVANCED_FACE('',(#162,#163),#33,.F.);
#298=ADVANCED_FACE('',(#164,#165),#27,.T.);
#299=ADVANCED_FACE('',(#166),#20,.T.);
#300=ADVANCED_FACE('',(#167,#168),#28,.T.);
#301=CLOSED_SHELL('',(#285,#286,#287,#288,#289,#290,#291,#292,#293,#294,
#295,#296,#297,#298,#299,#300));
#302=MANIFOLD_SOLID_BREP('1707427 UC-3/8',#301);
#303=SHAPE_DEFINITION_REPRESENTATION(#454,#304);
#304=SHAPE_REPRESENTATION('1707427 UC-3/8',(#305),#449);
#305=AXIS2_PLACEMENT_3D('',#401,#337,#338);
#306=AXIS2_PLACEMENT_3D('',#402,#339,#340);
#307=AXIS2_PLACEMENT_3D('',#403,#341,#342);
#308=AXIS2_PLACEMENT_3D('',#405,#343,#344);
#309=AXIS2_PLACEMENT_3D('',#407,#345,#346);
#310=AXIS2_PLACEMENT_3D('',#408,#347,#348);
#311=AXIS2_PLACEMENT_3D('',#410,#349,#350);
#312=AXIS2_PLACEMENT_3D('',#411,#351,#352);
#313=AXIS2_PLACEMENT_3D('',#413,#353,#354);
#314=AXIS2_PLACEMENT_3D('',#414,#355,#356);
#315=AXIS2_PLACEMENT_3D('',#416,#357,#358);
#316=AXIS2_PLACEMENT_3D('',#417,#359,#360);
#317=AXIS2_PLACEMENT_3D('',#419,#361,#362);
#318=AXIS2_PLACEMENT_3D('',#420,#363,#364);
#319=AXIS2_PLACEMENT_3D('',#422,#365,#366);
#320=AXIS2_PLACEMENT_3D('',#423,#367,#368);
#321=AXIS2_PLACEMENT_3D('',#425,#369,#370);
#322=AXIS2_PLACEMENT_3D('',#426,#371,#372);
#323=AXIS2_PLACEMENT_3D('',#428,#373,#374);
#324=AXIS2_PLACEMENT_3D('',#429,#375,#376);
#325=AXIS2_PLACEMENT_3D('',#431,#377,#378);
#326=AXIS2_PLACEMENT_3D('',#432,#379,#380);
#327=AXIS2_PLACEMENT_3D('',#434,#381,#382);
#328=AXIS2_PLACEMENT_3D('',#435,#383,#384);
#329=AXIS2_PLACEMENT_3D('',#437,#385,#386);
#330=AXIS2_PLACEMENT_3D('',#438,#387,#388);
#331=AXIS2_PLACEMENT_3D('',#439,#389,#390);
#332=AXIS2_PLACEMENT_3D('',#441,#391,#392);
#333=AXIS2_PLACEMENT_3D('',#443,#393,#394);
#334=AXIS2_PLACEMENT_3D('',#444,#395,#396);
#335=AXIS2_PLACEMENT_3D('',#445,#397,#398);
#336=AXIS2_PLACEMENT_3D('',#447,#399,#400);
#337=DIRECTION('',(0.,0.,1.));
#338=DIRECTION('',(1.,0.,0.));
#339=DIRECTION('',(0.,-1.,0.));
#340=DIRECTION('',(0.,0.,-1.));
#341=DIRECTION('',(0.,1.,0.));
#342=DIRECTION('',(0.,0.,1.));
#343=DIRECTION('',(0.,-1.,0.));
#344=DIRECTION('',(0.,0.,-1.));
#345=DIRECTION('',(0.,1.,0.));
#346=DIRECTION('',(0.,0.,1.));
#347=DIRECTION('',(0.,-1.,0.));
#348=DIRECTION('',(0.,0.,-1.));
#349=DIRECTION('',(0.,-1.,0.));
#350=DIRECTION('',(0.,0.,-1.));
#351=DIRECTION('',(0.,-1.,0.));
#352=DIRECTION('',(0.,0.,-1.));
#353=DIRECTION('',(0.,1.,0.));
#354=DIRECTION('',(0.,0.,1.));
#355=DIRECTION('',(0.,-1.,0.));
#356=DIRECTION('',(0.,0.,-1.));
#357=DIRECTION('',(0.,-1.,0.));
#358=DIRECTION('',(0.,0.,-1.));
#359=DIRECTION('',(0.,-1.,0.));
#360=DIRECTION('',(0.,0.,-1.));
#361=DIRECTION('',(0.,-1.,0.));
#362=DIRECTION('',(0.,0.,-1.));
#363=DIRECTION('',(0.,-1.,0.));
#364=DIRECTION('',(0.,0.,-1.));
#365=DIRECTION('',(0.,1.,0.));
#366=DIRECTION('',(0.,0.,1.));
#367=DIRECTION('',(0.,-1.,0.));
#368=DIRECTION('',(0.,0.,-1.));
#369=DIRECTION('',(0.,-1.,0.));
#370=DIRECTION('',(0.,0.,-1.));
#371=DIRECTION('',(0.,-1.,0.));
#372=DIRECTION('',(0.,0.,-1.));
#373=DIRECTION('',(0.,1.,0.));
#374=DIRECTION('',(0.,0.,1.));
#375=DIRECTION('',(0.,-1.,0.));
#376=DIRECTION('',(0.,0.,-1.));
#377=DIRECTION('',(0.,-1.,0.));
#378=DIRECTION('',(0.,0.,-1.));
#379=DIRECTION('',(0.,-1.,0.));
#380=DIRECTION('',(0.,0.,-1.));
#381=DIRECTION('',(0.,-1.,0.));
#382=DIRECTION('',(0.,0.,-1.));
#383=DIRECTION('',(0.,-1.,0.));
#384=DIRECTION('',(0.,0.,-1.));
#385=DIRECTION('',(0.,1.,0.));
#386=DIRECTION('',(0.,0.,1.));
#387=DIRECTION('',(0.,1.,0.));
#388=DIRECTION('',(0.,0.,1.));
#389=DIRECTION('',(0.,1.,0.));
#390=DIRECTION('',(0.,0.,1.));
#391=DIRECTION('',(0.,1.,0.));
#392=DIRECTION('',(0.,0.,1.));
#393=DIRECTION('',(0.,1.,0.));
#394=DIRECTION('',(0.,0.,1.));
#395=DIRECTION('',(0.,-1.,0.));
#396=DIRECTION('',(1.,0.,0.));
#397=DIRECTION('',(0.,-1.,0.));
#398=DIRECTION('',(0.,0.,-1.));
#399=DIRECTION('',(0.,-1.,0.));
#400=DIRECTION('',(0.,0.,-1.));
#401=CARTESIAN_POINT('',(0.,0.,0.));
#402=CARTESIAN_POINT('',(0.,1.5875,0.));
#403=CARTESIAN_POINT('',(0.,1.39385083268963,0.));
#404=CARTESIAN_POINT('',(0.,1.39385083268963,11.));
#405=CARTESIAN_POINT('',(0.,1.1875,0.));
#406=CARTESIAN_POINT('',(0.,1.1875,-10.65));
#407=CARTESIAN_POINT('',(10.65,1.1875,0.));
#408=CARTESIAN_POINT('',(0.,1.1875,0.));
#409=CARTESIAN_POINT('',(0.,1.1875,-9.20833333333334));
#410=CARTESIAN_POINT('',(0.,-9.5,0.));
#411=CARTESIAN_POINT('',(0.,0.,0.));
#412=CARTESIAN_POINT('',(0.,0.,-9.20833333333334));
#413=CARTESIAN_POINT('',(9.20833333333334,0.,0.));
#414=CARTESIAN_POINT('',(0.,0.,0.));
#415=CARTESIAN_POINT('',(0.,0.,-8.531));
#416=CARTESIAN_POINT('',(0.,-0.200000000000001,0.));
#417=CARTESIAN_POINT('',(0.,-0.200000000000001,0.));
#418=CARTESIAN_POINT('',(0.,-0.200000000000001,-8.331));
#419=CARTESIAN_POINT('',(0.,-9.5,0.));
#420=CARTESIAN_POINT('',(0.,-7.7047518724655,0.));
#421=CARTESIAN_POINT('',(0.,-7.7047518724655,-8.331));
#422=CARTESIAN_POINT('',(0.,-7.7047518724655,0.));
#423=CARTESIAN_POINT('',(0.,-8.3,0.));
#424=CARTESIAN_POINT('',(0.,-8.3,-7.3));
#425=CARTESIAN_POINT('',(0.,-9.5,0.));
#426=CARTESIAN_POINT('',(0.,-9.5,0.));
#427=CARTESIAN_POINT('',(0.,-9.5,-7.3));
#428=CARTESIAN_POINT('',(7.3,-9.5,0.));
#429=CARTESIAN_POINT('',(0.,-9.5,0.));
#430=CARTESIAN_POINT('',(0.,-9.5,-5.65));
#431=CARTESIAN_POINT('',(0.,-9.5,0.));
#432=CARTESIAN_POINT('',(0.,-9.1,0.));
#433=CARTESIAN_POINT('',(0.,-9.1,-5.25));
#434=CARTESIAN_POINT('',(0.,-9.5,0.));
#435=CARTESIAN_POINT('',(0.,9.5,0.));
#436=CARTESIAN_POINT('',(0.,9.5,-5.25));
#437=CARTESIAN_POINT('',(5.25,9.5,0.));
#438=CARTESIAN_POINT('',(0.,13.6666666666667,11.));
#439=CARTESIAN_POINT('',(0.,13.6666666666667,0.));
#440=CARTESIAN_POINT('',(0.,13.6666666666667,11.05));
#441=CARTESIAN_POINT('',(0.,13.6666666666667,0.));
#442=CARTESIAN_POINT('',(0.,13.6666666666667,11.));
#443=CARTESIAN_POINT('',(0.,50.,0.));
#444=CARTESIAN_POINT('',(1.30104260698261E-14,30.,0.));
#445=CARTESIAN_POINT('',(0.,57.8908138999205,0.));
#446=CARTESIAN_POINT('',(0.,57.8908138999205,-11.05));
#447=CARTESIAN_POINT('',(0.,-9.5,0.));
#448=MECHANICAL_DESIGN_GEOMETRIC_PRESENTATION_REPRESENTATION('',(#171,#172,
#173,#174,#175,#176,#177,#178,#179,#180,#181,#182,#183,#184,#185,#186),
#449);
#449=(
GEOMETRIC_REPRESENTATION_CONTEXT(3)
GLOBAL_UNCERTAINTY_ASSIGNED_CONTEXT((#450))
GLOBAL_UNIT_ASSIGNED_CONTEXT((#453,#452,#451))
REPRESENTATION_CONTEXT('1707427 UC-3/8','TOP_LEVEL_ASSEMBLY_PART')
);
#450=UNCERTAINTY_MEASURE_WITH_UNIT(LENGTH_MEASURE(0.005),#453,
'DISTANCE_ACCURACY_VALUE','Maximum Tolerance applied to model');
#451=(
NAMED_UNIT(*)
SI_UNIT($,.STERADIAN.)
SOLID_ANGLE_UNIT()
);
#452=(
NAMED_UNIT(*)
PLANE_ANGLE_UNIT()
SI_UNIT($,.RADIAN.)
);
#453=(
LENGTH_UNIT()
NAMED_UNIT(*)
SI_UNIT(.MILLI.,.METRE.)
);
#454=PRODUCT_DEFINITION_SHAPE('','',#455);
#455=PRODUCT_DEFINITION('','',#457,#456);
#456=PRODUCT_DEFINITION_CONTEXT('',#463,'design');
#457=PRODUCT_DEFINITION_FORMATION_WITH_SPECIFIED_SOURCE('','',#459,
 .NOT_KNOWN.);
#458=PRODUCT_RELATED_PRODUCT_CATEGORY('','',(#459));
#459=PRODUCT('1707427 UC-3/8','1707427 UC-3/8','1707427 UC-3/8',(#461));
#460=PRODUCT_CATEGORY('','');
#461=PRODUCT_CONTEXT('',#463,'mechanical');
#462=APPLICATION_PROTOCOL_DEFINITION('international standard',
'automotive_design',2010,#463);
#463=APPLICATION_CONTEXT(
'core data for automotive mechanical design processes');
ENDSEC;
END-ISO-10303-21;
