ISO-10303-21;
HEADER;
/* Generated by software containing ST-Developer
 * from STEP Tools, Inc. (www.steptools.com) 
 */
/* OPTION: using custom renumber hook */

FILE_DESCRIPTION(
/* description */ ('STEP AP214'),
/* implementation_level */ '2;1');

FILE_NAME(
/* name */ '173985_B-1_8-NPT',
/* time_stamp */ '2024-08-02T06:40:06+02:00',
/* author */ ('License CC BY-ND 4.0'),
/* organization */ ('CADENAS'),
/* preprocessor_version */ 'ST-DEVELOPER v19.3',
/* originating_system */ 'PARTsolutions',
/* authorisation */ '  ');

FILE_SCHEMA (('AUTOMOTIVE_DESIGN {1 0 10303 214 3 1 1}'));
ENDSEC;

DATA;
#10=PROPERTY_DEFINITION_REPRESENTATION(#14,#12);
#11=PROPERTY_DEFINITION_REPRESENTATION(#15,#13);
#12=REPRESENTATION('',(#16),#407);
#13=REPRESENTATION('',(#17),#407);
#14=PROPERTY_DEFINITION('pmi validation property','',#412);
#15=PROPERTY_DEFINITION('pmi validation property','',#412);
#16=VALUE_REPRESENTATION_ITEM('number of annotations',COUNT_MEASURE(0.));
#17=VALUE_REPRESENTATION_ITEM('number of views',COUNT_MEASURE(0.));
#18=SHAPE_REPRESENTATION_RELATIONSHIP('','',#239,#19);
#19=ADVANCED_BREP_SHAPE_REPRESENTATION('',(#237),#407);
#20=CYLINDRICAL_SURFACE('',#262,2.183);
#21=VERTEX_LOOP('',#155);
#22=LINE('',#375,#34);
#23=LINE('',#377,#35);
#24=LINE('',#379,#36);
#25=LINE('',#381,#37);
#26=LINE('',#383,#38);
#27=LINE('',#385,#39);
#28=LINE('',#387,#40);
#29=LINE('',#389,#41);
#30=LINE('',#391,#42);
#31=LINE('',#393,#43);
#32=LINE('',#395,#44);
#33=LINE('',#397,#45);
#34=VECTOR('',#289,1000.);
#35=VECTOR('',#290,1000.);
#36=VECTOR('',#291,1000.);
#37=VECTOR('',#294,1000.);
#38=VECTOR('',#295,1000.);
#39=VECTOR('',#298,1000.);
#40=VECTOR('',#299,1000.);
#41=VECTOR('',#302,1000.);
#42=VECTOR('',#303,1000.);
#43=VECTOR('',#306,1000.);
#44=VECTOR('',#307,1000.);
#45=VECTOR('',#310,1000.);
#46=PLANE('',#243);
#47=PLANE('',#251);
#48=PLANE('',#252);
#49=PLANE('',#253);
#50=PLANE('',#254);
#51=PLANE('',#255);
#52=PLANE('',#256);
#53=PLANE('',#257);
#54=PLANE('',#258);
#55=CIRCLE('',#242,3.175);
#56=CIRCLE('',#244,4.50834009707887);
#57=CIRCLE('',#246,5.01931082503721);
#58=CIRCLE('',#248,4.84931649030812);
#59=CIRCLE('',#250,4.30541307484979);
#60=CIRCLE('',#259,2.183);
#61=CIRCLE('',#261,2.183);
#62=ORIENTED_EDGE('',*,*,#112,.T.);
#63=ORIENTED_EDGE('',*,*,#113,.T.);
#64=ORIENTED_EDGE('',*,*,#114,.T.);
#65=ORIENTED_EDGE('',*,*,#115,.T.);
#66=ORIENTED_EDGE('',*,*,#116,.T.);
#67=ORIENTED_EDGE('',*,*,#117,.T.);
#68=ORIENTED_EDGE('',*,*,#118,.F.);
#69=ORIENTED_EDGE('',*,*,#119,.F.);
#70=ORIENTED_EDGE('',*,*,#118,.T.);
#71=ORIENTED_EDGE('',*,*,#120,.F.);
#72=ORIENTED_EDGE('',*,*,#119,.T.);
#73=ORIENTED_EDGE('',*,*,#121,.F.);
#74=ORIENTED_EDGE('',*,*,#120,.T.);
#75=ORIENTED_EDGE('',*,*,#122,.F.);
#76=ORIENTED_EDGE('',*,*,#121,.T.);
#77=ORIENTED_EDGE('',*,*,#122,.T.);
#78=ORIENTED_EDGE('',*,*,#123,.T.);
#79=ORIENTED_EDGE('',*,*,#124,.F.);
#80=ORIENTED_EDGE('',*,*,#125,.F.);
#81=ORIENTED_EDGE('',*,*,#115,.F.);
#82=ORIENTED_EDGE('',*,*,#126,.T.);
#83=ORIENTED_EDGE('',*,*,#127,.F.);
#84=ORIENTED_EDGE('',*,*,#123,.F.);
#85=ORIENTED_EDGE('',*,*,#114,.F.);
#86=ORIENTED_EDGE('',*,*,#128,.T.);
#87=ORIENTED_EDGE('',*,*,#129,.F.);
#88=ORIENTED_EDGE('',*,*,#126,.F.);
#89=ORIENTED_EDGE('',*,*,#113,.F.);
#90=ORIENTED_EDGE('',*,*,#130,.T.);
#91=ORIENTED_EDGE('',*,*,#131,.F.);
#92=ORIENTED_EDGE('',*,*,#128,.F.);
#93=ORIENTED_EDGE('',*,*,#112,.F.);
#94=ORIENTED_EDGE('',*,*,#132,.T.);
#95=ORIENTED_EDGE('',*,*,#133,.F.);
#96=ORIENTED_EDGE('',*,*,#130,.F.);
#97=ORIENTED_EDGE('',*,*,#117,.F.);
#98=ORIENTED_EDGE('',*,*,#125,.T.);
#99=ORIENTED_EDGE('',*,*,#134,.F.);
#100=ORIENTED_EDGE('',*,*,#132,.F.);
#101=ORIENTED_EDGE('',*,*,#116,.F.);
#102=ORIENTED_EDGE('',*,*,#135,.F.);
#103=ORIENTED_EDGE('',*,*,#124,.T.);
#104=ORIENTED_EDGE('',*,*,#127,.T.);
#105=ORIENTED_EDGE('',*,*,#129,.T.);
#106=ORIENTED_EDGE('',*,*,#131,.T.);
#107=ORIENTED_EDGE('',*,*,#133,.T.);
#108=ORIENTED_EDGE('',*,*,#134,.T.);
#109=ORIENTED_EDGE('',*,*,#136,.F.);
#110=ORIENTED_EDGE('',*,*,#136,.T.);
#111=ORIENTED_EDGE('',*,*,#135,.T.);
#112=EDGE_CURVE('',#137,#138,#157,.T.);
#113=EDGE_CURVE('',#138,#139,#158,.T.);
#114=EDGE_CURVE('',#139,#140,#159,.T.);
#115=EDGE_CURVE('',#140,#141,#160,.T.);
#116=EDGE_CURVE('',#141,#142,#161,.T.);
#117=EDGE_CURVE('',#142,#137,#162,.T.);
#118=EDGE_CURVE('',#143,#143,#55,.T.);
#119=EDGE_CURVE('',#144,#144,#56,.T.);
#120=EDGE_CURVE('',#145,#145,#57,.T.);
#121=EDGE_CURVE('',#146,#146,#58,.T.);
#122=EDGE_CURVE('',#147,#147,#59,.T.);
#123=EDGE_CURVE('',#140,#148,#22,.T.);
#124=EDGE_CURVE('',#149,#148,#23,.T.);
#125=EDGE_CURVE('',#141,#149,#24,.T.);
#126=EDGE_CURVE('',#139,#150,#25,.T.);
#127=EDGE_CURVE('',#148,#150,#26,.T.);
#128=EDGE_CURVE('',#138,#151,#27,.T.);
#129=EDGE_CURVE('',#150,#151,#28,.T.);
#130=EDGE_CURVE('',#137,#152,#29,.T.);
#131=EDGE_CURVE('',#151,#152,#30,.T.);
#132=EDGE_CURVE('',#142,#153,#31,.T.);
#133=EDGE_CURVE('',#152,#153,#32,.T.);
#134=EDGE_CURVE('',#153,#149,#33,.T.);
#135=EDGE_CURVE('',#154,#154,#60,.T.);
#136=EDGE_CURVE('',#156,#156,#61,.T.);
#137=VERTEX_POINT('',#328);
#138=VERTEX_POINT('',#329);
#139=VERTEX_POINT('',#335);
#140=VERTEX_POINT('',#341);
#141=VERTEX_POINT('',#347);
#142=VERTEX_POINT('',#353);
#143=VERTEX_POINT('',#360);
#144=VERTEX_POINT('',#363);
#145=VERTEX_POINT('',#366);
#146=VERTEX_POINT('',#369);
#147=VERTEX_POINT('',#372);
#148=VERTEX_POINT('',#376);
#149=VERTEX_POINT('',#378);
#150=VERTEX_POINT('',#382);
#151=VERTEX_POINT('',#386);
#152=VERTEX_POINT('',#390);
#153=VERTEX_POINT('',#394);
#154=VERTEX_POINT('',#400);
#155=VERTEX_POINT('',#402);
#156=VERTEX_POINT('',#404);
#157=B_SPLINE_CURVE_WITH_KNOTS('',3,(#323,#324,#325,#326,#327),
 .UNSPECIFIED.,.F.,.F.,(4,1,4),(0.00365044707392442,0.00508378607925905,
0.00651712508459368),.UNSPECIFIED.);
#158=B_SPLINE_CURVE_WITH_KNOTS('',3,(#330,#331,#332,#333,#334),
 .UNSPECIFIED.,.F.,.F.,(4,1,4),(2.54434231118458E-7,0.00142053080268496,
0.00284080717113881),.UNSPECIFIED.);
#159=B_SPLINE_CURVE_WITH_KNOTS('',3,(#336,#337,#338,#339,#340),
 .UNSPECIFIED.,.F.,.F.,(4,1,4),(2.54434231118318E-7,0.00142053080268496,
0.00284080717113881),.UNSPECIFIED.);
#160=B_SPLINE_CURVE_WITH_KNOTS('',3,(#342,#343,#344,#345,#346),
 .UNSPECIFIED.,.F.,.F.,(4,1,4),(0.00365044707392442,0.00508378607925905,
0.00651712508459368),.UNSPECIFIED.);
#161=B_SPLINE_CURVE_WITH_KNOTS('',3,(#348,#349,#350,#351,#352),
 .UNSPECIFIED.,.F.,.F.,(4,1,4),(2.54434231117745E-7,0.00142053080268496,
0.00284080717113881),.UNSPECIFIED.);
#162=B_SPLINE_CURVE_WITH_KNOTS('',3,(#354,#355,#356,#357,#358),
 .UNSPECIFIED.,.F.,.F.,(4,1,4),(2.54434231117978E-7,0.00142053080268496,
0.00284080717113881),.UNSPECIFIED.);
#163=EDGE_LOOP('',(#62,#63,#64,#65,#66,#67));
#164=EDGE_LOOP('',(#68));
#165=EDGE_LOOP('',(#69));
#166=EDGE_LOOP('',(#70));
#167=EDGE_LOOP('',(#71));
#168=EDGE_LOOP('',(#72));
#169=EDGE_LOOP('',(#73));
#170=EDGE_LOOP('',(#74));
#171=EDGE_LOOP('',(#75));
#172=EDGE_LOOP('',(#76));
#173=EDGE_LOOP('',(#77));
#174=EDGE_LOOP('',(#78,#79,#80,#81));
#175=EDGE_LOOP('',(#82,#83,#84,#85));
#176=EDGE_LOOP('',(#86,#87,#88,#89));
#177=EDGE_LOOP('',(#90,#91,#92,#93));
#178=EDGE_LOOP('',(#94,#95,#96,#97));
#179=EDGE_LOOP('',(#98,#99,#100,#101));
#180=EDGE_LOOP('',(#102));
#181=EDGE_LOOP('',(#103,#104,#105,#106,#107,#108));
#182=EDGE_LOOP('',(#109));
#183=EDGE_LOOP('',(#110));
#184=EDGE_LOOP('',(#111));
#185=FACE_BOUND('',#163,.T.);
#186=FACE_BOUND('',#164,.T.);
#187=FACE_BOUND('',#165,.T.);
#188=FACE_BOUND('',#166,.T.);
#189=FACE_BOUND('',#167,.T.);
#190=FACE_BOUND('',#168,.T.);
#191=FACE_BOUND('',#169,.T.);
#192=FACE_BOUND('',#170,.T.);
#193=FACE_BOUND('',#171,.T.);
#194=FACE_BOUND('',#172,.T.);
#195=FACE_BOUND('',#173,.T.);
#196=FACE_BOUND('',#174,.T.);
#197=FACE_BOUND('',#175,.T.);
#198=FACE_BOUND('',#176,.T.);
#199=FACE_BOUND('',#177,.T.);
#200=FACE_BOUND('',#178,.T.);
#201=FACE_BOUND('',#179,.T.);
#202=FACE_BOUND('',#180,.T.);
#203=FACE_BOUND('',#181,.T.);
#204=FACE_BOUND('',#21,.T.);
#205=FACE_BOUND('',#182,.T.);
#206=FACE_BOUND('',#183,.T.);
#207=FACE_BOUND('',#184,.T.);
#208=CONICAL_SURFACE('',#241,3.175,0.785398163397448);
#209=CONICAL_SURFACE('',#245,4.50834009707887,0.785398163397448);
#210=CONICAL_SURFACE('',#247,5.01931082503721,0.031209404997979);
#211=CONICAL_SURFACE('',#249,4.84931649030812,0.785398163397448);
#212=CONICAL_SURFACE('',#260,2.183,1.0471975511966);
#213=ADVANCED_FACE('',(#185,#186),#208,.F.);
#214=ADVANCED_FACE('',(#187,#188),#46,.F.);
#215=ADVANCED_FACE('',(#189,#190),#209,.T.);
#216=ADVANCED_FACE('',(#191,#192),#210,.T.);
#217=ADVANCED_FACE('',(#193,#194),#211,.T.);
#218=ADVANCED_FACE('',(#195),#47,.F.);
#219=ADVANCED_FACE('',(#196),#48,.T.);
#220=ADVANCED_FACE('',(#197),#49,.T.);
#221=ADVANCED_FACE('',(#198),#50,.T.);
#222=ADVANCED_FACE('',(#199),#51,.T.);
#223=ADVANCED_FACE('',(#200),#52,.T.);
#224=ADVANCED_FACE('',(#201),#53,.T.);
#225=ADVANCED_FACE('',(#202,#203),#54,.T.);
#226=ADVANCED_FACE('',(#204,#205),#212,.F.);
#227=ADVANCED_FACE('',(#206,#207),#20,.F.);
#228=CLOSED_SHELL('',(#213,#214,#215,#216,#217,#218,#219,#220,#221,#222,
#223,#224,#225,#226,#227));
#229=STYLED_ITEM('',(#230),#237);
#230=PRESENTATION_STYLE_ASSIGNMENT((#231));
#231=SURFACE_STYLE_USAGE(.BOTH.,#232);
#232=SURFACE_SIDE_STYLE('',(#233));
#233=SURFACE_STYLE_FILL_AREA(#234);
#234=FILL_AREA_STYLE('',(#235));
#235=FILL_AREA_STYLE_COLOUR('',#236);
#236=COLOUR_RGB('',0.689999997615814,0.689999997615814,0.689999997615814);
#237=MANIFOLD_SOLID_BREP('173985 B-1/8-NPT',#228);
#238=SHAPE_DEFINITION_REPRESENTATION(#412,#239);
#239=SHAPE_REPRESENTATION('173985 B-1/8-NPT',(#240),#407);
#240=AXIS2_PLACEMENT_3D('',#321,#263,#264);
#241=AXIS2_PLACEMENT_3D('',#322,#265,#266);
#242=AXIS2_PLACEMENT_3D('',#359,#267,#268);
#243=AXIS2_PLACEMENT_3D('',#361,#269,#270);
#244=AXIS2_PLACEMENT_3D('',#362,#271,#272);
#245=AXIS2_PLACEMENT_3D('',#364,#273,#274);
#246=AXIS2_PLACEMENT_3D('',#365,#275,#276);
#247=AXIS2_PLACEMENT_3D('',#367,#277,#278);
#248=AXIS2_PLACEMENT_3D('',#368,#279,#280);
#249=AXIS2_PLACEMENT_3D('',#370,#281,#282);
#250=AXIS2_PLACEMENT_3D('',#371,#283,#284);
#251=AXIS2_PLACEMENT_3D('',#373,#285,#286);
#252=AXIS2_PLACEMENT_3D('',#374,#287,#288);
#253=AXIS2_PLACEMENT_3D('',#380,#292,#293);
#254=AXIS2_PLACEMENT_3D('',#384,#296,#297);
#255=AXIS2_PLACEMENT_3D('',#388,#300,#301);
#256=AXIS2_PLACEMENT_3D('',#392,#304,#305);
#257=AXIS2_PLACEMENT_3D('',#396,#308,#309);
#258=AXIS2_PLACEMENT_3D('',#398,#311,#312);
#259=AXIS2_PLACEMENT_3D('',#399,#313,#314);
#260=AXIS2_PLACEMENT_3D('',#401,#315,#316);
#261=AXIS2_PLACEMENT_3D('',#403,#317,#318);
#262=AXIS2_PLACEMENT_3D('',#405,#319,#320);
#263=DIRECTION('',(0.,0.,1.));
#264=DIRECTION('',(1.,0.,0.));
#265=DIRECTION('',(0.,1.,0.));
#266=DIRECTION('',(0.,0.,1.));
#267=DIRECTION('',(0.,-1.,0.));
#268=DIRECTION('',(0.,0.,-1.));
#269=DIRECTION('',(1.36642833800019E-16,-1.,0.));
#270=DIRECTION('',(1.,1.36642833800019E-16,0.));
#271=DIRECTION('',(1.36642833800019E-16,-1.,0.));
#272=DIRECTION('',(1.,1.36642833800019E-16,0.));
#273=DIRECTION('',(1.36642833800019E-16,-1.,0.));
#274=DIRECTION('',(1.,1.36642833800019E-16,0.));
#275=DIRECTION('',(1.36642833800019E-16,-1.,0.));
#276=DIRECTION('',(1.,1.36642833800019E-16,0.));
#277=DIRECTION('',(-1.36642833800019E-16,1.,0.));
#278=DIRECTION('',(-1.,-1.36642833800019E-16,0.));
#279=DIRECTION('',(1.36642833800019E-16,-1.,0.));
#280=DIRECTION('',(1.,1.36642833800019E-16,0.));
#281=DIRECTION('',(-1.36642833800019E-16,1.,0.));
#282=DIRECTION('',(-1.,-1.36642833800019E-16,0.));
#283=DIRECTION('',(1.36642833800019E-16,-1.,0.));
#284=DIRECTION('',(1.,1.36642833800019E-16,0.));
#285=DIRECTION('',(-1.36642833800019E-16,1.,0.));
#286=DIRECTION('',(-1.,-1.36642833800019E-16,0.));
#287=DIRECTION('',(1.,0.,0.));
#288=DIRECTION('',(0.,0.,-1.));
#289=DIRECTION('',(0.,-1.,0.));
#290=DIRECTION('',(0.,0.,1.));
#291=DIRECTION('',(0.,-1.,0.));
#292=DIRECTION('',(0.5,0.,-0.866025403784439));
#293=DIRECTION('',(-0.866025403784439,0.,-0.5));
#294=DIRECTION('',(0.,-1.,0.));
#295=DIRECTION('',(0.866025403784439,0.,0.5));
#296=DIRECTION('',(-0.5,0.,-0.866025403784439));
#297=DIRECTION('',(-0.866025403784439,0.,0.5));
#298=DIRECTION('',(0.,-1.,0.));
#299=DIRECTION('',(0.866025403784439,0.,-0.5));
#300=DIRECTION('',(-1.,0.,0.));
#301=DIRECTION('',(0.,0.,1.));
#302=DIRECTION('',(0.,-1.,0.));
#303=DIRECTION('',(0.,0.,-1.));
#304=DIRECTION('',(-0.5,0.,0.866025403784439));
#305=DIRECTION('',(0.866025403784439,0.,0.5));
#306=DIRECTION('',(0.,-1.,0.));
#307=DIRECTION('',(-0.866025403784439,0.,-0.5));
#308=DIRECTION('',(0.5,0.,0.866025403784439));
#309=DIRECTION('',(0.866025403784439,0.,-0.5));
#310=DIRECTION('',(-0.866025403784439,0.,0.5));
#311=DIRECTION('',(0.,1.,0.));
#312=DIRECTION('',(0.,0.,1.));
#313=DIRECTION('',(0.,1.,0.));
#314=DIRECTION('',(0.,0.,1.));
#315=DIRECTION('',(0.,1.,0.));
#316=DIRECTION('',(0.,0.,1.));
#317=DIRECTION('',(0.,-1.,0.));
#318=DIRECTION('',(0.,0.,-1.));
#319=DIRECTION('',(0.,-1.,0.));
#320=DIRECTION('',(0.,0.,-1.));
#321=CARTESIAN_POINT('',(0.,0.,0.));
#322=CARTESIAN_POINT('',(0.,6.5,0.));
#323=CARTESIAN_POINT('',(2.3815,6.07491933215019,-1.37495966607509));
#324=CARTESIAN_POINT('',(2.3815,5.86168432272466,-0.948489647224041));
#325=CARTESIAN_POINT('',(2.3815,5.55145840712734,-0.00169957398440707));
#326=CARTESIAN_POINT('',(2.3815,5.86139968961682,0.947920381008471));
#327=CARTESIAN_POINT('',(2.3815,6.07491933215015,1.37495966607512));
#328=CARTESIAN_POINT('',(2.3815,6.07491933215019,-1.37495966607509));
#329=CARTESIAN_POINT('',(2.3815,6.07491933215019,1.37495966607509));
#330=CARTESIAN_POINT('',(2.3815,6.07491933215019,1.37495966607509));
#331=CARTESIAN_POINT('',(2.00935718124536,5.86006257556521,1.58981642266007));
#332=CARTESIAN_POINT('',(1.1984236885741,5.55358132534498,2.0580090929487));
#333=CARTESIAN_POINT('',(0.374336062143422,5.85879630590392,2.5337963059043));
#334=CARTESIAN_POINT('',(-1.04983610400891E-13,6.07491933214989,2.74991933215025));
#335=CARTESIAN_POINT('',(-8.67361737988404E-16,6.07491933215019,2.74991933215019));
#336=CARTESIAN_POINT('',(-1.01718374313383E-15,6.07491933215019,2.74991933215019));
#337=CARTESIAN_POINT('',(-0.372142818754641,5.86006257556521,2.53506257556521));
#338=CARTESIAN_POINT('',(-1.1830763114259,5.55358132534498,2.06686990527658));
#339=CARTESIAN_POINT('',(-2.00716393785658,5.85879630590393,1.59108269232098));
#340=CARTESIAN_POINT('',(-2.3815000000001,6.07491933214989,1.37495966607503));
#341=CARTESIAN_POINT('',(-2.3815,6.07491933215019,1.37495966607509));
#342=CARTESIAN_POINT('',(-2.3815,6.07491933215019,1.37495966607509));
#343=CARTESIAN_POINT('',(-2.3815,5.86168432272466,0.948489647224041));
#344=CARTESIAN_POINT('',(-2.3815,5.55145840712735,0.00169957398440593));
#345=CARTESIAN_POINT('',(-2.3815,5.86139968961682,-0.947920381008472));
#346=CARTESIAN_POINT('',(-2.3815,6.07491933215015,-1.37495966607512));
#347=CARTESIAN_POINT('',(-2.3815,6.07491933215019,-1.37495966607509));
#348=CARTESIAN_POINT('',(-2.3815,6.07491933215019,-1.37495966607509));
#349=CARTESIAN_POINT('',(-2.00935718124536,5.86006257556521,-1.58981642266007));
#350=CARTESIAN_POINT('',(-1.1984236885741,5.55358132534498,-2.05800909294871));
#351=CARTESIAN_POINT('',(-0.374336062143425,5.85879630590392,-2.5337963059043));
#352=CARTESIAN_POINT('',(1.02156499386677E-13,6.07491933214989,-2.74991933215025));
#353=CARTESIAN_POINT('',(-1.02329602832078E-15,6.07491933215019,-2.74991933215019));
#354=CARTESIAN_POINT('',(-1.05762407027881E-15,6.07491933215019,-2.74991933215019));
#355=CARTESIAN_POINT('',(0.372142818754639,5.86006257556521,-2.53506257556521));
#356=CARTESIAN_POINT('',(1.1830763114259,5.55358132534497,-2.06686990527658));
#357=CARTESIAN_POINT('',(2.00716393785658,5.85879630590392,-1.59108269232098));
#358=CARTESIAN_POINT('',(2.3815000000001,6.07491933214989,-1.37495966607503));
#359=CARTESIAN_POINT('',(0.,6.5,0.));
#360=CARTESIAN_POINT('',(0.,6.5,-3.175));
#361=CARTESIAN_POINT('',(-8.88178419700125E-16,6.5,0.));
#362=CARTESIAN_POINT('',(-8.88178419700125E-16,6.5,0.));
#363=CARTESIAN_POINT('',(4.50834009707887,6.5,0.));
#364=CARTESIAN_POINT('',(-8.88178419700125E-16,6.5,0.));
#365=CARTESIAN_POINT('',(-8.18357931443039E-16,5.98902927204166,0.));
#366=CARTESIAN_POINT('',(5.01931082503721,5.98902927204166,0.));
#367=CARTESIAN_POINT('',(-8.18357931443039E-16,5.98902927204166,0.));
#368=CARTESIAN_POINT('',(-7.43205040017362E-17,0.543903415458336,0.));
#369=CARTESIAN_POINT('',(4.84931649030812,0.543903415458336,0.));
#370=CARTESIAN_POINT('',(-7.43205040017362E-17,0.543903415458336,0.));
#371=CARTESIAN_POINT('',(8.03875042739973E-32,-5.8830384322713E-16,0.));
#372=CARTESIAN_POINT('',(4.30541307484979,0.,0.));
#373=CARTESIAN_POINT('',(4.30541307484979,2.94151921613565E-16,0.));
#374=CARTESIAN_POINT('',(-2.3815,10.5,-1.37495966607509));
#375=CARTESIAN_POINT('',(-2.3815,10.5,1.37495966607509));
#376=CARTESIAN_POINT('',(-2.3815,2.5,1.37495966607509));
#377=CARTESIAN_POINT('',(-2.3815,2.5,-1.37495966607509));
#378=CARTESIAN_POINT('',(-2.3815,2.5,-1.37495966607509));
#379=CARTESIAN_POINT('',(-2.3815,10.5,-1.37495966607509));
#380=CARTESIAN_POINT('',(-2.3815,10.5,1.37495966607509));
#381=CARTESIAN_POINT('',(-8.67361737988404E-16,10.5,2.74991933215019));
#382=CARTESIAN_POINT('',(-8.67361737988404E-16,2.5,2.74991933215019));
#383=CARTESIAN_POINT('',(-2.3815,2.5,1.37495966607509));
#384=CARTESIAN_POINT('',(-8.88178419700125E-16,10.5,2.74991933215019));
#385=CARTESIAN_POINT('',(2.3815,10.5,1.37495966607509));
#386=CARTESIAN_POINT('',(2.3815,2.5,1.37495966607509));
#387=CARTESIAN_POINT('',(-8.88178419700125E-16,2.5,2.74991933215019));
#388=CARTESIAN_POINT('',(2.3815,10.5,1.37495966607509));
#389=CARTESIAN_POINT('',(2.3815,10.5,-1.37495966607509));
#390=CARTESIAN_POINT('',(2.3815,2.5,-1.37495966607509));
#391=CARTESIAN_POINT('',(2.3815,2.5,1.37495966607509));
#392=CARTESIAN_POINT('',(2.3815,10.5,-1.37495966607509));
#393=CARTESIAN_POINT('',(-8.67361737988404E-16,10.5,-2.74991933215019));
#394=CARTESIAN_POINT('',(-8.67361737988404E-16,2.5,-2.74991933215019));
#395=CARTESIAN_POINT('',(2.3815,2.5,-1.37495966607509));
#396=CARTESIAN_POINT('',(-8.88178419700125E-16,10.5,-2.74991933215019));
#397=CARTESIAN_POINT('',(-8.88178419700125E-16,2.5,-2.74991933215019));
#398=CARTESIAN_POINT('',(0.,2.5,0.));
#399=CARTESIAN_POINT('',(0.,2.5,0.));
#400=CARTESIAN_POINT('',(0.,2.5,2.183));
#401=CARTESIAN_POINT('',(0.,2.,0.));
#402=CARTESIAN_POINT('',(0.,0.739644362359047,0.));
#403=CARTESIAN_POINT('',(0.,2.,0.));
#404=CARTESIAN_POINT('',(0.,2.,-2.183));
#405=CARTESIAN_POINT('',(0.,0.739644362359047,0.));
#406=MECHANICAL_DESIGN_GEOMETRIC_PRESENTATION_REPRESENTATION('',(#229),
#407);
#407=(
GEOMETRIC_REPRESENTATION_CONTEXT(3)
GLOBAL_UNCERTAINTY_ASSIGNED_CONTEXT((#408))
GLOBAL_UNIT_ASSIGNED_CONTEXT((#411,#410,#409))
REPRESENTATION_CONTEXT('173985 B-1/8-NPT','TOP_LEVEL_ASSEMBLY_PART')
);
#408=UNCERTAINTY_MEASURE_WITH_UNIT(LENGTH_MEASURE(0.005),#411,
'DISTANCE_ACCURACY_VALUE','Maximum Tolerance applied to model');
#409=(
NAMED_UNIT(*)
SI_UNIT($,.STERADIAN.)
SOLID_ANGLE_UNIT()
);
#410=(
NAMED_UNIT(*)
PLANE_ANGLE_UNIT()
SI_UNIT($,.RADIAN.)
);
#411=(
LENGTH_UNIT()
NAMED_UNIT(*)
SI_UNIT(.MILLI.,.METRE.)
);
#412=PRODUCT_DEFINITION_SHAPE('','',#413);
#413=PRODUCT_DEFINITION('','',#415,#414);
#414=PRODUCT_DEFINITION_CONTEXT('',#421,'design');
#415=PRODUCT_DEFINITION_FORMATION_WITH_SPECIFIED_SOURCE('','',#417,
 .NOT_KNOWN.);
#416=PRODUCT_RELATED_PRODUCT_CATEGORY('','',(#417));
#417=PRODUCT('173985 B-1/8-NPT','173985 B-1/8-NPT','173985 B-1/8-NPT',(#419));
#418=PRODUCT_CATEGORY('','');
#419=PRODUCT_CONTEXT('',#421,'mechanical');
#420=APPLICATION_PROTOCOL_DEFINITION('international standard',
'automotive_design',2010,#421);
#421=APPLICATION_CONTEXT(
'core data for automotive mechanical design processes');
ENDSEC;
END-ISO-10303-21;
