ISO-10303-21;
HEADER;
/* Generated by software containing ST-Developer
 * from STEP Tools, Inc. (www.steptools.com) 
 */
/* OPTION: using custom renumber hook */

FILE_DESCRIPTION(
/* description */ ('STEP AP214'),
/* implementation_level */ '2;1');

FILE_NAME(
/* name */ '174169_B-3_8-NPT',
/* time_stamp */ '2024-08-05T15:15:05+02:00',
/* author */ ('License CC BY-ND 4.0'),
/* organization */ ('CADENAS'),
/* preprocessor_version */ 'ST-DEVELOPER v19.3',
/* originating_system */ 'PARTsolutions',
/* authorisation */ '  ');

FILE_SCHEMA (('AUTOMOTIVE_DESIGN {1 0 10303 214 3 1 1}'));
ENDSEC;

DATA;
#10=PROPERTY_DEFINITION_REPRESENTATION(#14,#12);
#11=PROPERTY_DEFINITION_REPRESENTATION(#15,#13);
#12=REPRESENTATION('',(#16),#541);
#13=REPRESENTATION('',(#17),#541);
#14=PROPERTY_DEFINITION('pmi validation property','',#546);
#15=PROPERTY_DEFINITION('pmi validation property','',#546);
#16=VALUE_REPRESENTATION_ITEM('number of annotations',COUNT_MEASURE(0.));
#17=VALUE_REPRESENTATION_ITEM('number of views',COUNT_MEASURE(0.));
#18=SHAPE_REPRESENTATION_RELATIONSHIP('','',#312,#19);
#19=ADVANCED_BREP_SHAPE_REPRESENTATION('',(#310),#541);
#20=CYLINDRICAL_SURFACE('',#345,3.969);
#21=VERTEX_LOOP('',#215);
#22=LINE('',#488,#40);
#23=LINE('',#490,#41);
#24=LINE('',#492,#42);
#25=LINE('',#494,#43);
#26=LINE('',#496,#44);
#27=LINE('',#498,#45);
#28=LINE('',#500,#46);
#29=LINE('',#502,#47);
#30=LINE('',#504,#48);
#31=LINE('',#506,#49);
#32=LINE('',#508,#50);
#33=LINE('',#510,#51);
#34=LINE('',#512,#52);
#35=LINE('',#514,#53);
#36=LINE('',#516,#54);
#37=LINE('',#518,#55);
#38=LINE('',#520,#56);
#39=LINE('',#522,#57);
#40=VECTOR('',#372,1000.);
#41=VECTOR('',#373,1000.);
#42=VECTOR('',#374,1000.);
#43=VECTOR('',#375,1000.);
#44=VECTOR('',#378,1000.);
#45=VECTOR('',#379,1000.);
#46=VECTOR('',#380,1000.);
#47=VECTOR('',#383,1000.);
#48=VECTOR('',#384,1000.);
#49=VECTOR('',#385,1000.);
#50=VECTOR('',#388,1000.);
#51=VECTOR('',#389,1000.);
#52=VECTOR('',#390,1000.);
#53=VECTOR('',#393,1000.);
#54=VECTOR('',#394,1000.);
#55=VECTOR('',#395,1000.);
#56=VECTOR('',#398,1000.);
#57=VECTOR('',#399,1000.);
#58=PLANE('',#316);
#59=PLANE('',#324);
#60=PLANE('',#325);
#61=PLANE('',#326);
#62=PLANE('',#327);
#63=PLANE('',#328);
#64=PLANE('',#329);
#65=PLANE('',#330);
#66=PLANE('',#331);
#67=PLANE('',#333);
#68=PLANE('',#335);
#69=PLANE('',#337);
#70=PLANE('',#339);
#71=PLANE('',#341);
#72=CIRCLE('',#315,4.961);
#73=CIRCLE('',#317,7.60846081472321);
#74=CIRCLE('',#319,8.38421512067875);
#75=CIRCLE('',#321,8.12201801436478);
#76=CIRCLE('',#323,7.29626539590923);
#77=CIRCLE('',#332,3.969);
#78=CIRCLE('',#334,3.969);
#79=CIRCLE('',#336,3.969);
#80=CIRCLE('',#338,3.969);
#81=CIRCLE('',#340,3.969);
#82=CIRCLE('',#342,3.969);
#83=CIRCLE('',#344,3.969);
#84=ORIENTED_EDGE('',*,*,#156,.T.);
#85=ORIENTED_EDGE('',*,*,#157,.T.);
#86=ORIENTED_EDGE('',*,*,#158,.T.);
#87=ORIENTED_EDGE('',*,*,#159,.T.);
#88=ORIENTED_EDGE('',*,*,#160,.T.);
#89=ORIENTED_EDGE('',*,*,#161,.T.);
#90=ORIENTED_EDGE('',*,*,#162,.F.);
#91=ORIENTED_EDGE('',*,*,#163,.F.);
#92=ORIENTED_EDGE('',*,*,#162,.T.);
#93=ORIENTED_EDGE('',*,*,#164,.F.);
#94=ORIENTED_EDGE('',*,*,#163,.T.);
#95=ORIENTED_EDGE('',*,*,#165,.F.);
#96=ORIENTED_EDGE('',*,*,#164,.T.);
#97=ORIENTED_EDGE('',*,*,#166,.F.);
#98=ORIENTED_EDGE('',*,*,#165,.T.);
#99=ORIENTED_EDGE('',*,*,#166,.T.);
#100=ORIENTED_EDGE('',*,*,#167,.T.);
#101=ORIENTED_EDGE('',*,*,#168,.F.);
#102=ORIENTED_EDGE('',*,*,#169,.F.);
#103=ORIENTED_EDGE('',*,*,#170,.F.);
#104=ORIENTED_EDGE('',*,*,#159,.F.);
#105=ORIENTED_EDGE('',*,*,#171,.T.);
#106=ORIENTED_EDGE('',*,*,#172,.F.);
#107=ORIENTED_EDGE('',*,*,#173,.F.);
#108=ORIENTED_EDGE('',*,*,#167,.F.);
#109=ORIENTED_EDGE('',*,*,#158,.F.);
#110=ORIENTED_EDGE('',*,*,#174,.T.);
#111=ORIENTED_EDGE('',*,*,#175,.F.);
#112=ORIENTED_EDGE('',*,*,#176,.F.);
#113=ORIENTED_EDGE('',*,*,#171,.F.);
#114=ORIENTED_EDGE('',*,*,#157,.F.);
#115=ORIENTED_EDGE('',*,*,#177,.T.);
#116=ORIENTED_EDGE('',*,*,#178,.F.);
#117=ORIENTED_EDGE('',*,*,#179,.F.);
#118=ORIENTED_EDGE('',*,*,#174,.F.);
#119=ORIENTED_EDGE('',*,*,#156,.F.);
#120=ORIENTED_EDGE('',*,*,#180,.T.);
#121=ORIENTED_EDGE('',*,*,#181,.F.);
#122=ORIENTED_EDGE('',*,*,#182,.F.);
#123=ORIENTED_EDGE('',*,*,#177,.F.);
#124=ORIENTED_EDGE('',*,*,#161,.F.);
#125=ORIENTED_EDGE('',*,*,#170,.T.);
#126=ORIENTED_EDGE('',*,*,#183,.F.);
#127=ORIENTED_EDGE('',*,*,#184,.F.);
#128=ORIENTED_EDGE('',*,*,#180,.F.);
#129=ORIENTED_EDGE('',*,*,#160,.F.);
#130=ORIENTED_EDGE('',*,*,#175,.T.);
#131=ORIENTED_EDGE('',*,*,#179,.T.);
#132=ORIENTED_EDGE('',*,*,#185,.F.);
#133=ORIENTED_EDGE('',*,*,#178,.T.);
#134=ORIENTED_EDGE('',*,*,#182,.T.);
#135=ORIENTED_EDGE('',*,*,#186,.F.);
#136=ORIENTED_EDGE('',*,*,#181,.T.);
#137=ORIENTED_EDGE('',*,*,#184,.T.);
#138=ORIENTED_EDGE('',*,*,#187,.F.);
#139=ORIENTED_EDGE('',*,*,#183,.T.);
#140=ORIENTED_EDGE('',*,*,#169,.T.);
#141=ORIENTED_EDGE('',*,*,#188,.F.);
#142=ORIENTED_EDGE('',*,*,#168,.T.);
#143=ORIENTED_EDGE('',*,*,#173,.T.);
#144=ORIENTED_EDGE('',*,*,#189,.F.);
#145=ORIENTED_EDGE('',*,*,#172,.T.);
#146=ORIENTED_EDGE('',*,*,#176,.T.);
#147=ORIENTED_EDGE('',*,*,#190,.F.);
#148=ORIENTED_EDGE('',*,*,#191,.F.);
#149=ORIENTED_EDGE('',*,*,#191,.T.);
#150=ORIENTED_EDGE('',*,*,#190,.T.);
#151=ORIENTED_EDGE('',*,*,#185,.T.);
#152=ORIENTED_EDGE('',*,*,#186,.T.);
#153=ORIENTED_EDGE('',*,*,#187,.T.);
#154=ORIENTED_EDGE('',*,*,#188,.T.);
#155=ORIENTED_EDGE('',*,*,#189,.T.);
#156=EDGE_CURVE('',#192,#193,#217,.T.);
#157=EDGE_CURVE('',#193,#194,#218,.T.);
#158=EDGE_CURVE('',#194,#195,#219,.T.);
#159=EDGE_CURVE('',#195,#196,#220,.T.);
#160=EDGE_CURVE('',#196,#197,#221,.T.);
#161=EDGE_CURVE('',#197,#192,#222,.T.);
#162=EDGE_CURVE('',#198,#198,#72,.T.);
#163=EDGE_CURVE('',#199,#199,#73,.T.);
#164=EDGE_CURVE('',#200,#200,#74,.T.);
#165=EDGE_CURVE('',#201,#201,#75,.T.);
#166=EDGE_CURVE('',#202,#202,#76,.T.);
#167=EDGE_CURVE('',#195,#203,#22,.T.);
#168=EDGE_CURVE('',#204,#203,#23,.T.);
#169=EDGE_CURVE('',#205,#204,#24,.T.);
#170=EDGE_CURVE('',#196,#205,#25,.T.);
#171=EDGE_CURVE('',#194,#206,#26,.T.);
#172=EDGE_CURVE('',#207,#206,#27,.T.);
#173=EDGE_CURVE('',#203,#207,#28,.T.);
#174=EDGE_CURVE('',#193,#208,#29,.T.);
#175=EDGE_CURVE('',#209,#208,#30,.T.);
#176=EDGE_CURVE('',#206,#209,#31,.T.);
#177=EDGE_CURVE('',#192,#210,#32,.T.);
#178=EDGE_CURVE('',#211,#210,#33,.T.);
#179=EDGE_CURVE('',#208,#211,#34,.T.);
#180=EDGE_CURVE('',#197,#212,#35,.T.);
#181=EDGE_CURVE('',#213,#212,#36,.T.);
#182=EDGE_CURVE('',#210,#213,#37,.T.);
#183=EDGE_CURVE('',#214,#205,#38,.T.);
#184=EDGE_CURVE('',#212,#214,#39,.T.);
#185=EDGE_CURVE('',#209,#211,#77,.T.);
#186=EDGE_CURVE('',#211,#213,#78,.T.);
#187=EDGE_CURVE('',#213,#214,#79,.T.);
#188=EDGE_CURVE('',#214,#204,#80,.T.);
#189=EDGE_CURVE('',#204,#207,#81,.T.);
#190=EDGE_CURVE('',#207,#209,#82,.T.);
#191=EDGE_CURVE('',#216,#216,#83,.T.);
#192=VERTEX_POINT('',#437);
#193=VERTEX_POINT('',#438);
#194=VERTEX_POINT('',#445);
#195=VERTEX_POINT('',#452);
#196=VERTEX_POINT('',#458);
#197=VERTEX_POINT('',#465);
#198=VERTEX_POINT('',#473);
#199=VERTEX_POINT('',#476);
#200=VERTEX_POINT('',#479);
#201=VERTEX_POINT('',#482);
#202=VERTEX_POINT('',#485);
#203=VERTEX_POINT('',#489);
#204=VERTEX_POINT('',#491);
#205=VERTEX_POINT('',#493);
#206=VERTEX_POINT('',#497);
#207=VERTEX_POINT('',#499);
#208=VERTEX_POINT('',#503);
#209=VERTEX_POINT('',#505);
#210=VERTEX_POINT('',#509);
#211=VERTEX_POINT('',#511);
#212=VERTEX_POINT('',#515);
#213=VERTEX_POINT('',#517);
#214=VERTEX_POINT('',#521);
#215=VERTEX_POINT('',#536);
#216=VERTEX_POINT('',#538);
#217=B_SPLINE_CURVE_WITH_KNOTS('',3,(#432,#433,#434,#435,#436),
 .UNSPECIFIED.,.F.,.F.,(4,1,4),(0.00584094095194105,0.00822876195599988,
0.0106165829600587),.UNSPECIFIED.);
#218=B_SPLINE_CURVE_WITH_KNOTS('',3,(#439,#440,#441,#442,#443,#444),
 .UNSPECIFIED.,.F.,.F.,(4,1,1,4),(2.54432648952224E-7,0.00118376938200549,
0.00236728433136202,0.00473431423007509),.UNSPECIFIED.);
#219=B_SPLINE_CURVE_WITH_KNOTS('',3,(#446,#447,#448,#449,#450,#451),
 .UNSPECIFIED.,.F.,.F.,(4,1,1,4),(2.54432648953555E-7,0.00118376938200549,
0.00236728433136202,0.0047343142300751),.UNSPECIFIED.);
#220=B_SPLINE_CURVE_WITH_KNOTS('',3,(#453,#454,#455,#456,#457),
 .UNSPECIFIED.,.F.,.F.,(4,1,4),(0.00584094095194105,0.00822876195599988,
0.0106165829600587),.UNSPECIFIED.);
#221=B_SPLINE_CURVE_WITH_KNOTS('',3,(#459,#460,#461,#462,#463,#464),
 .UNSPECIFIED.,.F.,.F.,(4,1,1,4),(2.54432648952224E-7,0.00118376938200549,
0.00236728433136202,0.00473431423007509),.UNSPECIFIED.);
#222=B_SPLINE_CURVE_WITH_KNOTS('',3,(#466,#467,#468,#469,#470,#471),
 .UNSPECIFIED.,.F.,.F.,(4,1,1,4),(2.54432648953533E-7,0.00118376938200549,
0.00236728433136202,0.0047343142300751),.UNSPECIFIED.);
#223=EDGE_LOOP('',(#84,#85,#86,#87,#88,#89));
#224=EDGE_LOOP('',(#90));
#225=EDGE_LOOP('',(#91));
#226=EDGE_LOOP('',(#92));
#227=EDGE_LOOP('',(#93));
#228=EDGE_LOOP('',(#94));
#229=EDGE_LOOP('',(#95));
#230=EDGE_LOOP('',(#96));
#231=EDGE_LOOP('',(#97));
#232=EDGE_LOOP('',(#98));
#233=EDGE_LOOP('',(#99));
#234=EDGE_LOOP('',(#100,#101,#102,#103,#104));
#235=EDGE_LOOP('',(#105,#106,#107,#108,#109));
#236=EDGE_LOOP('',(#110,#111,#112,#113,#114));
#237=EDGE_LOOP('',(#115,#116,#117,#118,#119));
#238=EDGE_LOOP('',(#120,#121,#122,#123,#124));
#239=EDGE_LOOP('',(#125,#126,#127,#128,#129));
#240=EDGE_LOOP('',(#130,#131,#132));
#241=EDGE_LOOP('',(#133,#134,#135));
#242=EDGE_LOOP('',(#136,#137,#138));
#243=EDGE_LOOP('',(#139,#140,#141));
#244=EDGE_LOOP('',(#142,#143,#144));
#245=EDGE_LOOP('',(#145,#146,#147));
#246=EDGE_LOOP('',(#148));
#247=EDGE_LOOP('',(#149));
#248=EDGE_LOOP('',(#150,#151,#152,#153,#154,#155));
#249=FACE_BOUND('',#223,.T.);
#250=FACE_BOUND('',#224,.T.);
#251=FACE_BOUND('',#225,.T.);
#252=FACE_BOUND('',#226,.T.);
#253=FACE_BOUND('',#227,.T.);
#254=FACE_BOUND('',#228,.T.);
#255=FACE_BOUND('',#229,.T.);
#256=FACE_BOUND('',#230,.T.);
#257=FACE_BOUND('',#231,.T.);
#258=FACE_BOUND('',#232,.T.);
#259=FACE_BOUND('',#233,.T.);
#260=FACE_BOUND('',#234,.T.);
#261=FACE_BOUND('',#235,.T.);
#262=FACE_BOUND('',#236,.T.);
#263=FACE_BOUND('',#237,.T.);
#264=FACE_BOUND('',#238,.T.);
#265=FACE_BOUND('',#239,.T.);
#266=FACE_BOUND('',#240,.T.);
#267=FACE_BOUND('',#241,.T.);
#268=FACE_BOUND('',#242,.T.);
#269=FACE_BOUND('',#243,.T.);
#270=FACE_BOUND('',#244,.T.);
#271=FACE_BOUND('',#245,.T.);
#272=FACE_BOUND('',#21,.T.);
#273=FACE_BOUND('',#246,.T.);
#274=FACE_BOUND('',#247,.T.);
#275=FACE_BOUND('',#248,.T.);
#276=CONICAL_SURFACE('',#314,4.961,0.785398163397446);
#277=CONICAL_SURFACE('',#318,7.60846081472321,0.78539816339745);
#278=CONICAL_SURFACE('',#320,8.38421512067875,0.0312094049979787);
#279=CONICAL_SURFACE('',#322,8.12201801436478,0.785398163397447);
#280=CONICAL_SURFACE('',#343,3.969,1.0471975511966);
#281=ADVANCED_FACE('',(#249,#250),#276,.F.);
#282=ADVANCED_FACE('',(#251,#252),#58,.F.);
#283=ADVANCED_FACE('',(#253,#254),#277,.T.);
#284=ADVANCED_FACE('',(#255,#256),#278,.T.);
#285=ADVANCED_FACE('',(#257,#258),#279,.T.);
#286=ADVANCED_FACE('',(#259),#59,.F.);
#287=ADVANCED_FACE('',(#260),#60,.T.);
#288=ADVANCED_FACE('',(#261),#61,.T.);
#289=ADVANCED_FACE('',(#262),#62,.T.);
#290=ADVANCED_FACE('',(#263),#63,.T.);
#291=ADVANCED_FACE('',(#264),#64,.T.);
#292=ADVANCED_FACE('',(#265),#65,.T.);
#293=ADVANCED_FACE('',(#266),#66,.T.);
#294=ADVANCED_FACE('',(#267),#67,.T.);
#295=ADVANCED_FACE('',(#268),#68,.T.);
#296=ADVANCED_FACE('',(#269),#69,.T.);
#297=ADVANCED_FACE('',(#270),#70,.T.);
#298=ADVANCED_FACE('',(#271),#71,.T.);
#299=ADVANCED_FACE('',(#272,#273),#280,.F.);
#300=ADVANCED_FACE('',(#274,#275),#20,.F.);
#301=CLOSED_SHELL('',(#281,#282,#283,#284,#285,#286,#287,#288,#289,#290,
#291,#292,#293,#294,#295,#296,#297,#298,#299,#300));
#302=STYLED_ITEM('',(#303),#310);
#303=PRESENTATION_STYLE_ASSIGNMENT((#304));
#304=SURFACE_STYLE_USAGE(.BOTH.,#305);
#305=SURFACE_SIDE_STYLE('',(#306));
#306=SURFACE_STYLE_FILL_AREA(#307);
#307=FILL_AREA_STYLE('',(#308));
#308=FILL_AREA_STYLE_COLOUR('',#309);
#309=COLOUR_RGB('',0.689999997615814,0.689999997615814,0.689999997615814);
#310=MANIFOLD_SOLID_BREP('174169 B-3/8-NPT',#301);
#311=SHAPE_DEFINITION_REPRESENTATION(#546,#312);
#312=SHAPE_REPRESENTATION('174169 B-3/8-NPT',(#313),#541);
#313=AXIS2_PLACEMENT_3D('',#430,#346,#347);
#314=AXIS2_PLACEMENT_3D('',#431,#348,#349);
#315=AXIS2_PLACEMENT_3D('',#472,#350,#351);
#316=AXIS2_PLACEMENT_3D('',#474,#352,#353);
#317=AXIS2_PLACEMENT_3D('',#475,#354,#355);
#318=AXIS2_PLACEMENT_3D('',#477,#356,#357);
#319=AXIS2_PLACEMENT_3D('',#478,#358,#359);
#320=AXIS2_PLACEMENT_3D('',#480,#360,#361);
#321=AXIS2_PLACEMENT_3D('',#481,#362,#363);
#322=AXIS2_PLACEMENT_3D('',#483,#364,#365);
#323=AXIS2_PLACEMENT_3D('',#484,#366,#367);
#324=AXIS2_PLACEMENT_3D('',#486,#368,#369);
#325=AXIS2_PLACEMENT_3D('',#487,#370,#371);
#326=AXIS2_PLACEMENT_3D('',#495,#376,#377);
#327=AXIS2_PLACEMENT_3D('',#501,#381,#382);
#328=AXIS2_PLACEMENT_3D('',#507,#386,#387);
#329=AXIS2_PLACEMENT_3D('',#513,#391,#392);
#330=AXIS2_PLACEMENT_3D('',#519,#396,#397);
#331=AXIS2_PLACEMENT_3D('',#523,#400,#401);
#332=AXIS2_PLACEMENT_3D('',#524,#402,#403);
#333=AXIS2_PLACEMENT_3D('',#525,#404,#405);
#334=AXIS2_PLACEMENT_3D('',#526,#406,#407);
#335=AXIS2_PLACEMENT_3D('',#527,#408,#409);
#336=AXIS2_PLACEMENT_3D('',#528,#410,#411);
#337=AXIS2_PLACEMENT_3D('',#529,#412,#413);
#338=AXIS2_PLACEMENT_3D('',#530,#414,#415);
#339=AXIS2_PLACEMENT_3D('',#531,#416,#417);
#340=AXIS2_PLACEMENT_3D('',#532,#418,#419);
#341=AXIS2_PLACEMENT_3D('',#533,#420,#421);
#342=AXIS2_PLACEMENT_3D('',#534,#422,#423);
#343=AXIS2_PLACEMENT_3D('',#535,#424,#425);
#344=AXIS2_PLACEMENT_3D('',#537,#426,#427);
#345=AXIS2_PLACEMENT_3D('',#539,#428,#429);
#346=DIRECTION('',(0.,0.,1.));
#347=DIRECTION('',(1.,0.,0.));
#348=DIRECTION('',(0.,1.,0.));
#349=DIRECTION('',(0.,0.,1.));
#350=DIRECTION('',(0.,-1.,0.));
#351=DIRECTION('',(0.,0.,-1.));
#352=DIRECTION('',(0.,-1.,0.));
#353=DIRECTION('',(0.,0.,-1.));
#354=DIRECTION('',(0.,-1.,0.));
#355=DIRECTION('',(0.,0.,-1.));
#356=DIRECTION('',(0.,-1.,0.));
#357=DIRECTION('',(0.,0.,-1.));
#358=DIRECTION('',(0.,-1.,0.));
#359=DIRECTION('',(0.,0.,-1.));
#360=DIRECTION('',(0.,1.,0.));
#361=DIRECTION('',(0.,0.,1.));
#362=DIRECTION('',(0.,-1.,0.));
#363=DIRECTION('',(0.,0.,-1.));
#364=DIRECTION('',(0.,1.,0.));
#365=DIRECTION('',(0.,0.,1.));
#366=DIRECTION('',(0.,-1.,0.));
#367=DIRECTION('',(0.,0.,-1.));
#368=DIRECTION('',(0.,1.,0.));
#369=DIRECTION('',(0.,0.,1.));
#370=DIRECTION('',(1.,0.,0.));
#371=DIRECTION('',(0.,0.,-1.));
#372=DIRECTION('',(0.,-1.,0.));
#373=DIRECTION('',(0.,0.,1.));
#374=DIRECTION('',(0.,0.,1.));
#375=DIRECTION('',(0.,-1.,0.));
#376=DIRECTION('',(0.5,0.,-0.866025403784439));
#377=DIRECTION('',(-0.866025403784439,0.,-0.5));
#378=DIRECTION('',(0.,-1.,0.));
#379=DIRECTION('',(0.866025403784439,0.,0.5));
#380=DIRECTION('',(0.866025403784439,0.,0.5));
#381=DIRECTION('',(-0.5,0.,-0.866025403784439));
#382=DIRECTION('',(-0.866025403784439,0.,0.5));
#383=DIRECTION('',(0.,-1.,0.));
#384=DIRECTION('',(0.866025403784439,0.,-0.5));
#385=DIRECTION('',(0.866025403784439,0.,-0.5));
#386=DIRECTION('',(-1.,0.,0.));
#387=DIRECTION('',(0.,0.,1.));
#388=DIRECTION('',(0.,-1.,0.));
#389=DIRECTION('',(0.,0.,-1.));
#390=DIRECTION('',(0.,0.,-1.));
#391=DIRECTION('',(-0.5,0.,0.866025403784439));
#392=DIRECTION('',(0.866025403784439,0.,0.5));
#393=DIRECTION('',(0.,-1.,0.));
#394=DIRECTION('',(-0.866025403784439,0.,-0.5));
#395=DIRECTION('',(-0.866025403784439,0.,-0.5));
#396=DIRECTION('',(0.5,0.,0.866025403784439));
#397=DIRECTION('',(0.866025403784439,0.,-0.5));
#398=DIRECTION('',(-0.866025403784439,0.,0.5));
#399=DIRECTION('',(-0.866025403784439,0.,0.5));
#400=DIRECTION('',(0.,1.,0.));
#401=DIRECTION('',(0.,0.,1.));
#402=DIRECTION('',(0.,1.,0.));
#403=DIRECTION('',(0.,0.,1.));
#404=DIRECTION('',(0.,1.,0.));
#405=DIRECTION('',(0.,0.,1.));
#406=DIRECTION('',(0.,1.,0.));
#407=DIRECTION('',(0.,0.,1.));
#408=DIRECTION('',(0.,1.,0.));
#409=DIRECTION('',(0.,0.,1.));
#410=DIRECTION('',(0.,1.,0.));
#411=DIRECTION('',(0.,0.,1.));
#412=DIRECTION('',(0.,1.,0.));
#413=DIRECTION('',(0.,0.,1.));
#414=DIRECTION('',(0.,1.,0.));
#415=DIRECTION('',(0.,0.,1.));
#416=DIRECTION('',(0.,1.,0.));
#417=DIRECTION('',(0.,0.,1.));
#418=DIRECTION('',(0.,1.,0.));
#419=DIRECTION('',(0.,0.,1.));
#420=DIRECTION('',(0.,1.,0.));
#421=DIRECTION('',(0.,0.,1.));
#422=DIRECTION('',(0.,1.,0.));
#423=DIRECTION('',(0.,0.,1.));
#424=DIRECTION('',(0.,1.,0.));
#425=DIRECTION('',(0.,0.,1.));
#426=DIRECTION('',(0.,-1.,0.));
#427=DIRECTION('',(0.,0.,-1.));
#428=DIRECTION('',(0.,-1.,0.));
#429=DIRECTION('',(0.,0.,-1.));
#430=CARTESIAN_POINT('',(0.,0.,0.));
#431=CARTESIAN_POINT('',(0.,10.,0.));
#432=CARTESIAN_POINT('',(3.969,9.62200643682725,-2.29150321841362));
#433=CARTESIAN_POINT('',(3.969,9.26714337069294,-1.58177708614501));
#434=CARTESIAN_POINT('',(3.969,8.74935809501574,-0.00451527229429472));
#435=CARTESIAN_POINT('',(3.969,9.26614427000179,1.57977888476293));
#436=CARTESIAN_POINT('',(3.969,9.62200643682717,2.29150321841367));
#437=CARTESIAN_POINT('',(3.969,9.62200643682725,-2.29150321841362));
#438=CARTESIAN_POINT('',(3.969,9.62200643682725,2.29150321841362));
#439=CARTESIAN_POINT('',(3.969,9.62200643682725,2.29150321841363));
#440=CARTESIAN_POINT('',(3.65889283687679,9.44296598272043,2.47054367252044));
#441=CARTESIAN_POINT('',(3.02920453583903,9.13815809070209,2.83409438263015));
#442=CARTESIAN_POINT('',(1.64295596245356,8.87915804619036,3.63444536963799));
#443=CARTESIAN_POINT('',(0.623867779598425,9.26181620633714,4.22281620633737));
#444=CARTESIAN_POINT('',(-6.17361313978647E-14,9.62200643682707,4.58300643682729));
#445=CARTESIAN_POINT('',(0.,9.62200643682725,4.58300643682725));
#446=CARTESIAN_POINT('',(-3.49861859917E-16,9.62200643682725,4.58300643682725));
#447=CARTESIAN_POINT('',(-0.310107163123213,9.44296598272043,4.40396598272043));
#448=CARTESIAN_POINT('',(-0.939795464160975,9.13815809070209,4.04041527261072));
#449=CARTESIAN_POINT('',(-2.32604403754644,8.87915804619035,3.24006428560289));
#450=CARTESIAN_POINT('',(-3.34513222040158,9.26181620633714,2.65169344890351));
#451=CARTESIAN_POINT('',(-3.96900000000006,9.62200643682707,2.29150321841359));
#452=CARTESIAN_POINT('',(-3.969,9.62200643682725,2.29150321841362));
#453=CARTESIAN_POINT('',(-3.969,9.62200643682725,2.29150321841362));
#454=CARTESIAN_POINT('',(-3.969,9.26714337069294,1.58177708614501));
#455=CARTESIAN_POINT('',(-3.969,8.74935809501574,0.00451527229429472));
#456=CARTESIAN_POINT('',(-3.969,9.26614427000179,-1.57977888476293));
#457=CARTESIAN_POINT('',(-3.969,9.62200643682717,-2.29150321841367));
#458=CARTESIAN_POINT('',(-3.969,9.62200643682725,-2.29150321841362));
#459=CARTESIAN_POINT('',(-3.969,9.62200643682725,-2.29150321841363));
#460=CARTESIAN_POINT('',(-3.65889283687679,9.44296598272043,-2.47054367252044));
#461=CARTESIAN_POINT('',(-3.02920453583903,9.13815809070209,-2.83409438263015));
#462=CARTESIAN_POINT('',(-1.64295596245356,8.87915804619036,-3.63444536963799));
#463=CARTESIAN_POINT('',(-0.623867779598425,9.26181620633714,-4.22281620633737));
#464=CARTESIAN_POINT('',(6.17361313978647E-14,9.62200643682707,-4.58300643682729));
#465=CARTESIAN_POINT('',(-3.77956363112785E-17,9.62200643682725,-4.58300643682725));
#466=CARTESIAN_POINT('',(3.32166315558928E-16,9.62200643682725,-4.58300643682725));
#467=CARTESIAN_POINT('',(0.310107163123213,9.44296598272043,-4.40396598272043));
#468=CARTESIAN_POINT('',(0.939795464160975,9.13815809070209,-4.04041527261072));
#469=CARTESIAN_POINT('',(2.32604403754644,8.87915804619035,-3.24006428560289));
#470=CARTESIAN_POINT('',(3.34513222040158,9.26181620633714,-2.65169344890351));
#471=CARTESIAN_POINT('',(3.96900000000006,9.62200643682707,-2.29150321841359));
#472=CARTESIAN_POINT('',(0.,10.,0.));
#473=CARTESIAN_POINT('',(0.,10.,-4.961));
#474=CARTESIAN_POINT('',(0.,10.,0.));
#475=CARTESIAN_POINT('',(0.,10.,0.));
#476=CARTESIAN_POINT('',(0.,10.,-7.60846081472321));
#477=CARTESIAN_POINT('',(0.,10.,0.));
#478=CARTESIAN_POINT('',(0.,9.22424569404445,0.));
#479=CARTESIAN_POINT('',(0.,9.22424569404445,-8.38421512067875));
#480=CARTESIAN_POINT('',(0.,9.22424569404445,0.));
#481=CARTESIAN_POINT('',(0.,0.82575261845555,0.));
#482=CARTESIAN_POINT('',(0.,0.82575261845555,-8.12201801436478));
#483=CARTESIAN_POINT('',(0.,0.82575261845555,0.));
#484=CARTESIAN_POINT('',(0.,-1.0842021724855E-16,0.));
#485=CARTESIAN_POINT('',(0.,-1.0842021724855E-16,-7.29626539590923));
#486=CARTESIAN_POINT('',(7.29626539590923,-5.42101086242752E-17,0.));
#487=CARTESIAN_POINT('',(-3.969,16.3,-2.29150321841362));
#488=CARTESIAN_POINT('',(-3.969,16.3,2.29150321841362));
#489=CARTESIAN_POINT('',(-3.969,3.7,2.29150321841362));
#490=CARTESIAN_POINT('',(-3.969,3.7,-2.29150321841362));
#491=CARTESIAN_POINT('',(-3.969,3.7,0.));
#492=CARTESIAN_POINT('',(-3.969,3.7,-2.29150321841362));
#493=CARTESIAN_POINT('',(-3.969,3.7,-2.29150321841362));
#494=CARTESIAN_POINT('',(-3.969,16.3,-2.29150321841362));
#495=CARTESIAN_POINT('',(-3.969,16.3,2.29150321841362));
#496=CARTESIAN_POINT('',(0.,16.3,4.58300643682725));
#497=CARTESIAN_POINT('',(0.,3.7,4.58300643682725));
#498=CARTESIAN_POINT('',(-3.969,3.7,2.29150321841362));
#499=CARTESIAN_POINT('',(-1.9845,3.7,3.43725482762044));
#500=CARTESIAN_POINT('',(-3.969,3.7,2.29150321841362));
#501=CARTESIAN_POINT('',(0.,16.3,4.58300643682725));
#502=CARTESIAN_POINT('',(3.969,16.3,2.29150321841362));
#503=CARTESIAN_POINT('',(3.969,3.7,2.29150321841362));
#504=CARTESIAN_POINT('',(0.,3.7,4.58300643682725));
#505=CARTESIAN_POINT('',(1.9845,3.7,3.43725482762044));
#506=CARTESIAN_POINT('',(0.,3.7,4.58300643682725));
#507=CARTESIAN_POINT('',(3.969,16.3,2.29150321841362));
#508=CARTESIAN_POINT('',(3.969,16.3,-2.29150321841362));
#509=CARTESIAN_POINT('',(3.969,3.7,-2.29150321841362));
#510=CARTESIAN_POINT('',(3.969,3.7,2.29150321841362));
#511=CARTESIAN_POINT('',(3.969,3.7,0.));
#512=CARTESIAN_POINT('',(3.969,3.7,2.29150321841362));
#513=CARTESIAN_POINT('',(3.969,16.3,-2.29150321841362));
#514=CARTESIAN_POINT('',(0.,16.3,-4.58300643682725));
#515=CARTESIAN_POINT('',(0.,3.7,-4.58300643682725));
#516=CARTESIAN_POINT('',(3.969,3.7,-2.29150321841362));
#517=CARTESIAN_POINT('',(1.9845,3.7,-3.43725482762044));
#518=CARTESIAN_POINT('',(3.969,3.7,-2.29150321841362));
#519=CARTESIAN_POINT('',(0.,16.3,-4.58300643682725));
#520=CARTESIAN_POINT('',(0.,3.7,-4.58300643682725));
#521=CARTESIAN_POINT('',(-1.9845,3.7,-3.43725482762044));
#522=CARTESIAN_POINT('',(0.,3.7,-4.58300643682725));
#523=CARTESIAN_POINT('',(0.,3.7,0.));
#524=CARTESIAN_POINT('',(0.,3.7,0.));
#525=CARTESIAN_POINT('',(0.,3.7,0.));
#526=CARTESIAN_POINT('',(0.,3.7,0.));
#527=CARTESIAN_POINT('',(0.,3.7,0.));
#528=CARTESIAN_POINT('',(0.,3.7,0.));
#529=CARTESIAN_POINT('',(0.,3.7,0.));
#530=CARTESIAN_POINT('',(0.,3.7,0.));
#531=CARTESIAN_POINT('',(0.,3.7,0.));
#532=CARTESIAN_POINT('',(0.,3.7,0.));
#533=CARTESIAN_POINT('',(0.,3.7,0.));
#534=CARTESIAN_POINT('',(0.,3.7,0.));
#535=CARTESIAN_POINT('',(0.,3.,0.));
#536=CARTESIAN_POINT('',(0.,0.708496781586374,0.));
#537=CARTESIAN_POINT('',(0.,3.,0.));
#538=CARTESIAN_POINT('',(0.,3.,-3.969));
#539=CARTESIAN_POINT('',(0.,0.708496781586374,0.));
#540=MECHANICAL_DESIGN_GEOMETRIC_PRESENTATION_REPRESENTATION('',(#302),
#541);
#541=(
GEOMETRIC_REPRESENTATION_CONTEXT(3)
GLOBAL_UNCERTAINTY_ASSIGNED_CONTEXT((#542))
GLOBAL_UNIT_ASSIGNED_CONTEXT((#545,#544,#543))
REPRESENTATION_CONTEXT('174169 B-3/8-NPT','TOP_LEVEL_ASSEMBLY_PART')
);
#542=UNCERTAINTY_MEASURE_WITH_UNIT(LENGTH_MEASURE(0.005),#545,
'DISTANCE_ACCURACY_VALUE','Maximum Tolerance applied to model');
#543=(
NAMED_UNIT(*)
SI_UNIT($,.STERADIAN.)
SOLID_ANGLE_UNIT()
);
#544=(
NAMED_UNIT(*)
PLANE_ANGLE_UNIT()
SI_UNIT($,.RADIAN.)
);
#545=(
LENGTH_UNIT()
NAMED_UNIT(*)
SI_UNIT(.MILLI.,.METRE.)
);
#546=PRODUCT_DEFINITION_SHAPE('','',#547);
#547=PRODUCT_DEFINITION('','',#549,#548);
#548=PRODUCT_DEFINITION_CONTEXT('',#555,'design');
#549=PRODUCT_DEFINITION_FORMATION_WITH_SPECIFIED_SOURCE('','',#551,
 .NOT_KNOWN.);
#550=PRODUCT_RELATED_PRODUCT_CATEGORY('','',(#551));
#551=PRODUCT('174169 B-3/8-NPT','174169 B-3/8-NPT','174169 B-3/8-NPT',(#553));
#552=PRODUCT_CATEGORY('','');
#553=PRODUCT_CONTEXT('',#555,'mechanical');
#554=APPLICATION_PROTOCOL_DEFINITION('international standard',
'automotive_design',2010,#555);
#555=APPLICATION_CONTEXT(
'core data for automotive mechanical design processes');
ENDSEC;
END-ISO-10303-21;
