ISO-10303-21;
HEADER;
/* Generated by software containing ST-Developer
 * from STEP Tools, Inc. (www.steptools.com) 
 */
/* OPTION: using custom renumber hook */

FILE_DESCRIPTION(
/* description */ ('STEP AP214'),
/* implementation_level */ '2;1');

FILE_NAME(
/* name */ '175726_CQO-22',
/* time_stamp */ '2024-08-07T22:07:43+02:00',
/* author */ ('License CC BY-ND 4.0'),
/* organization */ ('CADENAS'),
/* preprocessor_version */ 'ST-DEVELOPER v19.3',
/* originating_system */ 'PARTsolutions',
/* authorisation */ '  ');

FILE_SCHEMA (('AUTOMOTIVE_DESIGN {1 0 10303 214 3 1 1}'));
ENDSEC;

DATA;
#10=PROPERTY_DEFINITION_REPRESENTATION(#14,#12);
#11=PROPERTY_DEFINITION_REPRESENTATION(#15,#13);
#12=REPRESENTATION('',(#16),#255);
#13=REPRESENTATION('',(#17),#255);
#14=PROPERTY_DEFINITION('pmi validation property','',#260);
#15=PROPERTY_DEFINITION('pmi validation property','',#260);
#16=VALUE_REPRESENTATION_ITEM('number of annotations',COUNT_MEASURE(0.));
#17=VALUE_REPRESENTATION_ITEM('number of views',COUNT_MEASURE(0.));
#18=SHAPE_REPRESENTATION_RELATIONSHIP('','',#161,#19);
#19=ADVANCED_BREP_SHAPE_REPRESENTATION('',(#159),#255);
#20=CIRCLE('',#165,21.);
#21=CIRCLE('',#166,21.);
#22=CIRCLE('',#170,11.25);
#23=CIRCLE('',#171,11.25);
#24=CYLINDRICAL_SURFACE('',#164,21.);
#25=CYLINDRICAL_SURFACE('',#169,11.25);
#26=ORIENTED_EDGE('',*,*,#62,.T.);
#27=ORIENTED_EDGE('',*,*,#63,.F.);
#28=ORIENTED_EDGE('',*,*,#64,.F.);
#29=ORIENTED_EDGE('',*,*,#65,.T.);
#30=ORIENTED_EDGE('',*,*,#66,.T.);
#31=ORIENTED_EDGE('',*,*,#67,.F.);
#32=ORIENTED_EDGE('',*,*,#68,.F.);
#33=ORIENTED_EDGE('',*,*,#63,.T.);
#34=ORIENTED_EDGE('',*,*,#69,.T.);
#35=ORIENTED_EDGE('',*,*,#70,.F.);
#36=ORIENTED_EDGE('',*,*,#71,.F.);
#37=ORIENTED_EDGE('',*,*,#67,.T.);
#38=ORIENTED_EDGE('',*,*,#72,.T.);
#39=ORIENTED_EDGE('',*,*,#73,.F.);
#40=ORIENTED_EDGE('',*,*,#74,.F.);
#41=ORIENTED_EDGE('',*,*,#70,.T.);
#42=ORIENTED_EDGE('',*,*,#75,.F.);
#43=ORIENTED_EDGE('',*,*,#76,.F.);
#44=ORIENTED_EDGE('',*,*,#77,.T.);
#45=ORIENTED_EDGE('',*,*,#73,.T.);
#46=ORIENTED_EDGE('',*,*,#78,.T.);
#47=ORIENTED_EDGE('',*,*,#65,.F.);
#48=ORIENTED_EDGE('',*,*,#79,.F.);
#49=ORIENTED_EDGE('',*,*,#76,.T.);
#50=ORIENTED_EDGE('',*,*,#64,.T.);
#51=ORIENTED_EDGE('',*,*,#68,.T.);
#52=ORIENTED_EDGE('',*,*,#71,.T.);
#53=ORIENTED_EDGE('',*,*,#74,.T.);
#54=ORIENTED_EDGE('',*,*,#77,.F.);
#55=ORIENTED_EDGE('',*,*,#79,.T.);
#56=ORIENTED_EDGE('',*,*,#62,.F.);
#57=ORIENTED_EDGE('',*,*,#78,.F.);
#58=ORIENTED_EDGE('',*,*,#75,.T.);
#59=ORIENTED_EDGE('',*,*,#72,.F.);
#60=ORIENTED_EDGE('',*,*,#69,.F.);
#61=ORIENTED_EDGE('',*,*,#66,.F.);
#62=EDGE_CURVE('',#80,#81,#92,.T.);
#63=EDGE_CURVE('',#82,#81,#93,.T.);
#64=EDGE_CURVE('',#83,#82,#94,.T.);
#65=EDGE_CURVE('',#83,#80,#95,.T.);
#66=EDGE_CURVE('',#81,#84,#20,.T.);
#67=EDGE_CURVE('',#85,#84,#96,.T.);
#68=EDGE_CURVE('',#82,#85,#21,.T.);
#69=EDGE_CURVE('',#84,#86,#97,.T.);
#70=EDGE_CURVE('',#87,#86,#98,.T.);
#71=EDGE_CURVE('',#85,#87,#99,.T.);
#72=EDGE_CURVE('',#86,#88,#100,.T.);
#73=EDGE_CURVE('',#89,#88,#101,.T.);
#74=EDGE_CURVE('',#87,#89,#102,.T.);
#75=EDGE_CURVE('',#90,#88,#22,.T.);
#76=EDGE_CURVE('',#91,#90,#103,.T.);
#77=EDGE_CURVE('',#91,#89,#23,.T.);
#78=EDGE_CURVE('',#90,#80,#104,.T.);
#79=EDGE_CURVE('',#91,#83,#105,.T.);
#80=VERTEX_POINT('',#218);
#81=VERTEX_POINT('',#219);
#82=VERTEX_POINT('',#221);
#83=VERTEX_POINT('',#223);
#84=VERTEX_POINT('',#227);
#85=VERTEX_POINT('',#229);
#86=VERTEX_POINT('',#233);
#87=VERTEX_POINT('',#235);
#88=VERTEX_POINT('',#239);
#89=VERTEX_POINT('',#241);
#90=VERTEX_POINT('',#245);
#91=VERTEX_POINT('',#247);
#92=LINE('',#217,#106);
#93=LINE('',#220,#107);
#94=LINE('',#222,#108);
#95=LINE('',#224,#109);
#96=LINE('',#228,#110);
#97=LINE('',#232,#111);
#98=LINE('',#234,#112);
#99=LINE('',#236,#113);
#100=LINE('',#238,#114);
#101=LINE('',#240,#115);
#102=LINE('',#242,#116);
#103=LINE('',#246,#117);
#104=LINE('',#250,#118);
#105=LINE('',#251,#119);
#106=VECTOR('',#179,1000.);
#107=VECTOR('',#180,1000.);
#108=VECTOR('',#181,1000.);
#109=VECTOR('',#182,1000.);
#110=VECTOR('',#187,1000.);
#111=VECTOR('',#192,1000.);
#112=VECTOR('',#193,1000.);
#113=VECTOR('',#194,1000.);
#114=VECTOR('',#197,1000.);
#115=VECTOR('',#198,1000.);
#116=VECTOR('',#199,1000.);
#117=VECTOR('',#204,1000.);
#118=VECTOR('',#209,1000.);
#119=VECTOR('',#210,1000.);
#120=EDGE_LOOP('',(#26,#27,#28,#29));
#121=EDGE_LOOP('',(#30,#31,#32,#33));
#122=EDGE_LOOP('',(#34,#35,#36,#37));
#123=EDGE_LOOP('',(#38,#39,#40,#41));
#124=EDGE_LOOP('',(#42,#43,#44,#45));
#125=EDGE_LOOP('',(#46,#47,#48,#49));
#126=EDGE_LOOP('',(#50,#51,#52,#53,#54,#55));
#127=EDGE_LOOP('',(#56,#57,#58,#59,#60,#61));
#128=FACE_BOUND('',#120,.T.);
#129=FACE_BOUND('',#121,.T.);
#130=FACE_BOUND('',#122,.T.);
#131=FACE_BOUND('',#123,.T.);
#132=FACE_BOUND('',#124,.T.);
#133=FACE_BOUND('',#125,.T.);
#134=FACE_BOUND('',#126,.T.);
#135=FACE_BOUND('',#127,.T.);
#136=PLANE('',#163);
#137=PLANE('',#167);
#138=PLANE('',#168);
#139=PLANE('',#172);
#140=PLANE('',#173);
#141=PLANE('',#174);
#142=ADVANCED_FACE('',(#128),#136,.F.);
#143=ADVANCED_FACE('',(#129),#24,.T.);
#144=ADVANCED_FACE('',(#130),#137,.F.);
#145=ADVANCED_FACE('',(#131),#138,.F.);
#146=ADVANCED_FACE('',(#132),#25,.F.);
#147=ADVANCED_FACE('',(#133),#139,.F.);
#148=ADVANCED_FACE('',(#134),#140,.T.);
#149=ADVANCED_FACE('',(#135),#141,.F.);
#150=CLOSED_SHELL('',(#142,#143,#144,#145,#146,#147,#148,#149));
#151=STYLED_ITEM('',(#152),#159);
#152=PRESENTATION_STYLE_ASSIGNMENT((#153));
#153=SURFACE_STYLE_USAGE(.BOTH.,#154);
#154=SURFACE_SIDE_STYLE('',(#155));
#155=SURFACE_STYLE_FILL_AREA(#156);
#156=FILL_AREA_STYLE('',(#157));
#157=FILL_AREA_STYLE_COLOUR('',#158);
#158=COLOUR_RGB('',0.310000002384186,0.310000002384186,0.310000002384186);
#159=MANIFOLD_SOLID_BREP('175726 CQO-22',#150);
#160=SHAPE_DEFINITION_REPRESENTATION(#260,#161);
#161=SHAPE_REPRESENTATION('175726 CQO-22',(#162),#255);
#162=AXIS2_PLACEMENT_3D('',#215,#175,#176);
#163=AXIS2_PLACEMENT_3D('',#216,#177,#178);
#164=AXIS2_PLACEMENT_3D('',#225,#183,#184);
#165=AXIS2_PLACEMENT_3D('',#226,#185,#186);
#166=AXIS2_PLACEMENT_3D('',#230,#188,#189);
#167=AXIS2_PLACEMENT_3D('',#231,#190,#191);
#168=AXIS2_PLACEMENT_3D('',#237,#195,#196);
#169=AXIS2_PLACEMENT_3D('',#243,#200,#201);
#170=AXIS2_PLACEMENT_3D('',#244,#202,#203);
#171=AXIS2_PLACEMENT_3D('',#248,#205,#206);
#172=AXIS2_PLACEMENT_3D('',#249,#207,#208);
#173=AXIS2_PLACEMENT_3D('',#252,#211,#212);
#174=AXIS2_PLACEMENT_3D('',#253,#213,#214);
#175=DIRECTION('',(0.,0.,1.));
#176=DIRECTION('',(1.,0.,0.));
#177=DIRECTION('',(0.,-0.707106781186547,0.707106781186549));
#178=DIRECTION('',(0.,-0.707106781186549,-0.707106781186547));
#179=DIRECTION('',(0.,0.707106781186549,0.707106781186547));
#180=DIRECTION('',(-1.,0.,0.));
#181=DIRECTION('',(0.,0.707106781186549,0.707106781186547));
#182=DIRECTION('',(-1.,0.,0.));
#183=DIRECTION('',(-1.,0.,0.));
#184=DIRECTION('',(0.,0.,1.));
#185=DIRECTION('',(1.,0.,0.));
#186=DIRECTION('',(0.,0.,-1.));
#187=DIRECTION('',(-1.,0.,0.));
#188=DIRECTION('',(1.,0.,0.));
#189=DIRECTION('',(0.,0.,-1.));
#190=DIRECTION('',(0.,-0.707106781186548,-0.707106781186547));
#191=DIRECTION('',(0.,0.707106781186547,-0.707106781186548));
#192=DIRECTION('',(0.,-0.707106781186547,0.707106781186548));
#193=DIRECTION('',(-1.,0.,0.));
#194=DIRECTION('',(0.,-0.707106781186547,0.707106781186548));
#195=DIRECTION('',(0.,0.,-1.));
#196=DIRECTION('',(-1.,0.,0.));
#197=DIRECTION('',(0.,-1.,0.));
#198=DIRECTION('',(-1.,0.,0.));
#199=DIRECTION('',(0.,-1.,0.));
#200=DIRECTION('',(-1.,0.,0.));
#201=DIRECTION('',(0.,0.,1.));
#202=DIRECTION('',(1.,0.,0.));
#203=DIRECTION('',(0.,0.,-1.));
#204=DIRECTION('',(-1.,0.,0.));
#205=DIRECTION('',(1.,0.,0.));
#206=DIRECTION('',(0.,0.,-1.));
#207=DIRECTION('',(0.,0.,1.));
#208=DIRECTION('',(1.,0.,0.));
#209=DIRECTION('',(0.,1.,0.));
#210=DIRECTION('',(0.,1.,0.));
#211=DIRECTION('',(1.,0.,0.));
#212=DIRECTION('',(0.,0.,-1.));
#213=DIRECTION('',(1.,0.,0.));
#214=DIRECTION('',(0.,0.,-1.));
#215=CARTESIAN_POINT('',(0.,0.,0.));
#216=CARTESIAN_POINT('',(5.,12.7985294912646,10.4));
#217=CARTESIAN_POINT('',(0.,12.7985294912646,10.4));
#218=CARTESIAN_POINT('',(0.,12.7985294912646,10.4));
#219=CARTESIAN_POINT('',(0.,16.,13.6014705087354));
#220=CARTESIAN_POINT('',(5.,16.,13.6014705087354));
#221=CARTESIAN_POINT('',(5.,16.,13.6014705087354));
#222=CARTESIAN_POINT('',(5.,12.7985294912646,10.4));
#223=CARTESIAN_POINT('',(5.,12.7985294912646,10.4));
#224=CARTESIAN_POINT('',(5.,12.7985294912646,10.4));
#225=CARTESIAN_POINT('',(5.,-5.63785129692462E-15,5.20417042793042E-15));
#226=CARTESIAN_POINT('',(0.,-5.63785129692462E-15,5.20417042793042E-15));
#227=CARTESIAN_POINT('',(0.,16.,-13.6014705087354));
#228=CARTESIAN_POINT('',(5.,16.,-13.6014705087354));
#229=CARTESIAN_POINT('',(5.,16.,-13.6014705087354));
#230=CARTESIAN_POINT('',(5.,-5.63785129692462E-15,5.20417042793042E-15));
#231=CARTESIAN_POINT('',(5.,16.,-13.6014705087354));
#232=CARTESIAN_POINT('',(0.,16.,-13.6014705087354));
#233=CARTESIAN_POINT('',(0.,12.7985294912646,-10.4));
#234=CARTESIAN_POINT('',(5.,12.7985294912646,-10.4));
#235=CARTESIAN_POINT('',(5.,12.7985294912646,-10.4));
#236=CARTESIAN_POINT('',(5.,16.,-13.6014705087354));
#237=CARTESIAN_POINT('',(5.,12.7985294912646,-10.4));
#238=CARTESIAN_POINT('',(0.,12.7985294912646,-10.4));
#239=CARTESIAN_POINT('',(0.,4.28981351576033,-10.4));
#240=CARTESIAN_POINT('',(5.,4.28981351576033,-10.4));
#241=CARTESIAN_POINT('',(5.,4.28981351576033,-10.4));
#242=CARTESIAN_POINT('',(5.,12.7985294912646,-10.4));
#243=CARTESIAN_POINT('',(5.,3.03576608295941E-15,8.67361737988404E-16));
#244=CARTESIAN_POINT('',(0.,3.03576608295941E-15,8.67361737988404E-16));
#245=CARTESIAN_POINT('',(0.,4.28981351576033,10.4));
#246=CARTESIAN_POINT('',(5.,4.28981351576033,10.4));
#247=CARTESIAN_POINT('',(5.,4.28981351576033,10.4));
#248=CARTESIAN_POINT('',(5.,3.03576608295941E-15,8.67361737988404E-16));
#249=CARTESIAN_POINT('',(5.,4.28981351576033,10.4));
#250=CARTESIAN_POINT('',(0.,4.28981351576033,10.4));
#251=CARTESIAN_POINT('',(5.,4.28981351576033,10.4));
#252=CARTESIAN_POINT('',(5.,-5.63785129692462E-15,5.20417042793042E-15));
#253=CARTESIAN_POINT('',(0.,-5.63785129692462E-15,5.20417042793042E-15));
#254=MECHANICAL_DESIGN_GEOMETRIC_PRESENTATION_REPRESENTATION('',(#151),
#255);
#255=(
GEOMETRIC_REPRESENTATION_CONTEXT(3)
GLOBAL_UNCERTAINTY_ASSIGNED_CONTEXT((#256))
GLOBAL_UNIT_ASSIGNED_CONTEXT((#259,#258,#257))
REPRESENTATION_CONTEXT('175726 CQO-22','TOP_LEVEL_ASSEMBLY_PART')
);
#256=UNCERTAINTY_MEASURE_WITH_UNIT(LENGTH_MEASURE(0.005),#259,
'DISTANCE_ACCURACY_VALUE','Maximum Tolerance applied to model');
#257=(
NAMED_UNIT(*)
SI_UNIT($,.STERADIAN.)
SOLID_ANGLE_UNIT()
);
#258=(
NAMED_UNIT(*)
PLANE_ANGLE_UNIT()
SI_UNIT($,.RADIAN.)
);
#259=(
LENGTH_UNIT()
NAMED_UNIT(*)
SI_UNIT(.MILLI.,.METRE.)
);
#260=PRODUCT_DEFINITION_SHAPE('','',#261);
#261=PRODUCT_DEFINITION('','',#263,#262);
#262=PRODUCT_DEFINITION_CONTEXT('',#269,'design');
#263=PRODUCT_DEFINITION_FORMATION_WITH_SPECIFIED_SOURCE('','',#265,
 .NOT_KNOWN.);
#264=PRODUCT_RELATED_PRODUCT_CATEGORY('','',(#265));
#265=PRODUCT('175726 CQO-22','175726 CQO-22','175726 CQO-22',(#267));
#266=PRODUCT_CATEGORY('','');
#267=PRODUCT_CONTEXT('',#269,'mechanical');
#268=APPLICATION_PROTOCOL_DEFINITION('international standard',
'automotive_design',2010,#269);
#269=APPLICATION_CONTEXT(
'core data for automotive mechanical design processes');
ENDSEC;
END-ISO-10303-21;
