ISO-10303-21;
HEADER;
/* Generated by software containing ST-Developer
 * from STEP Tools, Inc. (www.steptools.com) 
 */
/* OPTION: using custom renumber hook */

FILE_DESCRIPTION(
/* description */ ('STEP AP214'),
/* implementation_level */ '2;1');

FILE_NAME(
/* name */ '176055_CPV10-BS-5_3G-M7',
/* time_stamp */ '2024-08-06T22:37:31+02:00',
/* author */ ('License CC BY-ND 4.0'),
/* organization */ ('CADENAS'),
/* preprocessor_version */ 'ST-DEVELOPER v19.3',
/* originating_system */ 'PARTsolutions',
/* authorisation */ '  ');

FILE_SCHEMA (('AUTOMOTIVE_DESIGN {1 0 10303 214 3 1 1}'));
ENDSEC;

DATA;
#10=PROPERTY_DEFINITION_REPRESENTATION(#14,#12);
#11=PROPERTY_DEFINITION_REPRESENTATION(#15,#13);
#12=REPRESENTATION('',(#16),#509);
#13=REPRESENTATION('',(#17),#509);
#14=PROPERTY_DEFINITION('pmi validation property','',#514);
#15=PROPERTY_DEFINITION('pmi validation property','',#514);
#16=VALUE_REPRESENTATION_ITEM('number of annotations',COUNT_MEASURE(0.));
#17=VALUE_REPRESENTATION_ITEM('number of views',COUNT_MEASURE(0.));
#18=SHAPE_REPRESENTATION_RELATIONSHIP('','',#295,#19);
#19=ADVANCED_BREP_SHAPE_REPRESENTATION('',(#293),#509);
#20=CONICAL_SURFACE('',#313,3.5,0.785398163397448);
#21=CONICAL_SURFACE('',#317,2.9585,0.785398163397448);
#22=CONICAL_SURFACE('',#320,3.5,0.78539816339745);
#23=CONICAL_SURFACE('',#324,2.9585,0.78539816339745);
#24=CONICAL_SURFACE('',#327,0.973999999999999,0.785398163397455);
#25=CONICAL_SURFACE('',#331,1.25,0.785398163397448);
#26=CONICAL_SURFACE('',#334,0.973999999999999,0.785398163397455);
#27=CONICAL_SURFACE('',#338,1.25,0.785398163397448);
#28=CIRCLE('',#299,12.75125);
#29=CIRCLE('',#300,12.75125);
#30=CIRCLE('',#303,12.75125);
#31=CIRCLE('',#304,12.75125);
#32=CIRCLE('',#306,0.973999999999999);
#33=CIRCLE('',#307,0.973999999999999);
#34=CIRCLE('',#309,3.5);
#35=CIRCLE('',#310,3.5);
#36=CIRCLE('',#312,3.5);
#37=CIRCLE('',#314,2.9585);
#38=CIRCLE('',#316,2.9585);
#39=CIRCLE('',#319,3.5);
#40=CIRCLE('',#321,2.9585);
#41=CIRCLE('',#323,2.9585);
#42=CIRCLE('',#326,0.973999999999999);
#43=CIRCLE('',#328,1.25);
#44=CIRCLE('',#330,1.25);
#45=CIRCLE('',#333,0.973999999999999);
#46=CIRCLE('',#335,1.25);
#47=CIRCLE('',#337,1.25);
#48=CYLINDRICAL_SURFACE('',#298,12.75125);
#49=CYLINDRICAL_SURFACE('',#302,12.75125);
#50=CYLINDRICAL_SURFACE('',#315,2.9585);
#51=CYLINDRICAL_SURFACE('',#322,2.9585);
#52=CYLINDRICAL_SURFACE('',#329,1.25);
#53=CYLINDRICAL_SURFACE('',#336,1.25);
#54=ORIENTED_EDGE('',*,*,#110,.T.);
#55=ORIENTED_EDGE('',*,*,#111,.F.);
#56=ORIENTED_EDGE('',*,*,#112,.F.);
#57=ORIENTED_EDGE('',*,*,#113,.T.);
#58=ORIENTED_EDGE('',*,*,#114,.T.);
#59=ORIENTED_EDGE('',*,*,#115,.F.);
#60=ORIENTED_EDGE('',*,*,#116,.F.);
#61=ORIENTED_EDGE('',*,*,#111,.T.);
#62=ORIENTED_EDGE('',*,*,#117,.T.);
#63=ORIENTED_EDGE('',*,*,#118,.F.);
#64=ORIENTED_EDGE('',*,*,#119,.F.);
#65=ORIENTED_EDGE('',*,*,#115,.T.);
#66=ORIENTED_EDGE('',*,*,#120,.T.);
#67=ORIENTED_EDGE('',*,*,#113,.F.);
#68=ORIENTED_EDGE('',*,*,#121,.F.);
#69=ORIENTED_EDGE('',*,*,#118,.T.);
#70=ORIENTED_EDGE('',*,*,#122,.T.);
#71=ORIENTED_EDGE('',*,*,#123,.T.);
#72=ORIENTED_EDGE('',*,*,#112,.T.);
#73=ORIENTED_EDGE('',*,*,#116,.T.);
#74=ORIENTED_EDGE('',*,*,#119,.T.);
#75=ORIENTED_EDGE('',*,*,#121,.T.);
#76=ORIENTED_EDGE('',*,*,#124,.F.);
#77=ORIENTED_EDGE('',*,*,#125,.F.);
#78=ORIENTED_EDGE('',*,*,#110,.F.);
#79=ORIENTED_EDGE('',*,*,#120,.F.);
#80=ORIENTED_EDGE('',*,*,#117,.F.);
#81=ORIENTED_EDGE('',*,*,#114,.F.);
#82=ORIENTED_EDGE('',*,*,#126,.T.);
#83=ORIENTED_EDGE('',*,*,#127,.T.);
#84=ORIENTED_EDGE('',*,*,#126,.F.);
#85=ORIENTED_EDGE('',*,*,#128,.T.);
#86=ORIENTED_EDGE('',*,*,#127,.F.);
#87=ORIENTED_EDGE('',*,*,#125,.T.);
#88=ORIENTED_EDGE('',*,*,#128,.F.);
#89=ORIENTED_EDGE('',*,*,#129,.T.);
#90=ORIENTED_EDGE('',*,*,#130,.T.);
#91=ORIENTED_EDGE('',*,*,#129,.F.);
#92=ORIENTED_EDGE('',*,*,#131,.T.);
#93=ORIENTED_EDGE('',*,*,#130,.F.);
#94=ORIENTED_EDGE('',*,*,#124,.T.);
#95=ORIENTED_EDGE('',*,*,#131,.F.);
#96=ORIENTED_EDGE('',*,*,#132,.F.);
#97=ORIENTED_EDGE('',*,*,#133,.F.);
#98=ORIENTED_EDGE('',*,*,#132,.T.);
#99=ORIENTED_EDGE('',*,*,#134,.F.);
#100=ORIENTED_EDGE('',*,*,#133,.T.);
#101=ORIENTED_EDGE('',*,*,#123,.F.);
#102=ORIENTED_EDGE('',*,*,#134,.T.);
#103=ORIENTED_EDGE('',*,*,#135,.F.);
#104=ORIENTED_EDGE('',*,*,#136,.F.);
#105=ORIENTED_EDGE('',*,*,#135,.T.);
#106=ORIENTED_EDGE('',*,*,#137,.F.);
#107=ORIENTED_EDGE('',*,*,#136,.T.);
#108=ORIENTED_EDGE('',*,*,#122,.F.);
#109=ORIENTED_EDGE('',*,*,#137,.T.);
#110=EDGE_CURVE('',#138,#139,#162,.T.);
#111=EDGE_CURVE('',#140,#139,#163,.T.);
#112=EDGE_CURVE('',#141,#140,#164,.T.);
#113=EDGE_CURVE('',#141,#138,#165,.T.);
#114=EDGE_CURVE('',#139,#142,#28,.T.);
#115=EDGE_CURVE('',#143,#142,#166,.T.);
#116=EDGE_CURVE('',#140,#143,#29,.T.);
#117=EDGE_CURVE('',#142,#144,#167,.T.);
#118=EDGE_CURVE('',#145,#144,#168,.T.);
#119=EDGE_CURVE('',#143,#145,#169,.T.);
#120=EDGE_CURVE('',#144,#138,#30,.T.);
#121=EDGE_CURVE('',#145,#141,#31,.T.);
#122=EDGE_CURVE('',#146,#146,#32,.T.);
#123=EDGE_CURVE('',#147,#147,#33,.T.);
#124=EDGE_CURVE('',#148,#148,#34,.T.);
#125=EDGE_CURVE('',#149,#149,#35,.T.);
#126=EDGE_CURVE('',#150,#150,#36,.T.);
#127=EDGE_CURVE('',#151,#151,#37,.T.);
#128=EDGE_CURVE('',#152,#152,#38,.T.);
#129=EDGE_CURVE('',#153,#153,#39,.T.);
#130=EDGE_CURVE('',#154,#154,#40,.T.);
#131=EDGE_CURVE('',#155,#155,#41,.T.);
#132=EDGE_CURVE('',#156,#156,#42,.T.);
#133=EDGE_CURVE('',#157,#157,#43,.T.);
#134=EDGE_CURVE('',#158,#158,#44,.T.);
#135=EDGE_CURVE('',#159,#159,#45,.T.);
#136=EDGE_CURVE('',#160,#160,#46,.T.);
#137=EDGE_CURVE('',#161,#161,#47,.T.);
#138=VERTEX_POINT('',#436);
#139=VERTEX_POINT('',#437);
#140=VERTEX_POINT('',#439);
#141=VERTEX_POINT('',#441);
#142=VERTEX_POINT('',#445);
#143=VERTEX_POINT('',#447);
#144=VERTEX_POINT('',#451);
#145=VERTEX_POINT('',#453);
#146=VERTEX_POINT('',#460);
#147=VERTEX_POINT('',#462);
#148=VERTEX_POINT('',#465);
#149=VERTEX_POINT('',#467);
#150=VERTEX_POINT('',#470);
#151=VERTEX_POINT('',#473);
#152=VERTEX_POINT('',#476);
#153=VERTEX_POINT('',#480);
#154=VERTEX_POINT('',#483);
#155=VERTEX_POINT('',#486);
#156=VERTEX_POINT('',#490);
#157=VERTEX_POINT('',#493);
#158=VERTEX_POINT('',#496);
#159=VERTEX_POINT('',#500);
#160=VERTEX_POINT('',#503);
#161=VERTEX_POINT('',#506);
#162=LINE('',#435,#170);
#163=LINE('',#438,#171);
#164=LINE('',#440,#172);
#165=LINE('',#442,#173);
#166=LINE('',#446,#174);
#167=LINE('',#450,#175);
#168=LINE('',#452,#176);
#169=LINE('',#454,#177);
#170=VECTOR('',#343,1000.);
#171=VECTOR('',#344,1000.);
#172=VECTOR('',#345,1000.);
#173=VECTOR('',#346,1000.);
#174=VECTOR('',#351,1000.);
#175=VECTOR('',#356,1000.);
#176=VECTOR('',#357,1000.);
#177=VECTOR('',#358,1000.);
#178=EDGE_LOOP('',(#54,#55,#56,#57));
#179=EDGE_LOOP('',(#58,#59,#60,#61));
#180=EDGE_LOOP('',(#62,#63,#64,#65));
#181=EDGE_LOOP('',(#66,#67,#68,#69));
#182=EDGE_LOOP('',(#70));
#183=EDGE_LOOP('',(#71));
#184=EDGE_LOOP('',(#72,#73,#74,#75));
#185=EDGE_LOOP('',(#76));
#186=EDGE_LOOP('',(#77));
#187=EDGE_LOOP('',(#78,#79,#80,#81));
#188=EDGE_LOOP('',(#82));
#189=EDGE_LOOP('',(#83));
#190=EDGE_LOOP('',(#84));
#191=EDGE_LOOP('',(#85));
#192=EDGE_LOOP('',(#86));
#193=EDGE_LOOP('',(#87));
#194=EDGE_LOOP('',(#88));
#195=EDGE_LOOP('',(#89));
#196=EDGE_LOOP('',(#90));
#197=EDGE_LOOP('',(#91));
#198=EDGE_LOOP('',(#92));
#199=EDGE_LOOP('',(#93));
#200=EDGE_LOOP('',(#94));
#201=EDGE_LOOP('',(#95));
#202=EDGE_LOOP('',(#96));
#203=EDGE_LOOP('',(#97));
#204=EDGE_LOOP('',(#98));
#205=EDGE_LOOP('',(#99));
#206=EDGE_LOOP('',(#100));
#207=EDGE_LOOP('',(#101));
#208=EDGE_LOOP('',(#102));
#209=EDGE_LOOP('',(#103));
#210=EDGE_LOOP('',(#104));
#211=EDGE_LOOP('',(#105));
#212=EDGE_LOOP('',(#106));
#213=EDGE_LOOP('',(#107));
#214=EDGE_LOOP('',(#108));
#215=EDGE_LOOP('',(#109));
#216=FACE_BOUND('',#178,.T.);
#217=FACE_BOUND('',#179,.T.);
#218=FACE_BOUND('',#180,.T.);
#219=FACE_BOUND('',#181,.T.);
#220=FACE_BOUND('',#182,.T.);
#221=FACE_BOUND('',#183,.T.);
#222=FACE_BOUND('',#184,.T.);
#223=FACE_BOUND('',#185,.T.);
#224=FACE_BOUND('',#186,.T.);
#225=FACE_BOUND('',#187,.T.);
#226=FACE_BOUND('',#188,.T.);
#227=FACE_BOUND('',#189,.T.);
#228=FACE_BOUND('',#190,.T.);
#229=FACE_BOUND('',#191,.T.);
#230=FACE_BOUND('',#192,.T.);
#231=FACE_BOUND('',#193,.T.);
#232=FACE_BOUND('',#194,.T.);
#233=FACE_BOUND('',#195,.T.);
#234=FACE_BOUND('',#196,.T.);
#235=FACE_BOUND('',#197,.T.);
#236=FACE_BOUND('',#198,.T.);
#237=FACE_BOUND('',#199,.T.);
#238=FACE_BOUND('',#200,.T.);
#239=FACE_BOUND('',#201,.T.);
#240=FACE_BOUND('',#202,.T.);
#241=FACE_BOUND('',#203,.T.);
#242=FACE_BOUND('',#204,.T.);
#243=FACE_BOUND('',#205,.T.);
#244=FACE_BOUND('',#206,.T.);
#245=FACE_BOUND('',#207,.T.);
#246=FACE_BOUND('',#208,.T.);
#247=FACE_BOUND('',#209,.T.);
#248=FACE_BOUND('',#210,.T.);
#249=FACE_BOUND('',#211,.T.);
#250=FACE_BOUND('',#212,.T.);
#251=FACE_BOUND('',#213,.T.);
#252=FACE_BOUND('',#214,.T.);
#253=FACE_BOUND('',#215,.T.);
#254=PLANE('',#297);
#255=PLANE('',#301);
#256=PLANE('',#305);
#257=PLANE('',#308);
#258=PLANE('',#311);
#259=PLANE('',#318);
#260=PLANE('',#325);
#261=PLANE('',#332);
#262=ADVANCED_FACE('',(#216),#254,.F.);
#263=ADVANCED_FACE('',(#217),#48,.T.);
#264=ADVANCED_FACE('',(#218),#255,.F.);
#265=ADVANCED_FACE('',(#219),#49,.T.);
#266=ADVANCED_FACE('',(#220,#221,#222),#256,.T.);
#267=ADVANCED_FACE('',(#223,#224,#225),#257,.F.);
#268=ADVANCED_FACE('',(#226),#258,.T.);
#269=ADVANCED_FACE('',(#227,#228),#20,.F.);
#270=ADVANCED_FACE('',(#229,#230),#50,.F.);
#271=ADVANCED_FACE('',(#231,#232),#21,.F.);
#272=ADVANCED_FACE('',(#233),#259,.T.);
#273=ADVANCED_FACE('',(#234,#235),#22,.F.);
#274=ADVANCED_FACE('',(#236,#237),#51,.F.);
#275=ADVANCED_FACE('',(#238,#239),#23,.F.);
#276=ADVANCED_FACE('',(#240),#260,.F.);
#277=ADVANCED_FACE('',(#241,#242),#24,.T.);
#278=ADVANCED_FACE('',(#243,#244),#52,.T.);
#279=ADVANCED_FACE('',(#245,#246),#25,.T.);
#280=ADVANCED_FACE('',(#247),#261,.F.);
#281=ADVANCED_FACE('',(#248,#249),#26,.T.);
#282=ADVANCED_FACE('',(#250,#251),#53,.T.);
#283=ADVANCED_FACE('',(#252,#253),#27,.T.);
#284=CLOSED_SHELL('',(#262,#263,#264,#265,#266,#267,#268,#269,#270,#271,
#272,#273,#274,#275,#276,#277,#278,#279,#280,#281,#282,#283));
#285=STYLED_ITEM('',(#286),#293);
#286=PRESENTATION_STYLE_ASSIGNMENT((#287));
#287=SURFACE_STYLE_USAGE(.BOTH.,#288);
#288=SURFACE_SIDE_STYLE('',(#289));
#289=SURFACE_STYLE_FILL_AREA(#290);
#290=FILL_AREA_STYLE('',(#291));
#291=FILL_AREA_STYLE_COLOUR('',#292);
#292=COLOUR_RGB('',0.689999997615814,0.689999997615814,0.689999997615814);
#293=MANIFOLD_SOLID_BREP('176055 CPV10-BS-5/3G-M7---(10VENTFB_0)',#284);
#294=SHAPE_DEFINITION_REPRESENTATION(#514,#295);
#295=SHAPE_REPRESENTATION('176055 CPV10-BS-5/3G-M7---(10VENTFB_0)',(#296),
#509);
#296=AXIS2_PLACEMENT_3D('',#433,#339,#340);
#297=AXIS2_PLACEMENT_3D('',#434,#341,#342);
#298=AXIS2_PLACEMENT_3D('',#443,#347,#348);
#299=AXIS2_PLACEMENT_3D('',#444,#349,#350);
#300=AXIS2_PLACEMENT_3D('',#448,#352,#353);
#301=AXIS2_PLACEMENT_3D('',#449,#354,#355);
#302=AXIS2_PLACEMENT_3D('',#455,#359,#360);
#303=AXIS2_PLACEMENT_3D('',#456,#361,#362);
#304=AXIS2_PLACEMENT_3D('',#457,#363,#364);
#305=AXIS2_PLACEMENT_3D('',#458,#365,#366);
#306=AXIS2_PLACEMENT_3D('',#459,#367,#368);
#307=AXIS2_PLACEMENT_3D('',#461,#369,#370);
#308=AXIS2_PLACEMENT_3D('',#463,#371,#372);
#309=AXIS2_PLACEMENT_3D('',#464,#373,#374);
#310=AXIS2_PLACEMENT_3D('',#466,#375,#376);
#311=AXIS2_PLACEMENT_3D('',#468,#377,#378);
#312=AXIS2_PLACEMENT_3D('',#469,#379,#380);
#313=AXIS2_PLACEMENT_3D('',#471,#381,#382);
#314=AXIS2_PLACEMENT_3D('',#472,#383,#384);
#315=AXIS2_PLACEMENT_3D('',#474,#385,#386);
#316=AXIS2_PLACEMENT_3D('',#475,#387,#388);
#317=AXIS2_PLACEMENT_3D('',#477,#389,#390);
#318=AXIS2_PLACEMENT_3D('',#478,#391,#392);
#319=AXIS2_PLACEMENT_3D('',#479,#393,#394);
#320=AXIS2_PLACEMENT_3D('',#481,#395,#396);
#321=AXIS2_PLACEMENT_3D('',#482,#397,#398);
#322=AXIS2_PLACEMENT_3D('',#484,#399,#400);
#323=AXIS2_PLACEMENT_3D('',#485,#401,#402);
#324=AXIS2_PLACEMENT_3D('',#487,#403,#404);
#325=AXIS2_PLACEMENT_3D('',#488,#405,#406);
#326=AXIS2_PLACEMENT_3D('',#489,#407,#408);
#327=AXIS2_PLACEMENT_3D('',#491,#409,#410);
#328=AXIS2_PLACEMENT_3D('',#492,#411,#412);
#329=AXIS2_PLACEMENT_3D('',#494,#413,#414);
#330=AXIS2_PLACEMENT_3D('',#495,#415,#416);
#331=AXIS2_PLACEMENT_3D('',#497,#417,#418);
#332=AXIS2_PLACEMENT_3D('',#498,#419,#420);
#333=AXIS2_PLACEMENT_3D('',#499,#421,#422);
#334=AXIS2_PLACEMENT_3D('',#501,#423,#424);
#335=AXIS2_PLACEMENT_3D('',#502,#425,#426);
#336=AXIS2_PLACEMENT_3D('',#504,#427,#428);
#337=AXIS2_PLACEMENT_3D('',#505,#429,#430);
#338=AXIS2_PLACEMENT_3D('',#507,#431,#432);
#339=DIRECTION('',(0.,0.,1.));
#340=DIRECTION('',(1.,0.,0.));
#341=DIRECTION('',(1.,0.,0.));
#342=DIRECTION('',(0.,0.,-1.));
#343=DIRECTION('',(0.,0.,1.));
#344=DIRECTION('',(0.,-1.,0.));
#345=DIRECTION('',(0.,0.,1.));
#346=DIRECTION('',(0.,-1.,0.));
#347=DIRECTION('',(0.,-1.,0.));
#348=DIRECTION('',(0.,0.,-1.));
#349=DIRECTION('',(0.,1.,0.));
#350=DIRECTION('',(1.,0.,0.));
#351=DIRECTION('',(0.,-1.,0.));
#352=DIRECTION('',(0.,1.,0.));
#353=DIRECTION('',(1.,0.,0.));
#354=DIRECTION('',(-1.,0.,0.));
#355=DIRECTION('',(0.,0.,1.));
#356=DIRECTION('',(0.,0.,-1.));
#357=DIRECTION('',(0.,-1.,0.));
#358=DIRECTION('',(0.,0.,-1.));
#359=DIRECTION('',(0.,-1.,0.));
#360=DIRECTION('',(0.,0.,-1.));
#361=DIRECTION('',(0.,1.,0.));
#362=DIRECTION('',(1.,0.,0.));
#363=DIRECTION('',(0.,1.,0.));
#364=DIRECTION('',(1.,0.,0.));
#365=DIRECTION('',(0.,1.,0.));
#366=DIRECTION('',(0.,0.,1.));
#367=DIRECTION('',(0.,-1.,0.));
#368=DIRECTION('',(0.,0.,-1.));
#369=DIRECTION('',(0.,-1.,0.));
#370=DIRECTION('',(0.,0.,-1.));
#371=DIRECTION('',(0.,1.,0.));
#372=DIRECTION('',(0.,0.,1.));
#373=DIRECTION('',(0.,-1.,0.));
#374=DIRECTION('',(0.,0.,-1.));
#375=DIRECTION('',(0.,-1.,0.));
#376=DIRECTION('',(0.,0.,-1.));
#377=DIRECTION('',(0.,-1.,0.));
#378=DIRECTION('',(0.,0.,-1.));
#379=DIRECTION('',(0.,-1.,0.));
#380=DIRECTION('',(0.,0.,-1.));
#381=DIRECTION('',(0.,1.,0.));
#382=DIRECTION('',(0.,0.,1.));
#383=DIRECTION('',(0.,-1.,0.));
#384=DIRECTION('',(0.,0.,-1.));
#385=DIRECTION('',(0.,-1.,0.));
#386=DIRECTION('',(0.,0.,-1.));
#387=DIRECTION('',(0.,-1.,0.));
#388=DIRECTION('',(0.,0.,-1.));
#389=DIRECTION('',(0.,-1.,0.));
#390=DIRECTION('',(0.,0.,-1.));
#391=DIRECTION('',(0.,-1.,0.));
#392=DIRECTION('',(0.,0.,-1.));
#393=DIRECTION('',(0.,-1.,0.));
#394=DIRECTION('',(0.,0.,-1.));
#395=DIRECTION('',(0.,1.,0.));
#396=DIRECTION('',(0.,0.,1.));
#397=DIRECTION('',(0.,-1.,0.));
#398=DIRECTION('',(0.,0.,-1.));
#399=DIRECTION('',(0.,-1.,0.));
#400=DIRECTION('',(0.,0.,-1.));
#401=DIRECTION('',(0.,-1.,0.));
#402=DIRECTION('',(0.,0.,-1.));
#403=DIRECTION('',(0.,-1.,0.));
#404=DIRECTION('',(0.,0.,-1.));
#405=DIRECTION('',(0.,-1.,0.));
#406=DIRECTION('',(0.,0.,-1.));
#407=DIRECTION('',(0.,-1.,0.));
#408=DIRECTION('',(0.,0.,-1.));
#409=DIRECTION('',(0.,-1.,0.));
#410=DIRECTION('',(0.,0.,-1.));
#411=DIRECTION('',(0.,-1.,0.));
#412=DIRECTION('',(0.,0.,-1.));
#413=DIRECTION('',(0.,-1.,0.));
#414=DIRECTION('',(0.,0.,-1.));
#415=DIRECTION('',(0.,-1.,0.));
#416=DIRECTION('',(0.,0.,-1.));
#417=DIRECTION('',(0.,1.,0.));
#418=DIRECTION('',(0.,0.,1.));
#419=DIRECTION('',(0.,-1.,0.));
#420=DIRECTION('',(0.,0.,-1.));
#421=DIRECTION('',(0.,-1.,0.));
#422=DIRECTION('',(0.,0.,-1.));
#423=DIRECTION('',(0.,-1.,0.));
#424=DIRECTION('',(0.,0.,-1.));
#425=DIRECTION('',(0.,-1.,0.));
#426=DIRECTION('',(0.,0.,-1.));
#427=DIRECTION('',(0.,-1.,0.));
#428=DIRECTION('',(0.,0.,-1.));
#429=DIRECTION('',(0.,-1.,0.));
#430=DIRECTION('',(0.,0.,-1.));
#431=DIRECTION('',(0.,1.,0.));
#432=DIRECTION('',(0.,0.,1.));
#433=CARTESIAN_POINT('',(0.,0.,0.));
#434=CARTESIAN_POINT('',(-4.95,22.,-26.9));
#435=CARTESIAN_POINT('',(-4.95,0.,-26.9));
#436=CARTESIAN_POINT('',(-4.95,0.,-26.9));
#437=CARTESIAN_POINT('',(-4.95,0.,26.9));
#438=CARTESIAN_POINT('',(-4.95,22.,26.9));
#439=CARTESIAN_POINT('',(-4.95,22.,26.9));
#440=CARTESIAN_POINT('',(-4.95,22.,-26.9));
#441=CARTESIAN_POINT('',(-4.95,22.,-26.9));
#442=CARTESIAN_POINT('',(-4.95,22.,-26.9));
#443=CARTESIAN_POINT('',(8.23993651088983E-15,22.,15.14875));
#444=CARTESIAN_POINT('',(8.23993651088983E-15,0.,15.14875));
#445=CARTESIAN_POINT('',(4.95,0.,26.9));
#446=CARTESIAN_POINT('',(4.95,22.,26.9));
#447=CARTESIAN_POINT('',(4.95,22.,26.9));
#448=CARTESIAN_POINT('',(8.23993651088983E-15,22.,15.14875));
#449=CARTESIAN_POINT('',(4.95,22.,26.9));
#450=CARTESIAN_POINT('',(4.95,0.,26.9));
#451=CARTESIAN_POINT('',(4.95,0.,-26.9));
#452=CARTESIAN_POINT('',(4.95,22.,-26.9));
#453=CARTESIAN_POINT('',(4.95,22.,-26.9));
#454=CARTESIAN_POINT('',(4.95,22.,26.9));
#455=CARTESIAN_POINT('',(-8.67361737988404E-16,22.,-15.14875));
#456=CARTESIAN_POINT('',(-8.67361737988404E-16,0.,-15.14875));
#457=CARTESIAN_POINT('',(-8.67361737988404E-16,22.,-15.14875));
#458=CARTESIAN_POINT('',(8.23993651088983E-15,22.,15.14875));
#459=CARTESIAN_POINT('',(0.,22.,23.55));
#460=CARTESIAN_POINT('',(0.,22.,22.576));
#461=CARTESIAN_POINT('',(0.,22.,-23.55));
#462=CARTESIAN_POINT('',(0.,22.,-24.524));
#463=CARTESIAN_POINT('',(8.23993651088983E-15,0.,15.14875));
#464=CARTESIAN_POINT('',(0.,0.,11.5));
#465=CARTESIAN_POINT('',(0.,0.,8.));
#466=CARTESIAN_POINT('',(0.,1.0842021724855E-16,-11.5));
#467=CARTESIAN_POINT('',(0.,1.0842021724855E-16,-15.));
#468=CARTESIAN_POINT('',(0.,11.,-11.5));
#469=CARTESIAN_POINT('',(0.,11.,-11.5));
#470=CARTESIAN_POINT('',(0.,11.,-15.));
#471=CARTESIAN_POINT('',(0.,11.,-11.5));
#472=CARTESIAN_POINT('',(0.,10.4585,-11.5));
#473=CARTESIAN_POINT('',(0.,10.4585,-14.4585));
#474=CARTESIAN_POINT('',(0.,0.,-11.5));
#475=CARTESIAN_POINT('',(0.,0.541499999999999,-11.5));
#476=CARTESIAN_POINT('',(0.,0.541499999999999,-14.4585));
#477=CARTESIAN_POINT('',(0.,0.541499999999999,-11.5));
#478=CARTESIAN_POINT('',(0.,11.,11.5));
#479=CARTESIAN_POINT('',(0.,11.,11.5));
#480=CARTESIAN_POINT('',(0.,11.,8.));
#481=CARTESIAN_POINT('',(0.,11.,11.5));
#482=CARTESIAN_POINT('',(0.,10.4585,11.5));
#483=CARTESIAN_POINT('',(0.,10.4585,8.5415));
#484=CARTESIAN_POINT('',(0.,0.,11.5));
#485=CARTESIAN_POINT('',(0.,0.541499999999999,11.5));
#486=CARTESIAN_POINT('',(0.,0.541499999999999,8.5415));
#487=CARTESIAN_POINT('',(0.,0.541499999999999,11.5));
#488=CARTESIAN_POINT('',(0.,27.,-23.55));
#489=CARTESIAN_POINT('',(0.,27.,-23.55));
#490=CARTESIAN_POINT('',(0.,27.,-24.524));
#491=CARTESIAN_POINT('',(0.,27.,-23.55));
#492=CARTESIAN_POINT('',(0.,26.724,-23.55));
#493=CARTESIAN_POINT('',(0.,26.724,-24.8));
#494=CARTESIAN_POINT('',(0.,22.,-23.55));
#495=CARTESIAN_POINT('',(0.,22.276,-23.55));
#496=CARTESIAN_POINT('',(0.,22.276,-24.8));
#497=CARTESIAN_POINT('',(0.,22.276,-23.55));
#498=CARTESIAN_POINT('',(0.,27.,23.55));
#499=CARTESIAN_POINT('',(0.,27.,23.55));
#500=CARTESIAN_POINT('',(0.,27.,22.576));
#501=CARTESIAN_POINT('',(0.,27.,23.55));
#502=CARTESIAN_POINT('',(0.,26.724,23.55));
#503=CARTESIAN_POINT('',(0.,26.724,22.3));
#504=CARTESIAN_POINT('',(0.,22.,23.55));
#505=CARTESIAN_POINT('',(0.,22.276,23.55));
#506=CARTESIAN_POINT('',(0.,22.276,22.3));
#507=CARTESIAN_POINT('',(0.,22.276,23.55));
#508=MECHANICAL_DESIGN_GEOMETRIC_PRESENTATION_REPRESENTATION('',(#285),
#509);
#509=(
GEOMETRIC_REPRESENTATION_CONTEXT(3)
GLOBAL_UNCERTAINTY_ASSIGNED_CONTEXT((#510))
GLOBAL_UNIT_ASSIGNED_CONTEXT((#513,#512,#511))
REPRESENTATION_CONTEXT('176055 CPV10-BS-5/3G-M7---(10VENTFB_0)',
'TOP_LEVEL_ASSEMBLY_PART')
);
#510=UNCERTAINTY_MEASURE_WITH_UNIT(LENGTH_MEASURE(0.005),#513,
'DISTANCE_ACCURACY_VALUE','Maximum Tolerance applied to model');
#511=(
NAMED_UNIT(*)
SI_UNIT($,.STERADIAN.)
SOLID_ANGLE_UNIT()
);
#512=(
NAMED_UNIT(*)
PLANE_ANGLE_UNIT()
SI_UNIT($,.RADIAN.)
);
#513=(
LENGTH_UNIT()
NAMED_UNIT(*)
SI_UNIT(.MILLI.,.METRE.)
);
#514=PRODUCT_DEFINITION_SHAPE('','',#515);
#515=PRODUCT_DEFINITION('','',#517,#516);
#516=PRODUCT_DEFINITION_CONTEXT('',#523,'design');
#517=PRODUCT_DEFINITION_FORMATION_WITH_SPECIFIED_SOURCE('','',#519,
 .NOT_KNOWN.);
#518=PRODUCT_RELATED_PRODUCT_CATEGORY('','',(#519));
#519=PRODUCT('176055 CPV10-BS-5/3G-M7---(10VENTFB_0)',
'176055 CPV10-BS-5/3G-M7---(10VENTFB_0)',
'176055 CPV10-BS-5/3G-M7---(10VENTFB_0)',(#521));
#520=PRODUCT_CATEGORY('','');
#521=PRODUCT_CONTEXT('',#523,'mechanical');
#522=APPLICATION_PROTOCOL_DEFINITION('international standard',
'automotive_design',2010,#523);
#523=APPLICATION_CONTEXT(
'core data for automotive mechanical design processes');
ENDSEC;
END-ISO-10303-21;
