ISO-10303-21;
HEADER;
/* Generated by software containing ST-Developer
 * from STEP Tools, Inc. (www.steptools.com) 
 */
/* OPTION: using custom renumber hook */

FILE_DESCRIPTION(
/* description */ ('STEP AP214'),
/* implementation_level */ '2;1');

FILE_NAME(
/* name */ '177714_CQC-18H',
/* time_stamp */ '2024-08-07T22:03:35+02:00',
/* author */ ('License CC BY-ND 4.0'),
/* organization */ ('CADENAS'),
/* preprocessor_version */ 'ST-DEVELOPER v19.3',
/* originating_system */ 'PARTsolutions',
/* authorisation */ '  ');

FILE_SCHEMA (('AUTOMOTIVE_DESIGN {1 0 10303 214 3 1 1}'));
ENDSEC;

DATA;
#10=PROPERTY_DEFINITION_REPRESENTATION(#14,#12);
#11=PROPERTY_DEFINITION_REPRESENTATION(#15,#13);
#12=REPRESENTATION('',(#16),#163);
#13=REPRESENTATION('',(#17),#163);
#14=PROPERTY_DEFINITION('pmi validation property','',#168);
#15=PROPERTY_DEFINITION('pmi validation property','',#168);
#16=VALUE_REPRESENTATION_ITEM('number of annotations',COUNT_MEASURE(0.));
#17=VALUE_REPRESENTATION_ITEM('number of views',COUNT_MEASURE(0.));
#18=SHAPE_REPRESENTATION_RELATIONSHIP('','',#99,#19);
#19=ADVANCED_BREP_SHAPE_REPRESENTATION('',(#97),#163);
#20=CYLINDRICAL_SURFACE('',#105,15.);
#21=CYLINDRICAL_SURFACE('',#111,9.);
#22=TOROIDAL_SURFACE('',#103,14.,1.);
#23=TOROIDAL_SURFACE('',#107,14.,1.);
#24=ORIENTED_EDGE('',*,*,#36,.F.);
#25=ORIENTED_EDGE('',*,*,#36,.T.);
#26=ORIENTED_EDGE('',*,*,#37,.F.);
#27=ORIENTED_EDGE('',*,*,#38,.F.);
#28=ORIENTED_EDGE('',*,*,#37,.T.);
#29=ORIENTED_EDGE('',*,*,#38,.T.);
#30=ORIENTED_EDGE('',*,*,#39,.F.);
#31=ORIENTED_EDGE('',*,*,#40,.F.);
#32=ORIENTED_EDGE('',*,*,#39,.T.);
#33=ORIENTED_EDGE('',*,*,#41,.F.);
#34=ORIENTED_EDGE('',*,*,#40,.T.);
#35=ORIENTED_EDGE('',*,*,#41,.T.);
#36=EDGE_CURVE('',#42,#42,#48,.T.);
#37=EDGE_CURVE('',#43,#43,#49,.T.);
#38=EDGE_CURVE('',#44,#44,#50,.T.);
#39=EDGE_CURVE('',#45,#45,#51,.T.);
#40=EDGE_CURVE('',#46,#46,#52,.T.);
#41=EDGE_CURVE('',#47,#47,#53,.T.);
#42=VERTEX_POINT('',#145);
#43=VERTEX_POINT('',#148);
#44=VERTEX_POINT('',#151);
#45=VERTEX_POINT('',#154);
#46=VERTEX_POINT('',#157);
#47=VERTEX_POINT('',#160);
#48=CIRCLE('',#102,14.);
#49=CIRCLE('',#104,15.);
#50=CIRCLE('',#106,15.);
#51=CIRCLE('',#108,14.);
#52=CIRCLE('',#110,9.);
#53=CIRCLE('',#112,9.);
#54=EDGE_LOOP('',(#24));
#55=EDGE_LOOP('',(#25));
#56=EDGE_LOOP('',(#26));
#57=EDGE_LOOP('',(#27));
#58=EDGE_LOOP('',(#28));
#59=EDGE_LOOP('',(#29));
#60=EDGE_LOOP('',(#30));
#61=EDGE_LOOP('',(#31));
#62=EDGE_LOOP('',(#32));
#63=EDGE_LOOP('',(#33));
#64=EDGE_LOOP('',(#34));
#65=EDGE_LOOP('',(#35));
#66=FACE_BOUND('',#54,.T.);
#67=FACE_BOUND('',#55,.T.);
#68=FACE_BOUND('',#56,.T.);
#69=FACE_BOUND('',#57,.T.);
#70=FACE_BOUND('',#58,.T.);
#71=FACE_BOUND('',#59,.T.);
#72=FACE_BOUND('',#60,.T.);
#73=FACE_BOUND('',#61,.T.);
#74=FACE_BOUND('',#62,.T.);
#75=FACE_BOUND('',#63,.T.);
#76=FACE_BOUND('',#64,.T.);
#77=FACE_BOUND('',#65,.T.);
#78=PLANE('',#101);
#79=PLANE('',#109);
#80=PLANE('',#113);
#81=ADVANCED_FACE('',(#66),#78,.F.);
#82=ADVANCED_FACE('',(#67,#68),#22,.T.);
#83=ADVANCED_FACE('',(#69,#70),#20,.T.);
#84=ADVANCED_FACE('',(#71,#72),#23,.T.);
#85=ADVANCED_FACE('',(#73,#74),#79,.F.);
#86=ADVANCED_FACE('',(#75,#76),#21,.T.);
#87=ADVANCED_FACE('',(#77),#80,.F.);
#88=CLOSED_SHELL('',(#81,#82,#83,#84,#85,#86,#87));
#89=STYLED_ITEM('',(#90),#97);
#90=PRESENTATION_STYLE_ASSIGNMENT((#91));
#91=SURFACE_STYLE_USAGE(.BOTH.,#92);
#92=SURFACE_SIDE_STYLE('',(#93));
#93=SURFACE_STYLE_FILL_AREA(#94);
#94=FILL_AREA_STYLE('',(#95));
#95=FILL_AREA_STYLE_COLOUR('',#96);
#96=COLOUR_RGB('',0.310000002384186,0.310000002384186,0.310000002384186);
#97=MANIFOLD_SOLID_BREP('177714 CQC-18H',#88);
#98=SHAPE_DEFINITION_REPRESENTATION(#168,#99);
#99=SHAPE_REPRESENTATION('177714 CQC-18H',(#100),#163);
#100=AXIS2_PLACEMENT_3D('',#142,#114,#115);
#101=AXIS2_PLACEMENT_3D('',#143,#116,#117);
#102=AXIS2_PLACEMENT_3D('',#144,#118,#119);
#103=AXIS2_PLACEMENT_3D('',#146,#120,#121);
#104=AXIS2_PLACEMENT_3D('',#147,#122,#123);
#105=AXIS2_PLACEMENT_3D('',#149,#124,#125);
#106=AXIS2_PLACEMENT_3D('',#150,#126,#127);
#107=AXIS2_PLACEMENT_3D('',#152,#128,#129);
#108=AXIS2_PLACEMENT_3D('',#153,#130,#131);
#109=AXIS2_PLACEMENT_3D('',#155,#132,#133);
#110=AXIS2_PLACEMENT_3D('',#156,#134,#135);
#111=AXIS2_PLACEMENT_3D('',#158,#136,#137);
#112=AXIS2_PLACEMENT_3D('',#159,#138,#139);
#113=AXIS2_PLACEMENT_3D('',#161,#140,#141);
#114=DIRECTION('',(0.,0.,1.));
#115=DIRECTION('',(1.,0.,0.));
#116=DIRECTION('',(0.,-6.12323399573677E-17,-1.));
#117=DIRECTION('',(0.,1.,-6.12323399573677E-17));
#118=DIRECTION('',(0.,-6.12323399573677E-17,-1.));
#119=DIRECTION('',(0.,1.,-6.12323399573677E-17));
#120=DIRECTION('',(0.,-6.12323399573677E-17,-1.));
#121=DIRECTION('',(0.,1.,-6.12323399573677E-17));
#122=DIRECTION('',(0.,-6.12323399573677E-17,-1.));
#123=DIRECTION('',(0.,1.,-6.12323399573677E-17));
#124=DIRECTION('',(0.,-6.12323399573677E-17,-1.));
#125=DIRECTION('',(0.,1.,-6.12323399573677E-17));
#126=DIRECTION('',(0.,-6.12323399573677E-17,-1.));
#127=DIRECTION('',(0.,1.,-6.12323399573677E-17));
#128=DIRECTION('',(0.,-6.12323399573677E-17,-1.));
#129=DIRECTION('',(0.,1.,-6.12323399573677E-17));
#130=DIRECTION('',(0.,-6.12323399573677E-17,-1.));
#131=DIRECTION('',(0.,1.,-6.12323399573677E-17));
#132=DIRECTION('',(0.,6.12323399573677E-17,1.));
#133=DIRECTION('',(0.,-1.,6.12323399573677E-17));
#134=DIRECTION('',(0.,-6.12323399573677E-17,-1.));
#135=DIRECTION('',(0.,1.,-6.12323399573677E-17));
#136=DIRECTION('',(0.,-6.12323399573677E-17,-1.));
#137=DIRECTION('',(0.,1.,-6.12323399573677E-17));
#138=DIRECTION('',(0.,-6.12323399573677E-17,-1.));
#139=DIRECTION('',(0.,1.,-6.12323399573677E-17));
#140=DIRECTION('',(0.,6.12323399573677E-17,1.));
#141=DIRECTION('',(0.,-1.,6.12323399573677E-17));
#142=CARTESIAN_POINT('',(0.,0.,0.));
#143=CARTESIAN_POINT('',(0.,2.54114210823076E-15,41.5));
#144=CARTESIAN_POINT('',(0.,2.54114210823076E-15,41.5));
#145=CARTESIAN_POINT('',(0.,14.,41.5));
#146=CARTESIAN_POINT('',(0.,1.73472347597681E-15,40.5));
#147=CARTESIAN_POINT('',(0.,2.47990976827339E-15,40.5));
#148=CARTESIAN_POINT('',(0.,15.,40.5));
#149=CARTESIAN_POINT('',(0.,0.,0.));
#150=CARTESIAN_POINT('',(0.,2.35744508835865E-15,38.5));
#151=CARTESIAN_POINT('',(0.,15.,38.5));
#152=CARTESIAN_POINT('',(0.,1.73472347597681E-15,38.5));
#153=CARTESIAN_POINT('',(0.,2.29621274840129E-15,37.5));
#154=CARTESIAN_POINT('',(0.,14.,37.5));
#155=CARTESIAN_POINT('',(0.,14.,37.5));
#156=CARTESIAN_POINT('',(0.,2.29621274840129E-15,37.5));
#157=CARTESIAN_POINT('',(0.,9.,37.5));
#158=CARTESIAN_POINT('',(0.,0.,0.));
#159=CARTESIAN_POINT('',(0.,3.37445951098918E-32,5.51091059616309E-16));
#160=CARTESIAN_POINT('',(0.,9.,0.));
#161=CARTESIAN_POINT('',(0.,9.,-2.75545529808154E-16));
#162=MECHANICAL_DESIGN_GEOMETRIC_PRESENTATION_REPRESENTATION('',(#89),#163);
#163=(
GEOMETRIC_REPRESENTATION_CONTEXT(3)
GLOBAL_UNCERTAINTY_ASSIGNED_CONTEXT((#164))
GLOBAL_UNIT_ASSIGNED_CONTEXT((#167,#166,#165))
REPRESENTATION_CONTEXT('177714 CQC-18H','TOP_LEVEL_ASSEMBLY_PART')
);
#164=UNCERTAINTY_MEASURE_WITH_UNIT(LENGTH_MEASURE(0.005),#167,
'DISTANCE_ACCURACY_VALUE','Maximum Tolerance applied to model');
#165=(
NAMED_UNIT(*)
SI_UNIT($,.STERADIAN.)
SOLID_ANGLE_UNIT()
);
#166=(
NAMED_UNIT(*)
PLANE_ANGLE_UNIT()
SI_UNIT($,.RADIAN.)
);
#167=(
LENGTH_UNIT()
NAMED_UNIT(*)
SI_UNIT(.MILLI.,.METRE.)
);
#168=PRODUCT_DEFINITION_SHAPE('','',#169);
#169=PRODUCT_DEFINITION('','',#171,#170);
#170=PRODUCT_DEFINITION_CONTEXT('',#177,'design');
#171=PRODUCT_DEFINITION_FORMATION_WITH_SPECIFIED_SOURCE('','',#173,
 .NOT_KNOWN.);
#172=PRODUCT_RELATED_PRODUCT_CATEGORY('','',(#173));
#173=PRODUCT('177714 CQC-18H','177714 CQC-18H','177714 CQC-18H',(#175));
#174=PRODUCT_CATEGORY('','');
#175=PRODUCT_CONTEXT('',#177,'mechanical');
#176=APPLICATION_PROTOCOL_DEFINITION('international standard',
'automotive_design',2010,#177);
#177=APPLICATION_CONTEXT(
'core data for automotive mechanical design processes');
ENDSEC;
END-ISO-10303-21;
