ISO-10303-21;
HEADER;
/* Generated by software containing ST-Developer
 * from STEP Tools, Inc. (www.steptools.com) 
 */
/* OPTION: using custom renumber hook */

FILE_DESCRIPTION(
/* description */ ('STEP AP214'),
/* implementation_level */ '2;1');

FILE_NAME(
/* name */ '178292_SIES-Q8B-NS-K-L',
/* time_stamp */ '2024-09-15T06:26:00+02:00',
/* author */ ('License CC BY-ND 4.0'),
/* organization */ ('CADENAS'),
/* preprocessor_version */ 'ST-DEVELOPER v19.3',
/* originating_system */ 'PARTsolutions',
/* authorisation */ '  ');

FILE_SCHEMA (('AUTOMOTIVE_DESIGN {1 0 10303 214 3 1 1}'));
ENDSEC;

DATA;
#10=PROPERTY_DEFINITION_REPRESENTATION(#14,#12);
#11=PROPERTY_DEFINITION_REPRESENTATION(#15,#13);
#12=REPRESENTATION('',(#16),#413);
#13=REPRESENTATION('',(#17),#413);
#14=PROPERTY_DEFINITION('pmi validation property','',#418);
#15=PROPERTY_DEFINITION('pmi validation property','',#418);
#16=VALUE_REPRESENTATION_ITEM('number of annotations',COUNT_MEASURE(0.));
#17=VALUE_REPRESENTATION_ITEM('number of views',COUNT_MEASURE(0.));
#18=SHAPE_REPRESENTATION_RELATIONSHIP('','',#251,#19);
#19=ADVANCED_BREP_SHAPE_REPRESENTATION('',(#249),#413);
#20=CYLINDRICAL_SURFACE('',#267,1.2295);
#21=CYLINDRICAL_SURFACE('',#272,1.2295);
#22=CYLINDRICAL_SURFACE('',#275,2.25);
#23=CYLINDRICAL_SURFACE('',#278,2.25);
#24=CONICAL_SURFACE('',#265,1.5,0.78539816339745);
#25=CONICAL_SURFACE('',#269,1.2295,0.785398163397449);
#26=CONICAL_SURFACE('',#270,1.5,0.785398163397445);
#27=CONICAL_SURFACE('',#274,1.2295,0.785398163397445);
#28=LINE('',#355,#40);
#29=LINE('',#358,#41);
#30=LINE('',#360,#42);
#31=LINE('',#362,#43);
#32=LINE('',#364,#44);
#33=LINE('',#366,#45);
#34=LINE('',#368,#46);
#35=LINE('',#370,#47);
#36=LINE('',#372,#48);
#37=LINE('',#374,#49);
#38=LINE('',#378,#50);
#39=LINE('',#379,#51);
#40=VECTOR('',#287,1000.);
#41=VECTOR('',#288,1000.);
#42=VECTOR('',#289,1000.);
#43=VECTOR('',#290,1000.);
#44=VECTOR('',#293,1000.);
#45=VECTOR('',#294,1000.);
#46=VECTOR('',#295,1000.);
#47=VECTOR('',#298,1000.);
#48=VECTOR('',#299,1000.);
#49=VECTOR('',#300,1000.);
#50=VECTOR('',#305,1000.);
#51=VECTOR('',#306,1000.);
#52=ORIENTED_EDGE('',*,*,#100,.T.);
#53=ORIENTED_EDGE('',*,*,#101,.F.);
#54=ORIENTED_EDGE('',*,*,#102,.F.);
#55=ORIENTED_EDGE('',*,*,#103,.T.);
#56=ORIENTED_EDGE('',*,*,#104,.T.);
#57=ORIENTED_EDGE('',*,*,#105,.F.);
#58=ORIENTED_EDGE('',*,*,#104,.F.);
#59=ORIENTED_EDGE('',*,*,#106,.T.);
#60=ORIENTED_EDGE('',*,*,#107,.T.);
#61=ORIENTED_EDGE('',*,*,#108,.F.);
#62=ORIENTED_EDGE('',*,*,#107,.F.);
#63=ORIENTED_EDGE('',*,*,#109,.T.);
#64=ORIENTED_EDGE('',*,*,#110,.T.);
#65=ORIENTED_EDGE('',*,*,#111,.T.);
#66=ORIENTED_EDGE('',*,*,#112,.F.);
#67=ORIENTED_EDGE('',*,*,#110,.F.);
#68=ORIENTED_EDGE('',*,*,#113,.T.);
#69=ORIENTED_EDGE('',*,*,#102,.T.);
#70=ORIENTED_EDGE('',*,*,#114,.T.);
#71=ORIENTED_EDGE('',*,*,#115,.T.);
#72=ORIENTED_EDGE('',*,*,#103,.F.);
#73=ORIENTED_EDGE('',*,*,#113,.F.);
#74=ORIENTED_EDGE('',*,*,#109,.F.);
#75=ORIENTED_EDGE('',*,*,#106,.F.);
#76=ORIENTED_EDGE('',*,*,#116,.F.);
#77=ORIENTED_EDGE('',*,*,#117,.F.);
#78=ORIENTED_EDGE('',*,*,#101,.T.);
#79=ORIENTED_EDGE('',*,*,#105,.T.);
#80=ORIENTED_EDGE('',*,*,#108,.T.);
#81=ORIENTED_EDGE('',*,*,#112,.T.);
#82=ORIENTED_EDGE('',*,*,#118,.T.);
#83=ORIENTED_EDGE('',*,*,#115,.F.);
#84=ORIENTED_EDGE('',*,*,#119,.T.);
#85=ORIENTED_EDGE('',*,*,#118,.F.);
#86=ORIENTED_EDGE('',*,*,#117,.T.);
#87=ORIENTED_EDGE('',*,*,#119,.F.);
#88=ORIENTED_EDGE('',*,*,#120,.T.);
#89=ORIENTED_EDGE('',*,*,#114,.F.);
#90=ORIENTED_EDGE('',*,*,#121,.T.);
#91=ORIENTED_EDGE('',*,*,#120,.F.);
#92=ORIENTED_EDGE('',*,*,#116,.T.);
#93=ORIENTED_EDGE('',*,*,#121,.F.);
#94=ORIENTED_EDGE('',*,*,#100,.F.);
#95=ORIENTED_EDGE('',*,*,#122,.F.);
#96=ORIENTED_EDGE('',*,*,#122,.T.);
#97=ORIENTED_EDGE('',*,*,#123,.T.);
#98=ORIENTED_EDGE('',*,*,#111,.F.);
#99=ORIENTED_EDGE('',*,*,#123,.F.);
#100=EDGE_CURVE('',#124,#124,#144,.F.);
#101=EDGE_CURVE('',#125,#126,#28,.T.);
#102=EDGE_CURVE('',#127,#125,#29,.T.);
#103=EDGE_CURVE('',#127,#128,#30,.T.);
#104=EDGE_CURVE('',#128,#126,#31,.T.);
#105=EDGE_CURVE('',#126,#129,#32,.T.);
#106=EDGE_CURVE('',#128,#130,#33,.T.);
#107=EDGE_CURVE('',#130,#129,#34,.T.);
#108=EDGE_CURVE('',#129,#131,#35,.T.);
#109=EDGE_CURVE('',#130,#132,#36,.T.);
#110=EDGE_CURVE('',#132,#131,#37,.T.);
#111=EDGE_CURVE('',#133,#133,#145,.T.);
#112=EDGE_CURVE('',#131,#125,#38,.T.);
#113=EDGE_CURVE('',#132,#127,#39,.T.);
#114=EDGE_CURVE('',#134,#134,#146,.T.);
#115=EDGE_CURVE('',#135,#135,#147,.T.);
#116=EDGE_CURVE('',#136,#136,#148,.T.);
#117=EDGE_CURVE('',#137,#137,#149,.T.);
#118=EDGE_CURVE('',#138,#138,#150,.T.);
#119=EDGE_CURVE('',#139,#139,#151,.T.);
#120=EDGE_CURVE('',#140,#140,#152,.T.);
#121=EDGE_CURVE('',#141,#141,#153,.T.);
#122=EDGE_CURVE('',#142,#142,#154,.T.);
#123=EDGE_CURVE('',#143,#143,#155,.T.);
#124=VERTEX_POINT('',#354);
#125=VERTEX_POINT('',#356);
#126=VERTEX_POINT('',#357);
#127=VERTEX_POINT('',#359);
#128=VERTEX_POINT('',#361);
#129=VERTEX_POINT('',#365);
#130=VERTEX_POINT('',#367);
#131=VERTEX_POINT('',#371);
#132=VERTEX_POINT('',#373);
#133=VERTEX_POINT('',#377);
#134=VERTEX_POINT('',#382);
#135=VERTEX_POINT('',#384);
#136=VERTEX_POINT('',#387);
#137=VERTEX_POINT('',#389);
#138=VERTEX_POINT('',#392);
#139=VERTEX_POINT('',#395);
#140=VERTEX_POINT('',#399);
#141=VERTEX_POINT('',#402);
#142=VERTEX_POINT('',#406);
#143=VERTEX_POINT('',#410);
#144=CIRCLE('',#254,2.25);
#145=CIRCLE('',#258,2.25);
#146=CIRCLE('',#260,1.5);
#147=CIRCLE('',#261,1.5);
#148=CIRCLE('',#263,1.5);
#149=CIRCLE('',#264,1.5);
#150=CIRCLE('',#266,1.2295);
#151=CIRCLE('',#268,1.2295);
#152=CIRCLE('',#271,1.2295);
#153=CIRCLE('',#273,1.2295);
#154=CIRCLE('',#276,2.25);
#155=CIRCLE('',#279,2.25);
#156=EDGE_LOOP('',(#52));
#157=EDGE_LOOP('',(#53,#54,#55,#56));
#158=EDGE_LOOP('',(#57,#58,#59,#60));
#159=EDGE_LOOP('',(#61,#62,#63,#64));
#160=EDGE_LOOP('',(#65));
#161=EDGE_LOOP('',(#66,#67,#68,#69));
#162=EDGE_LOOP('',(#70));
#163=EDGE_LOOP('',(#71));
#164=EDGE_LOOP('',(#72,#73,#74,#75));
#165=EDGE_LOOP('',(#76));
#166=EDGE_LOOP('',(#77));
#167=EDGE_LOOP('',(#78,#79,#80,#81));
#168=EDGE_LOOP('',(#82));
#169=EDGE_LOOP('',(#83));
#170=EDGE_LOOP('',(#84));
#171=EDGE_LOOP('',(#85));
#172=EDGE_LOOP('',(#86));
#173=EDGE_LOOP('',(#87));
#174=EDGE_LOOP('',(#88));
#175=EDGE_LOOP('',(#89));
#176=EDGE_LOOP('',(#90));
#177=EDGE_LOOP('',(#91));
#178=EDGE_LOOP('',(#92));
#179=EDGE_LOOP('',(#93));
#180=EDGE_LOOP('',(#94));
#181=EDGE_LOOP('',(#95));
#182=EDGE_LOOP('',(#96));
#183=EDGE_LOOP('',(#97));
#184=EDGE_LOOP('',(#98));
#185=EDGE_LOOP('',(#99));
#186=FACE_BOUND('',#156,.T.);
#187=FACE_BOUND('',#157,.T.);
#188=FACE_BOUND('',#158,.T.);
#189=FACE_BOUND('',#159,.T.);
#190=FACE_BOUND('',#160,.T.);
#191=FACE_BOUND('',#161,.T.);
#192=FACE_BOUND('',#162,.T.);
#193=FACE_BOUND('',#163,.T.);
#194=FACE_BOUND('',#164,.T.);
#195=FACE_BOUND('',#165,.T.);
#196=FACE_BOUND('',#166,.T.);
#197=FACE_BOUND('',#167,.T.);
#198=FACE_BOUND('',#168,.T.);
#199=FACE_BOUND('',#169,.T.);
#200=FACE_BOUND('',#170,.T.);
#201=FACE_BOUND('',#171,.T.);
#202=FACE_BOUND('',#172,.T.);
#203=FACE_BOUND('',#173,.T.);
#204=FACE_BOUND('',#174,.T.);
#205=FACE_BOUND('',#175,.T.);
#206=FACE_BOUND('',#176,.T.);
#207=FACE_BOUND('',#177,.T.);
#208=FACE_BOUND('',#178,.T.);
#209=FACE_BOUND('',#179,.T.);
#210=FACE_BOUND('',#180,.T.);
#211=FACE_BOUND('',#181,.T.);
#212=FACE_BOUND('',#182,.T.);
#213=FACE_BOUND('',#183,.T.);
#214=FACE_BOUND('',#184,.T.);
#215=FACE_BOUND('',#185,.T.);
#216=PLANE('',#253);
#217=PLANE('',#255);
#218=PLANE('',#256);
#219=PLANE('',#257);
#220=PLANE('',#259);
#221=PLANE('',#262);
#222=PLANE('',#277);
#223=PLANE('',#280);
#224=ADVANCED_FACE('',(#186,#187),#216,.T.);
#225=ADVANCED_FACE('',(#188),#217,.T.);
#226=ADVANCED_FACE('',(#189),#218,.T.);
#227=ADVANCED_FACE('',(#190,#191),#219,.T.);
#228=ADVANCED_FACE('',(#192,#193,#194),#220,.F.);
#229=ADVANCED_FACE('',(#195,#196,#197),#221,.T.);
#230=ADVANCED_FACE('',(#198,#199),#24,.F.);
#231=ADVANCED_FACE('',(#200,#201),#20,.F.);
#232=ADVANCED_FACE('',(#202,#203),#25,.F.);
#233=ADVANCED_FACE('',(#204,#205),#26,.F.);
#234=ADVANCED_FACE('',(#206,#207),#21,.F.);
#235=ADVANCED_FACE('',(#208,#209),#27,.F.);
#236=ADVANCED_FACE('',(#210,#211),#22,.F.);
#237=ADVANCED_FACE('',(#212),#222,.T.);
#238=ADVANCED_FACE('',(#213,#214),#23,.T.);
#239=ADVANCED_FACE('',(#215),#223,.F.);
#240=CLOSED_SHELL('',(#224,#225,#226,#227,#228,#229,#230,#231,#232,#233,
#234,#235,#236,#237,#238,#239));
#241=STYLED_ITEM('',(#242),#249);
#242=PRESENTATION_STYLE_ASSIGNMENT((#243));
#243=SURFACE_STYLE_USAGE(.BOTH.,#244);
#244=SURFACE_SIDE_STYLE('',(#245));
#245=SURFACE_STYLE_FILL_AREA(#246);
#246=FILL_AREA_STYLE('',(#247));
#247=FILL_AREA_STYLE_COLOUR('',#248);
#248=COLOUR_RGB('',0.689999997615814,0.689999997615814,0.689999997615814);
#249=MANIFOLD_SOLID_BREP('178292 SIES-Q8B-NS-K-L',#240);
#250=SHAPE_DEFINITION_REPRESENTATION(#418,#251);
#251=SHAPE_REPRESENTATION('178292 SIES-Q8B-NS-K-L',(#252),#413);
#252=AXIS2_PLACEMENT_3D('',#351,#281,#282);
#253=AXIS2_PLACEMENT_3D('',#352,#283,#284);
#254=AXIS2_PLACEMENT_3D('',#353,#285,#286);
#255=AXIS2_PLACEMENT_3D('',#363,#291,#292);
#256=AXIS2_PLACEMENT_3D('',#369,#296,#297);
#257=AXIS2_PLACEMENT_3D('',#375,#301,#302);
#258=AXIS2_PLACEMENT_3D('',#376,#303,#304);
#259=AXIS2_PLACEMENT_3D('',#380,#307,#308);
#260=AXIS2_PLACEMENT_3D('',#381,#309,#310);
#261=AXIS2_PLACEMENT_3D('',#383,#311,#312);
#262=AXIS2_PLACEMENT_3D('',#385,#313,#314);
#263=AXIS2_PLACEMENT_3D('',#386,#315,#316);
#264=AXIS2_PLACEMENT_3D('',#388,#317,#318);
#265=AXIS2_PLACEMENT_3D('',#390,#319,#320);
#266=AXIS2_PLACEMENT_3D('',#391,#321,#322);
#267=AXIS2_PLACEMENT_3D('',#393,#323,#324);
#268=AXIS2_PLACEMENT_3D('',#394,#325,#326);
#269=AXIS2_PLACEMENT_3D('',#396,#327,#328);
#270=AXIS2_PLACEMENT_3D('',#397,#329,#330);
#271=AXIS2_PLACEMENT_3D('',#398,#331,#332);
#272=AXIS2_PLACEMENT_3D('',#400,#333,#334);
#273=AXIS2_PLACEMENT_3D('',#401,#335,#336);
#274=AXIS2_PLACEMENT_3D('',#403,#337,#338);
#275=AXIS2_PLACEMENT_3D('',#404,#339,#340);
#276=AXIS2_PLACEMENT_3D('',#405,#341,#342);
#277=AXIS2_PLACEMENT_3D('',#407,#343,#344);
#278=AXIS2_PLACEMENT_3D('',#408,#345,#346);
#279=AXIS2_PLACEMENT_3D('',#409,#347,#348);
#280=AXIS2_PLACEMENT_3D('',#411,#349,#350);
#281=DIRECTION('',(0.,0.,1.));
#282=DIRECTION('',(1.,0.,0.));
#283=DIRECTION('',(0.,1.,0.));
#284=DIRECTION('',(0.,0.,1.));
#285=DIRECTION('',(0.,1.,0.));
#286=DIRECTION('',(0.,0.,1.));
#287=DIRECTION('',(0.,0.,1.));
#288=DIRECTION('',(1.,0.,0.));
#289=DIRECTION('',(0.,0.,1.));
#290=DIRECTION('',(1.,0.,0.));
#291=DIRECTION('',(0.,0.,1.));
#292=DIRECTION('',(1.,0.,0.));
#293=DIRECTION('',(0.,-1.,0.));
#294=DIRECTION('',(0.,-1.,0.));
#295=DIRECTION('',(1.,0.,0.));
#296=DIRECTION('',(0.,-1.,0.));
#297=DIRECTION('',(0.,0.,-1.));
#298=DIRECTION('',(0.,0.,-1.));
#299=DIRECTION('',(0.,0.,-1.));
#300=DIRECTION('',(1.,0.,0.));
#301=DIRECTION('',(0.,0.,-1.));
#302=DIRECTION('',(-1.,0.,0.));
#303=DIRECTION('',(0.,0.,1.));
#304=DIRECTION('',(1.,0.,0.));
#305=DIRECTION('',(0.,1.,0.));
#306=DIRECTION('',(0.,1.,0.));
#307=DIRECTION('',(1.,0.,0.));
#308=DIRECTION('',(0.,0.,-1.));
#309=DIRECTION('',(1.,0.,0.));
#310=DIRECTION('',(0.,0.,-1.));
#311=DIRECTION('',(1.,0.,0.));
#312=DIRECTION('',(0.,0.,-1.));
#313=DIRECTION('',(1.,0.,0.));
#314=DIRECTION('',(0.,0.,-1.));
#315=DIRECTION('',(1.,0.,0.));
#316=DIRECTION('',(0.,0.,-1.));
#317=DIRECTION('',(1.,0.,0.));
#318=DIRECTION('',(0.,0.,-1.));
#319=DIRECTION('',(-1.,0.,0.));
#320=DIRECTION('',(0.,0.,1.));
#321=DIRECTION('',(1.,0.,0.));
#322=DIRECTION('',(0.,0.,-1.));
#323=DIRECTION('',(1.,0.,0.));
#324=DIRECTION('',(0.,0.,-1.));
#325=DIRECTION('',(1.,0.,0.));
#326=DIRECTION('',(0.,0.,-1.));
#327=DIRECTION('',(1.,0.,0.));
#328=DIRECTION('',(0.,0.,-1.));
#329=DIRECTION('',(-1.,0.,0.));
#330=DIRECTION('',(0.,0.,1.));
#331=DIRECTION('',(1.,0.,0.));
#332=DIRECTION('',(0.,0.,-1.));
#333=DIRECTION('',(1.,0.,0.));
#334=DIRECTION('',(0.,0.,-1.));
#335=DIRECTION('',(1.,0.,0.));
#336=DIRECTION('',(0.,0.,-1.));
#337=DIRECTION('',(1.,0.,0.));
#338=DIRECTION('',(0.,0.,-1.));
#339=DIRECTION('',(0.,-1.,0.));
#340=DIRECTION('',(0.,0.,-1.));
#341=DIRECTION('',(0.,1.,0.));
#342=DIRECTION('',(1.,0.,0.));
#343=DIRECTION('',(0.,1.,0.));
#344=DIRECTION('',(0.,0.,1.));
#345=DIRECTION('',(0.,0.,1.));
#346=DIRECTION('',(1.,0.,0.));
#347=DIRECTION('',(0.,0.,1.));
#348=DIRECTION('',(1.,0.,0.));
#349=DIRECTION('',(0.,0.,1.));
#350=DIRECTION('',(1.,0.,0.));
#351=CARTESIAN_POINT('',(0.,0.,0.));
#352=CARTESIAN_POINT('',(-8.,8.,-40.));
#353=CARTESIAN_POINT('',(-4.,8.,-5.));
#354=CARTESIAN_POINT('',(-4.,8.,-2.75));
#355=CARTESIAN_POINT('',(0.,8.,-40.));
#356=CARTESIAN_POINT('',(0.,8.,-40.));
#357=CARTESIAN_POINT('',(0.,8.,0.));
#358=CARTESIAN_POINT('',(-8.,8.,-40.));
#359=CARTESIAN_POINT('',(-8.,8.,-40.));
#360=CARTESIAN_POINT('',(-8.,8.,-40.));
#361=CARTESIAN_POINT('',(-8.,8.,0.));
#362=CARTESIAN_POINT('',(-8.,8.,0.));
#363=CARTESIAN_POINT('',(-8.,8.,0.));
#364=CARTESIAN_POINT('',(0.,8.,0.));
#365=CARTESIAN_POINT('',(0.,0.,0.));
#366=CARTESIAN_POINT('',(-8.,8.,0.));
#367=CARTESIAN_POINT('',(-8.,0.,0.));
#368=CARTESIAN_POINT('',(-8.,0.,0.));
#369=CARTESIAN_POINT('',(-8.,0.,0.));
#370=CARTESIAN_POINT('',(0.,0.,0.));
#371=CARTESIAN_POINT('',(0.,0.,-40.));
#372=CARTESIAN_POINT('',(-8.,0.,0.));
#373=CARTESIAN_POINT('',(-8.,0.,-40.));
#374=CARTESIAN_POINT('',(-8.,0.,-40.));
#375=CARTESIAN_POINT('',(-8.,0.,-40.));
#376=CARTESIAN_POINT('',(-4.,4.,-40.));
#377=CARTESIAN_POINT('',(-1.75,4.,-40.));
#378=CARTESIAN_POINT('',(0.,0.,-40.));
#379=CARTESIAN_POINT('',(-8.,0.,-40.));
#380=CARTESIAN_POINT('',(-8.,0.,0.));
#381=CARTESIAN_POINT('',(-8.,5.,-30.));
#382=CARTESIAN_POINT('',(-8.,5.,-31.5));
#383=CARTESIAN_POINT('',(-8.,5.,-10.));
#384=CARTESIAN_POINT('',(-8.,5.,-11.5));
#385=CARTESIAN_POINT('',(0.,0.,0.));
#386=CARTESIAN_POINT('',(1.95156391047391E-15,5.,-30.));
#387=CARTESIAN_POINT('',(1.95156391047391E-15,5.,-31.5));
#388=CARTESIAN_POINT('',(7.04731412115578E-16,5.,-10.));
#389=CARTESIAN_POINT('',(7.04731412115578E-16,5.,-11.5));
#390=CARTESIAN_POINT('',(-8.,5.,-10.));
#391=CARTESIAN_POINT('',(-7.7295,5.,-10.));
#392=CARTESIAN_POINT('',(-7.7295,5.,-11.2295));
#393=CARTESIAN_POINT('',(6.12323399573677E-16,5.,-10.));
#394=CARTESIAN_POINT('',(-0.270499999999999,5.,-10.));
#395=CARTESIAN_POINT('',(-0.270499999999999,5.,-11.2295));
#396=CARTESIAN_POINT('',(-0.270499999999999,5.,-10.));
#397=CARTESIAN_POINT('',(-8.,5.,-30.));
#398=CARTESIAN_POINT('',(-7.7295,5.,-30.));
#399=CARTESIAN_POINT('',(-7.7295,5.,-31.2295));
#400=CARTESIAN_POINT('',(1.83697019872103E-15,5.,-30.));
#401=CARTESIAN_POINT('',(-0.270499999999996,5.,-30.));
#402=CARTESIAN_POINT('',(-0.270499999999996,5.,-31.2295));
#403=CARTESIAN_POINT('',(-0.270499999999996,5.,-30.));
#404=CARTESIAN_POINT('',(-4.,8.1,-5.));
#405=CARTESIAN_POINT('',(-4.,7.9,-5.));
#406=CARTESIAN_POINT('',(-1.75,7.9,-5.));
#407=CARTESIAN_POINT('',(-4.,7.9,-5.));
#408=CARTESIAN_POINT('',(-4.,4.,-48.));
#409=CARTESIAN_POINT('',(-4.,4.,-48.));
#410=CARTESIAN_POINT('',(-1.75,4.,-48.));
#411=CARTESIAN_POINT('',(-4.,4.,-48.));
#412=MECHANICAL_DESIGN_GEOMETRIC_PRESENTATION_REPRESENTATION('',(#241),
#413);
#413=(
GEOMETRIC_REPRESENTATION_CONTEXT(3)
GLOBAL_UNCERTAINTY_ASSIGNED_CONTEXT((#414))
GLOBAL_UNIT_ASSIGNED_CONTEXT((#417,#416,#415))
REPRESENTATION_CONTEXT('178292 SIES-Q8B-NS-K-L',
'TOP_LEVEL_ASSEMBLY_PART')
);
#414=UNCERTAINTY_MEASURE_WITH_UNIT(LENGTH_MEASURE(0.005),#417,
'DISTANCE_ACCURACY_VALUE','Maximum Tolerance applied to model');
#415=(
NAMED_UNIT(*)
SI_UNIT($,.STERADIAN.)
SOLID_ANGLE_UNIT()
);
#416=(
NAMED_UNIT(*)
PLANE_ANGLE_UNIT()
SI_UNIT($,.RADIAN.)
);
#417=(
LENGTH_UNIT()
NAMED_UNIT(*)
SI_UNIT(.MILLI.,.METRE.)
);
#418=PRODUCT_DEFINITION_SHAPE('','',#419);
#419=PRODUCT_DEFINITION('','',#421,#420);
#420=PRODUCT_DEFINITION_CONTEXT('',#427,'design');
#421=PRODUCT_DEFINITION_FORMATION_WITH_SPECIFIED_SOURCE('','',#423,
 .NOT_KNOWN.);
#422=PRODUCT_RELATED_PRODUCT_CATEGORY('','',(#423));
#423=PRODUCT('178292 SIES-Q8B-NS-K-L','178292 SIES-Q8B-NS-K-L',
'178292 SIES-Q8B-NS-K-L',(#425));
#424=PRODUCT_CATEGORY('','');
#425=PRODUCT_CONTEXT('',#427,'mechanical');
#426=APPLICATION_PROTOCOL_DEFINITION('international standard',
'automotive_design',2010,#427);
#427=APPLICATION_CONTEXT(
'core data for automotive mechanical design processes');
ENDSEC;
END-ISO-10303-21;
