ISO-10303-21;
HEADER;
/* Generated by software containing ST-Developer
 * from STEP Tools, Inc. (www.steptools.com) 
 */
/* OPTION: using custom renumber hook */

FILE_DESCRIPTION(
/* description */ ('STEP AP214'),
/* implementation_level */ '2;1');

FILE_NAME(
/* name */ '178295_SIES-Q8B-PS-S-L',
/* time_stamp */ '2024-09-15T06:27:35+02:00',
/* author */ ('License CC BY-ND 4.0'),
/* organization */ ('CADENAS'),
/* preprocessor_version */ 'ST-DEVELOPER v19.3',
/* originating_system */ 'PARTsolutions',
/* authorisation */ '  ');

FILE_SCHEMA (('AUTOMOTIVE_DESIGN {1 0 10303 214 3 1 1}'));
ENDSEC;

DATA;
#10=PROPERTY_DEFINITION_REPRESENTATION(#14,#12);
#11=PROPERTY_DEFINITION_REPRESENTATION(#15,#13);
#12=REPRESENTATION('',(#16),#753);
#13=REPRESENTATION('',(#17),#753);
#14=PROPERTY_DEFINITION('pmi validation property','',#758);
#15=PROPERTY_DEFINITION('pmi validation property','',#758);
#16=VALUE_REPRESENTATION_ITEM('number of annotations',COUNT_MEASURE(0.));
#17=VALUE_REPRESENTATION_ITEM('number of views',COUNT_MEASURE(0.));
#18=SHAPE_REPRESENTATION_RELATIONSHIP('','',#438,#19);
#19=ADVANCED_BREP_SHAPE_REPRESENTATION('',(#436),#753);
#20=CYLINDRICAL_SURFACE('',#454,1.2295);
#21=CYLINDRICAL_SURFACE('',#459,1.2295);
#22=CYLINDRICAL_SURFACE('',#462,2.);
#23=CYLINDRICAL_SURFACE('',#470,2.9);
#24=CYLINDRICAL_SURFACE('',#474,3.45);
#25=CYLINDRICAL_SURFACE('',#480,3.45);
#26=CYLINDRICAL_SURFACE('',#486,4.);
#27=CYLINDRICAL_SURFACE('',#492,3.);
#28=CYLINDRICAL_SURFACE('',#493,0.5);
#29=CYLINDRICAL_SURFACE('',#496,0.5);
#30=CYLINDRICAL_SURFACE('',#499,0.5);
#31=CONICAL_SURFACE('',#452,1.5,0.78539816339745);
#32=CONICAL_SURFACE('',#456,1.2295,0.785398163397449);
#33=CONICAL_SURFACE('',#457,1.5,0.785398163397445);
#34=CONICAL_SURFACE('',#461,1.2295,0.785398163397445);
#35=CONICAL_SURFACE('',#476,3.45,0.785398163397448);
#36=CONICAL_SURFACE('',#478,3.7,0.785398163397448);
#37=CONICAL_SURFACE('',#484,3.3865,0.785398163397446);
#38=CONICAL_SURFACE('',#488,4.,0.785398163397452);
#39=LINE('',#644,#51);
#40=LINE('',#647,#52);
#41=LINE('',#649,#53);
#42=LINE('',#651,#54);
#43=LINE('',#653,#55);
#44=LINE('',#655,#56);
#45=LINE('',#657,#57);
#46=LINE('',#659,#58);
#47=LINE('',#661,#59);
#48=LINE('',#663,#60);
#49=LINE('',#667,#61);
#50=LINE('',#668,#62);
#51=VECTOR('',#508,1000.);
#52=VECTOR('',#509,1000.);
#53=VECTOR('',#510,1000.);
#54=VECTOR('',#511,1000.);
#55=VECTOR('',#514,1000.);
#56=VECTOR('',#515,1000.);
#57=VECTOR('',#516,1000.);
#58=VECTOR('',#519,1000.);
#59=VECTOR('',#520,1000.);
#60=VECTOR('',#521,1000.);
#61=VECTOR('',#526,1000.);
#62=VECTOR('',#527,1000.);
#63=ORIENTED_EDGE('',*,*,#145,.T.);
#64=ORIENTED_EDGE('',*,*,#146,.F.);
#65=ORIENTED_EDGE('',*,*,#147,.F.);
#66=ORIENTED_EDGE('',*,*,#148,.T.);
#67=ORIENTED_EDGE('',*,*,#149,.T.);
#68=ORIENTED_EDGE('',*,*,#150,.F.);
#69=ORIENTED_EDGE('',*,*,#149,.F.);
#70=ORIENTED_EDGE('',*,*,#151,.T.);
#71=ORIENTED_EDGE('',*,*,#152,.T.);
#72=ORIENTED_EDGE('',*,*,#153,.F.);
#73=ORIENTED_EDGE('',*,*,#152,.F.);
#74=ORIENTED_EDGE('',*,*,#154,.T.);
#75=ORIENTED_EDGE('',*,*,#155,.T.);
#76=ORIENTED_EDGE('',*,*,#156,.T.);
#77=ORIENTED_EDGE('',*,*,#157,.F.);
#78=ORIENTED_EDGE('',*,*,#155,.F.);
#79=ORIENTED_EDGE('',*,*,#158,.T.);
#80=ORIENTED_EDGE('',*,*,#147,.T.);
#81=ORIENTED_EDGE('',*,*,#159,.T.);
#82=ORIENTED_EDGE('',*,*,#160,.T.);
#83=ORIENTED_EDGE('',*,*,#148,.F.);
#84=ORIENTED_EDGE('',*,*,#158,.F.);
#85=ORIENTED_EDGE('',*,*,#154,.F.);
#86=ORIENTED_EDGE('',*,*,#151,.F.);
#87=ORIENTED_EDGE('',*,*,#161,.F.);
#88=ORIENTED_EDGE('',*,*,#162,.F.);
#89=ORIENTED_EDGE('',*,*,#146,.T.);
#90=ORIENTED_EDGE('',*,*,#150,.T.);
#91=ORIENTED_EDGE('',*,*,#153,.T.);
#92=ORIENTED_EDGE('',*,*,#157,.T.);
#93=ORIENTED_EDGE('',*,*,#163,.T.);
#94=ORIENTED_EDGE('',*,*,#160,.F.);
#95=ORIENTED_EDGE('',*,*,#164,.T.);
#96=ORIENTED_EDGE('',*,*,#163,.F.);
#97=ORIENTED_EDGE('',*,*,#162,.T.);
#98=ORIENTED_EDGE('',*,*,#164,.F.);
#99=ORIENTED_EDGE('',*,*,#165,.T.);
#100=ORIENTED_EDGE('',*,*,#159,.F.);
#101=ORIENTED_EDGE('',*,*,#166,.T.);
#102=ORIENTED_EDGE('',*,*,#165,.F.);
#103=ORIENTED_EDGE('',*,*,#161,.T.);
#104=ORIENTED_EDGE('',*,*,#166,.F.);
#105=ORIENTED_EDGE('',*,*,#145,.F.);
#106=ORIENTED_EDGE('',*,*,#167,.F.);
#107=ORIENTED_EDGE('',*,*,#167,.T.);
#108=ORIENTED_EDGE('',*,*,#168,.F.);
#109=ORIENTED_EDGE('',*,*,#169,.F.);
#110=ORIENTED_EDGE('',*,*,#170,.F.);
#111=ORIENTED_EDGE('',*,*,#171,.F.);
#112=ORIENTED_EDGE('',*,*,#172,.F.);
#113=ORIENTED_EDGE('',*,*,#168,.T.);
#114=ORIENTED_EDGE('',*,*,#173,.F.);
#115=ORIENTED_EDGE('',*,*,#172,.T.);
#116=ORIENTED_EDGE('',*,*,#174,.F.);
#117=ORIENTED_EDGE('',*,*,#173,.T.);
#118=ORIENTED_EDGE('',*,*,#175,.F.);
#119=ORIENTED_EDGE('',*,*,#174,.T.);
#120=ORIENTED_EDGE('',*,*,#176,.F.);
#121=ORIENTED_EDGE('',*,*,#175,.T.);
#122=ORIENTED_EDGE('',*,*,#177,.F.);
#123=ORIENTED_EDGE('',*,*,#176,.T.);
#124=ORIENTED_EDGE('',*,*,#178,.F.);
#125=ORIENTED_EDGE('',*,*,#177,.T.);
#126=ORIENTED_EDGE('',*,*,#179,.F.);
#127=ORIENTED_EDGE('',*,*,#178,.T.);
#128=ORIENTED_EDGE('',*,*,#180,.F.);
#129=ORIENTED_EDGE('',*,*,#179,.T.);
#130=ORIENTED_EDGE('',*,*,#181,.F.);
#131=ORIENTED_EDGE('',*,*,#180,.T.);
#132=ORIENTED_EDGE('',*,*,#182,.F.);
#133=ORIENTED_EDGE('',*,*,#181,.T.);
#134=ORIENTED_EDGE('',*,*,#156,.F.);
#135=ORIENTED_EDGE('',*,*,#182,.T.);
#136=ORIENTED_EDGE('',*,*,#183,.F.);
#137=ORIENTED_EDGE('',*,*,#171,.T.);
#138=ORIENTED_EDGE('',*,*,#183,.T.);
#139=ORIENTED_EDGE('',*,*,#184,.F.);
#140=ORIENTED_EDGE('',*,*,#170,.T.);
#141=ORIENTED_EDGE('',*,*,#184,.T.);
#142=ORIENTED_EDGE('',*,*,#185,.F.);
#143=ORIENTED_EDGE('',*,*,#169,.T.);
#144=ORIENTED_EDGE('',*,*,#185,.T.);
#145=EDGE_CURVE('',#186,#186,#223,.F.);
#146=EDGE_CURVE('',#187,#188,#39,.T.);
#147=EDGE_CURVE('',#189,#187,#40,.T.);
#148=EDGE_CURVE('',#189,#190,#41,.T.);
#149=EDGE_CURVE('',#190,#188,#42,.T.);
#150=EDGE_CURVE('',#188,#191,#43,.T.);
#151=EDGE_CURVE('',#190,#192,#44,.T.);
#152=EDGE_CURVE('',#192,#191,#45,.T.);
#153=EDGE_CURVE('',#191,#193,#46,.T.);
#154=EDGE_CURVE('',#192,#194,#47,.T.);
#155=EDGE_CURVE('',#194,#193,#48,.T.);
#156=EDGE_CURVE('',#195,#195,#224,.T.);
#157=EDGE_CURVE('',#193,#187,#49,.T.);
#158=EDGE_CURVE('',#194,#189,#50,.T.);
#159=EDGE_CURVE('',#196,#196,#225,.T.);
#160=EDGE_CURVE('',#197,#197,#226,.T.);
#161=EDGE_CURVE('',#198,#198,#227,.T.);
#162=EDGE_CURVE('',#199,#199,#228,.T.);
#163=EDGE_CURVE('',#200,#200,#229,.T.);
#164=EDGE_CURVE('',#201,#201,#230,.T.);
#165=EDGE_CURVE('',#202,#202,#231,.T.);
#166=EDGE_CURVE('',#203,#203,#232,.T.);
#167=EDGE_CURVE('',#204,#204,#233,.T.);
#168=EDGE_CURVE('',#205,#205,#234,.T.);
#169=EDGE_CURVE('',#206,#206,#235,.F.);
#170=EDGE_CURVE('',#207,#207,#236,.F.);
#171=EDGE_CURVE('',#208,#208,#237,.F.);
#172=EDGE_CURVE('',#209,#209,#238,.T.);
#173=EDGE_CURVE('',#210,#210,#239,.T.);
#174=EDGE_CURVE('',#211,#211,#240,.T.);
#175=EDGE_CURVE('',#212,#212,#241,.T.);
#176=EDGE_CURVE('',#213,#213,#242,.T.);
#177=EDGE_CURVE('',#214,#214,#243,.T.);
#178=EDGE_CURVE('',#215,#215,#244,.T.);
#179=EDGE_CURVE('',#216,#216,#245,.T.);
#180=EDGE_CURVE('',#217,#217,#246,.T.);
#181=EDGE_CURVE('',#218,#218,#247,.T.);
#182=EDGE_CURVE('',#219,#219,#248,.T.);
#183=EDGE_CURVE('',#220,#220,#249,.T.);
#184=EDGE_CURVE('',#221,#221,#250,.T.);
#185=EDGE_CURVE('',#222,#222,#251,.T.);
#186=VERTEX_POINT('',#643);
#187=VERTEX_POINT('',#645);
#188=VERTEX_POINT('',#646);
#189=VERTEX_POINT('',#648);
#190=VERTEX_POINT('',#650);
#191=VERTEX_POINT('',#654);
#192=VERTEX_POINT('',#656);
#193=VERTEX_POINT('',#660);
#194=VERTEX_POINT('',#662);
#195=VERTEX_POINT('',#666);
#196=VERTEX_POINT('',#671);
#197=VERTEX_POINT('',#673);
#198=VERTEX_POINT('',#676);
#199=VERTEX_POINT('',#678);
#200=VERTEX_POINT('',#681);
#201=VERTEX_POINT('',#684);
#202=VERTEX_POINT('',#688);
#203=VERTEX_POINT('',#691);
#204=VERTEX_POINT('',#695);
#205=VERTEX_POINT('',#699);
#206=VERTEX_POINT('',#701);
#207=VERTEX_POINT('',#703);
#208=VERTEX_POINT('',#705);
#209=VERTEX_POINT('',#708);
#210=VERTEX_POINT('',#711);
#211=VERTEX_POINT('',#714);
#212=VERTEX_POINT('',#717);
#213=VERTEX_POINT('',#720);
#214=VERTEX_POINT('',#723);
#215=VERTEX_POINT('',#726);
#216=VERTEX_POINT('',#729);
#217=VERTEX_POINT('',#732);
#218=VERTEX_POINT('',#735);
#219=VERTEX_POINT('',#738);
#220=VERTEX_POINT('',#742);
#221=VERTEX_POINT('',#746);
#222=VERTEX_POINT('',#750);
#223=CIRCLE('',#441,2.);
#224=CIRCLE('',#445,3.);
#225=CIRCLE('',#447,1.5);
#226=CIRCLE('',#448,1.5);
#227=CIRCLE('',#450,1.5);
#228=CIRCLE('',#451,1.5);
#229=CIRCLE('',#453,1.2295);
#230=CIRCLE('',#455,1.2295);
#231=CIRCLE('',#458,1.2295);
#232=CIRCLE('',#460,1.2295);
#233=CIRCLE('',#463,2.);
#234=CIRCLE('',#466,2.9);
#235=CIRCLE('',#467,0.5);
#236=CIRCLE('',#468,0.5);
#237=CIRCLE('',#469,0.5);
#238=CIRCLE('',#471,2.9);
#239=CIRCLE('',#473,3.45);
#240=CIRCLE('',#475,3.45);
#241=CIRCLE('',#477,3.7);
#242=CIRCLE('',#479,3.45);
#243=CIRCLE('',#481,3.45);
#244=CIRCLE('',#483,3.3865);
#245=CIRCLE('',#485,4.);
#246=CIRCLE('',#487,4.);
#247=CIRCLE('',#489,3.3865);
#248=CIRCLE('',#491,3.);
#249=CIRCLE('',#494,0.5);
#250=CIRCLE('',#497,0.5);
#251=CIRCLE('',#500,0.5);
#252=EDGE_LOOP('',(#63));
#253=EDGE_LOOP('',(#64,#65,#66,#67));
#254=EDGE_LOOP('',(#68,#69,#70,#71));
#255=EDGE_LOOP('',(#72,#73,#74,#75));
#256=EDGE_LOOP('',(#76));
#257=EDGE_LOOP('',(#77,#78,#79,#80));
#258=EDGE_LOOP('',(#81));
#259=EDGE_LOOP('',(#82));
#260=EDGE_LOOP('',(#83,#84,#85,#86));
#261=EDGE_LOOP('',(#87));
#262=EDGE_LOOP('',(#88));
#263=EDGE_LOOP('',(#89,#90,#91,#92));
#264=EDGE_LOOP('',(#93));
#265=EDGE_LOOP('',(#94));
#266=EDGE_LOOP('',(#95));
#267=EDGE_LOOP('',(#96));
#268=EDGE_LOOP('',(#97));
#269=EDGE_LOOP('',(#98));
#270=EDGE_LOOP('',(#99));
#271=EDGE_LOOP('',(#100));
#272=EDGE_LOOP('',(#101));
#273=EDGE_LOOP('',(#102));
#274=EDGE_LOOP('',(#103));
#275=EDGE_LOOP('',(#104));
#276=EDGE_LOOP('',(#105));
#277=EDGE_LOOP('',(#106));
#278=EDGE_LOOP('',(#107));
#279=EDGE_LOOP('',(#108));
#280=EDGE_LOOP('',(#109));
#281=EDGE_LOOP('',(#110));
#282=EDGE_LOOP('',(#111));
#283=EDGE_LOOP('',(#112));
#284=EDGE_LOOP('',(#113));
#285=EDGE_LOOP('',(#114));
#286=EDGE_LOOP('',(#115));
#287=EDGE_LOOP('',(#116));
#288=EDGE_LOOP('',(#117));
#289=EDGE_LOOP('',(#118));
#290=EDGE_LOOP('',(#119));
#291=EDGE_LOOP('',(#120));
#292=EDGE_LOOP('',(#121));
#293=EDGE_LOOP('',(#122));
#294=EDGE_LOOP('',(#123));
#295=EDGE_LOOP('',(#124));
#296=EDGE_LOOP('',(#125));
#297=EDGE_LOOP('',(#126));
#298=EDGE_LOOP('',(#127));
#299=EDGE_LOOP('',(#128));
#300=EDGE_LOOP('',(#129));
#301=EDGE_LOOP('',(#130));
#302=EDGE_LOOP('',(#131));
#303=EDGE_LOOP('',(#132));
#304=EDGE_LOOP('',(#133));
#305=EDGE_LOOP('',(#134));
#306=EDGE_LOOP('',(#135));
#307=EDGE_LOOP('',(#136));
#308=EDGE_LOOP('',(#137));
#309=EDGE_LOOP('',(#138));
#310=EDGE_LOOP('',(#139));
#311=EDGE_LOOP('',(#140));
#312=EDGE_LOOP('',(#141));
#313=EDGE_LOOP('',(#142));
#314=EDGE_LOOP('',(#143));
#315=EDGE_LOOP('',(#144));
#316=FACE_BOUND('',#252,.T.);
#317=FACE_BOUND('',#253,.T.);
#318=FACE_BOUND('',#254,.T.);
#319=FACE_BOUND('',#255,.T.);
#320=FACE_BOUND('',#256,.T.);
#321=FACE_BOUND('',#257,.T.);
#322=FACE_BOUND('',#258,.T.);
#323=FACE_BOUND('',#259,.T.);
#324=FACE_BOUND('',#260,.T.);
#325=FACE_BOUND('',#261,.T.);
#326=FACE_BOUND('',#262,.T.);
#327=FACE_BOUND('',#263,.T.);
#328=FACE_BOUND('',#264,.T.);
#329=FACE_BOUND('',#265,.T.);
#330=FACE_BOUND('',#266,.T.);
#331=FACE_BOUND('',#267,.T.);
#332=FACE_BOUND('',#268,.T.);
#333=FACE_BOUND('',#269,.T.);
#334=FACE_BOUND('',#270,.T.);
#335=FACE_BOUND('',#271,.T.);
#336=FACE_BOUND('',#272,.T.);
#337=FACE_BOUND('',#273,.T.);
#338=FACE_BOUND('',#274,.T.);
#339=FACE_BOUND('',#275,.T.);
#340=FACE_BOUND('',#276,.T.);
#341=FACE_BOUND('',#277,.T.);
#342=FACE_BOUND('',#278,.T.);
#343=FACE_BOUND('',#279,.T.);
#344=FACE_BOUND('',#280,.T.);
#345=FACE_BOUND('',#281,.T.);
#346=FACE_BOUND('',#282,.T.);
#347=FACE_BOUND('',#283,.T.);
#348=FACE_BOUND('',#284,.T.);
#349=FACE_BOUND('',#285,.T.);
#350=FACE_BOUND('',#286,.T.);
#351=FACE_BOUND('',#287,.T.);
#352=FACE_BOUND('',#288,.T.);
#353=FACE_BOUND('',#289,.T.);
#354=FACE_BOUND('',#290,.T.);
#355=FACE_BOUND('',#291,.T.);
#356=FACE_BOUND('',#292,.T.);
#357=FACE_BOUND('',#293,.T.);
#358=FACE_BOUND('',#294,.T.);
#359=FACE_BOUND('',#295,.T.);
#360=FACE_BOUND('',#296,.T.);
#361=FACE_BOUND('',#297,.T.);
#362=FACE_BOUND('',#298,.T.);
#363=FACE_BOUND('',#299,.T.);
#364=FACE_BOUND('',#300,.T.);
#365=FACE_BOUND('',#301,.T.);
#366=FACE_BOUND('',#302,.T.);
#367=FACE_BOUND('',#303,.T.);
#368=FACE_BOUND('',#304,.T.);
#369=FACE_BOUND('',#305,.T.);
#370=FACE_BOUND('',#306,.T.);
#371=FACE_BOUND('',#307,.T.);
#372=FACE_BOUND('',#308,.T.);
#373=FACE_BOUND('',#309,.T.);
#374=FACE_BOUND('',#310,.T.);
#375=FACE_BOUND('',#311,.T.);
#376=FACE_BOUND('',#312,.T.);
#377=FACE_BOUND('',#313,.T.);
#378=FACE_BOUND('',#314,.T.);
#379=FACE_BOUND('',#315,.T.);
#380=PLANE('',#440);
#381=PLANE('',#442);
#382=PLANE('',#443);
#383=PLANE('',#444);
#384=PLANE('',#446);
#385=PLANE('',#449);
#386=PLANE('',#464);
#387=PLANE('',#465);
#388=PLANE('',#472);
#389=PLANE('',#482);
#390=PLANE('',#490);
#391=PLANE('',#495);
#392=PLANE('',#498);
#393=PLANE('',#501);
#394=ADVANCED_FACE('',(#316,#317),#380,.T.);
#395=ADVANCED_FACE('',(#318),#381,.T.);
#396=ADVANCED_FACE('',(#319),#382,.T.);
#397=ADVANCED_FACE('',(#320,#321),#383,.T.);
#398=ADVANCED_FACE('',(#322,#323,#324),#384,.F.);
#399=ADVANCED_FACE('',(#325,#326,#327),#385,.T.);
#400=ADVANCED_FACE('',(#328,#329),#31,.F.);
#401=ADVANCED_FACE('',(#330,#331),#20,.F.);
#402=ADVANCED_FACE('',(#332,#333),#32,.F.);
#403=ADVANCED_FACE('',(#334,#335),#33,.F.);
#404=ADVANCED_FACE('',(#336,#337),#21,.F.);
#405=ADVANCED_FACE('',(#338,#339),#34,.F.);
#406=ADVANCED_FACE('',(#340,#341),#22,.F.);
#407=ADVANCED_FACE('',(#342),#386,.T.);
#408=ADVANCED_FACE('',(#343,#344,#345,#346),#387,.F.);
#409=ADVANCED_FACE('',(#347,#348),#23,.F.);
#410=ADVANCED_FACE('',(#349,#350),#388,.F.);
#411=ADVANCED_FACE('',(#351,#352),#24,.T.);
#412=ADVANCED_FACE('',(#353,#354),#35,.T.);
#413=ADVANCED_FACE('',(#355,#356),#36,.T.);
#414=ADVANCED_FACE('',(#357,#358),#25,.T.);
#415=ADVANCED_FACE('',(#359,#360),#389,.F.);
#416=ADVANCED_FACE('',(#361,#362),#37,.T.);
#417=ADVANCED_FACE('',(#363,#364),#26,.T.);
#418=ADVANCED_FACE('',(#365,#366),#38,.T.);
#419=ADVANCED_FACE('',(#367,#368),#390,.F.);
#420=ADVANCED_FACE('',(#369,#370),#27,.T.);
#421=ADVANCED_FACE('',(#371,#372),#28,.T.);
#422=ADVANCED_FACE('',(#373),#391,.F.);
#423=ADVANCED_FACE('',(#374,#375),#29,.T.);
#424=ADVANCED_FACE('',(#376),#392,.F.);
#425=ADVANCED_FACE('',(#377,#378),#30,.T.);
#426=ADVANCED_FACE('',(#379),#393,.F.);
#427=CLOSED_SHELL('',(#394,#395,#396,#397,#398,#399,#400,#401,#402,#403,
#404,#405,#406,#407,#408,#409,#410,#411,#412,#413,#414,#415,#416,#417,#418,
#419,#420,#421,#422,#423,#424,#425,#426));
#428=STYLED_ITEM('',(#429),#436);
#429=PRESENTATION_STYLE_ASSIGNMENT((#430));
#430=SURFACE_STYLE_USAGE(.BOTH.,#431);
#431=SURFACE_SIDE_STYLE('',(#432));
#432=SURFACE_STYLE_FILL_AREA(#433);
#433=FILL_AREA_STYLE('',(#434));
#434=FILL_AREA_STYLE_COLOUR('',#435);
#435=COLOUR_RGB('',0.689999997615814,0.689999997615814,0.689999997615814);
#436=MANIFOLD_SOLID_BREP('178295 SIES-Q8B-PS-S-L',#427);
#437=SHAPE_DEFINITION_REPRESENTATION(#758,#438);
#438=SHAPE_REPRESENTATION('178295 SIES-Q8B-PS-S-L',(#439),#753);
#439=AXIS2_PLACEMENT_3D('',#640,#502,#503);
#440=AXIS2_PLACEMENT_3D('',#641,#504,#505);
#441=AXIS2_PLACEMENT_3D('',#642,#506,#507);
#442=AXIS2_PLACEMENT_3D('',#652,#512,#513);
#443=AXIS2_PLACEMENT_3D('',#658,#517,#518);
#444=AXIS2_PLACEMENT_3D('',#664,#522,#523);
#445=AXIS2_PLACEMENT_3D('',#665,#524,#525);
#446=AXIS2_PLACEMENT_3D('',#669,#528,#529);
#447=AXIS2_PLACEMENT_3D('',#670,#530,#531);
#448=AXIS2_PLACEMENT_3D('',#672,#532,#533);
#449=AXIS2_PLACEMENT_3D('',#674,#534,#535);
#450=AXIS2_PLACEMENT_3D('',#675,#536,#537);
#451=AXIS2_PLACEMENT_3D('',#677,#538,#539);
#452=AXIS2_PLACEMENT_3D('',#679,#540,#541);
#453=AXIS2_PLACEMENT_3D('',#680,#542,#543);
#454=AXIS2_PLACEMENT_3D('',#682,#544,#545);
#455=AXIS2_PLACEMENT_3D('',#683,#546,#547);
#456=AXIS2_PLACEMENT_3D('',#685,#548,#549);
#457=AXIS2_PLACEMENT_3D('',#686,#550,#551);
#458=AXIS2_PLACEMENT_3D('',#687,#552,#553);
#459=AXIS2_PLACEMENT_3D('',#689,#554,#555);
#460=AXIS2_PLACEMENT_3D('',#690,#556,#557);
#461=AXIS2_PLACEMENT_3D('',#692,#558,#559);
#462=AXIS2_PLACEMENT_3D('',#693,#560,#561);
#463=AXIS2_PLACEMENT_3D('',#694,#562,#563);
#464=AXIS2_PLACEMENT_3D('',#696,#564,#565);
#465=AXIS2_PLACEMENT_3D('',#697,#566,#567);
#466=AXIS2_PLACEMENT_3D('',#698,#568,#569);
#467=AXIS2_PLACEMENT_3D('',#700,#570,#571);
#468=AXIS2_PLACEMENT_3D('',#702,#572,#573);
#469=AXIS2_PLACEMENT_3D('',#704,#574,#575);
#470=AXIS2_PLACEMENT_3D('',#706,#576,#577);
#471=AXIS2_PLACEMENT_3D('',#707,#578,#579);
#472=AXIS2_PLACEMENT_3D('',#709,#580,#581);
#473=AXIS2_PLACEMENT_3D('',#710,#582,#583);
#474=AXIS2_PLACEMENT_3D('',#712,#584,#585);
#475=AXIS2_PLACEMENT_3D('',#713,#586,#587);
#476=AXIS2_PLACEMENT_3D('',#715,#588,#589);
#477=AXIS2_PLACEMENT_3D('',#716,#590,#591);
#478=AXIS2_PLACEMENT_3D('',#718,#592,#593);
#479=AXIS2_PLACEMENT_3D('',#719,#594,#595);
#480=AXIS2_PLACEMENT_3D('',#721,#596,#597);
#481=AXIS2_PLACEMENT_3D('',#722,#598,#599);
#482=AXIS2_PLACEMENT_3D('',#724,#600,#601);
#483=AXIS2_PLACEMENT_3D('',#725,#602,#603);
#484=AXIS2_PLACEMENT_3D('',#727,#604,#605);
#485=AXIS2_PLACEMENT_3D('',#728,#606,#607);
#486=AXIS2_PLACEMENT_3D('',#730,#608,#609);
#487=AXIS2_PLACEMENT_3D('',#731,#610,#611);
#488=AXIS2_PLACEMENT_3D('',#733,#612,#613);
#489=AXIS2_PLACEMENT_3D('',#734,#614,#615);
#490=AXIS2_PLACEMENT_3D('',#736,#616,#617);
#491=AXIS2_PLACEMENT_3D('',#737,#618,#619);
#492=AXIS2_PLACEMENT_3D('',#739,#620,#621);
#493=AXIS2_PLACEMENT_3D('',#740,#622,#623);
#494=AXIS2_PLACEMENT_3D('',#741,#624,#625);
#495=AXIS2_PLACEMENT_3D('',#743,#626,#627);
#496=AXIS2_PLACEMENT_3D('',#744,#628,#629);
#497=AXIS2_PLACEMENT_3D('',#745,#630,#631);
#498=AXIS2_PLACEMENT_3D('',#747,#632,#633);
#499=AXIS2_PLACEMENT_3D('',#748,#634,#635);
#500=AXIS2_PLACEMENT_3D('',#749,#636,#637);
#501=AXIS2_PLACEMENT_3D('',#751,#638,#639);
#502=DIRECTION('',(0.,0.,1.));
#503=DIRECTION('',(1.,0.,0.));
#504=DIRECTION('',(0.,1.,0.));
#505=DIRECTION('',(0.,0.,1.));
#506=DIRECTION('',(0.,1.,0.));
#507=DIRECTION('',(0.,0.,1.));
#508=DIRECTION('',(0.,0.,1.));
#509=DIRECTION('',(1.,0.,0.));
#510=DIRECTION('',(0.,0.,1.));
#511=DIRECTION('',(1.,0.,0.));
#512=DIRECTION('',(0.,0.,1.));
#513=DIRECTION('',(1.,0.,0.));
#514=DIRECTION('',(0.,-1.,0.));
#515=DIRECTION('',(0.,-1.,0.));
#516=DIRECTION('',(1.,0.,0.));
#517=DIRECTION('',(0.,-1.,0.));
#518=DIRECTION('',(0.,0.,-1.));
#519=DIRECTION('',(0.,0.,-1.));
#520=DIRECTION('',(0.,0.,-1.));
#521=DIRECTION('',(1.,0.,0.));
#522=DIRECTION('',(0.,0.,-1.));
#523=DIRECTION('',(-1.,0.,0.));
#524=DIRECTION('',(0.,0.,1.));
#525=DIRECTION('',(1.,0.,0.));
#526=DIRECTION('',(0.,1.,0.));
#527=DIRECTION('',(0.,1.,0.));
#528=DIRECTION('',(1.,0.,0.));
#529=DIRECTION('',(0.,0.,-1.));
#530=DIRECTION('',(1.,0.,0.));
#531=DIRECTION('',(0.,0.,-1.));
#532=DIRECTION('',(1.,0.,0.));
#533=DIRECTION('',(0.,0.,-1.));
#534=DIRECTION('',(1.,0.,0.));
#535=DIRECTION('',(0.,0.,-1.));
#536=DIRECTION('',(1.,0.,0.));
#537=DIRECTION('',(0.,0.,-1.));
#538=DIRECTION('',(1.,0.,0.));
#539=DIRECTION('',(0.,0.,-1.));
#540=DIRECTION('',(-1.,0.,0.));
#541=DIRECTION('',(0.,0.,1.));
#542=DIRECTION('',(1.,0.,0.));
#543=DIRECTION('',(0.,0.,-1.));
#544=DIRECTION('',(1.,0.,0.));
#545=DIRECTION('',(0.,0.,-1.));
#546=DIRECTION('',(1.,0.,0.));
#547=DIRECTION('',(0.,0.,-1.));
#548=DIRECTION('',(1.,0.,0.));
#549=DIRECTION('',(0.,0.,-1.));
#550=DIRECTION('',(-1.,0.,0.));
#551=DIRECTION('',(0.,0.,1.));
#552=DIRECTION('',(1.,0.,0.));
#553=DIRECTION('',(0.,0.,-1.));
#554=DIRECTION('',(1.,0.,0.));
#555=DIRECTION('',(0.,0.,-1.));
#556=DIRECTION('',(1.,0.,0.));
#557=DIRECTION('',(0.,0.,-1.));
#558=DIRECTION('',(1.,0.,0.));
#559=DIRECTION('',(0.,0.,-1.));
#560=DIRECTION('',(0.,-1.,0.));
#561=DIRECTION('',(0.,0.,-1.));
#562=DIRECTION('',(0.,1.,0.));
#563=DIRECTION('',(1.,0.,0.));
#564=DIRECTION('',(0.,1.,0.));
#565=DIRECTION('',(0.,0.,1.));
#566=DIRECTION('',(0.,0.,1.));
#567=DIRECTION('',(1.,0.,0.));
#568=DIRECTION('',(0.,0.,1.));
#569=DIRECTION('',(1.,0.,0.));
#570=DIRECTION('',(0.,0.,1.));
#571=DIRECTION('',(1.,0.,0.));
#572=DIRECTION('',(0.,0.,1.));
#573=DIRECTION('',(1.,0.,0.));
#574=DIRECTION('',(0.,0.,1.));
#575=DIRECTION('',(1.,0.,0.));
#576=DIRECTION('',(0.,0.,1.));
#577=DIRECTION('',(1.,0.,0.));
#578=DIRECTION('',(0.,0.,1.));
#579=DIRECTION('',(1.,0.,0.));
#580=DIRECTION('',(0.,0.,1.));
#581=DIRECTION('',(1.,0.,0.));
#582=DIRECTION('',(0.,0.,1.));
#583=DIRECTION('',(1.,0.,0.));
#584=DIRECTION('',(0.,0.,1.));
#585=DIRECTION('',(1.,0.,0.));
#586=DIRECTION('',(0.,0.,1.));
#587=DIRECTION('',(1.,0.,0.));
#588=DIRECTION('',(0.,0.,1.));
#589=DIRECTION('',(1.,0.,0.));
#590=DIRECTION('',(0.,0.,1.));
#591=DIRECTION('',(1.,0.,0.));
#592=DIRECTION('',(0.,0.,-1.));
#593=DIRECTION('',(-1.,0.,0.));
#594=DIRECTION('',(0.,0.,1.));
#595=DIRECTION('',(1.,0.,0.));
#596=DIRECTION('',(0.,0.,1.));
#597=DIRECTION('',(1.,0.,0.));
#598=DIRECTION('',(0.,0.,1.));
#599=DIRECTION('',(1.,0.,0.));
#600=DIRECTION('',(0.,0.,-1.));
#601=DIRECTION('',(-1.,0.,0.));
#602=DIRECTION('',(0.,0.,1.));
#603=DIRECTION('',(1.,0.,0.));
#604=DIRECTION('',(0.,0.,1.));
#605=DIRECTION('',(1.,0.,0.));
#606=DIRECTION('',(0.,0.,1.));
#607=DIRECTION('',(1.,0.,0.));
#608=DIRECTION('',(0.,0.,1.));
#609=DIRECTION('',(1.,0.,0.));
#610=DIRECTION('',(0.,0.,1.));
#611=DIRECTION('',(1.,0.,0.));
#612=DIRECTION('',(0.,0.,-1.));
#613=DIRECTION('',(-1.,0.,0.));
#614=DIRECTION('',(0.,0.,1.));
#615=DIRECTION('',(1.,0.,0.));
#616=DIRECTION('',(0.,0.,-1.));
#617=DIRECTION('',(-1.,0.,0.));
#618=DIRECTION('',(0.,0.,1.));
#619=DIRECTION('',(1.,0.,0.));
#620=DIRECTION('',(0.,0.,1.));
#621=DIRECTION('',(1.,0.,0.));
#622=DIRECTION('',(0.,0.,-1.));
#623=DIRECTION('',(-1.,0.,0.));
#624=DIRECTION('',(0.,0.,-1.));
#625=DIRECTION('',(-1.,0.,0.));
#626=DIRECTION('',(0.,0.,1.));
#627=DIRECTION('',(1.,0.,0.));
#628=DIRECTION('',(0.,0.,-1.));
#629=DIRECTION('',(-1.,0.,0.));
#630=DIRECTION('',(0.,0.,-1.));
#631=DIRECTION('',(-1.,0.,0.));
#632=DIRECTION('',(0.,0.,1.));
#633=DIRECTION('',(1.,0.,0.));
#634=DIRECTION('',(0.,0.,-1.));
#635=DIRECTION('',(-1.,0.,0.));
#636=DIRECTION('',(0.,0.,-1.));
#637=DIRECTION('',(-1.,0.,0.));
#638=DIRECTION('',(0.,0.,1.));
#639=DIRECTION('',(1.,0.,0.));
#640=CARTESIAN_POINT('',(0.,0.,0.));
#641=CARTESIAN_POINT('',(-8.,8.,-50.));
#642=CARTESIAN_POINT('',(-4.,8.,-5.));
#643=CARTESIAN_POINT('',(-4.,8.,-3.));
#644=CARTESIAN_POINT('',(0.,8.,-50.));
#645=CARTESIAN_POINT('',(0.,8.,-50.));
#646=CARTESIAN_POINT('',(0.,8.,0.));
#647=CARTESIAN_POINT('',(-8.,8.,-50.));
#648=CARTESIAN_POINT('',(-8.,8.,-50.));
#649=CARTESIAN_POINT('',(-8.,8.,-50.));
#650=CARTESIAN_POINT('',(-8.,8.,0.));
#651=CARTESIAN_POINT('',(-8.,8.,0.));
#652=CARTESIAN_POINT('',(-8.,8.,0.));
#653=CARTESIAN_POINT('',(0.,8.,0.));
#654=CARTESIAN_POINT('',(0.,0.,0.));
#655=CARTESIAN_POINT('',(-8.,8.,0.));
#656=CARTESIAN_POINT('',(-8.,0.,0.));
#657=CARTESIAN_POINT('',(-8.,0.,0.));
#658=CARTESIAN_POINT('',(-8.,0.,0.));
#659=CARTESIAN_POINT('',(0.,0.,0.));
#660=CARTESIAN_POINT('',(0.,0.,-50.));
#661=CARTESIAN_POINT('',(-8.,0.,0.));
#662=CARTESIAN_POINT('',(-8.,0.,-50.));
#663=CARTESIAN_POINT('',(-8.,0.,-50.));
#664=CARTESIAN_POINT('',(-8.,0.,-50.));
#665=CARTESIAN_POINT('',(-4.,4.,-50.));
#666=CARTESIAN_POINT('',(-1.,4.,-50.));
#667=CARTESIAN_POINT('',(0.,0.,-50.));
#668=CARTESIAN_POINT('',(-8.,0.,-50.));
#669=CARTESIAN_POINT('',(-8.,0.,0.));
#670=CARTESIAN_POINT('',(-8.,5.,-30.));
#671=CARTESIAN_POINT('',(-8.,5.,-31.5));
#672=CARTESIAN_POINT('',(-8.,5.,-10.));
#673=CARTESIAN_POINT('',(-8.,5.,-11.5));
#674=CARTESIAN_POINT('',(0.,0.,0.));
#675=CARTESIAN_POINT('',(1.95156391047391E-15,5.,-30.));
#676=CARTESIAN_POINT('',(1.95156391047391E-15,5.,-31.5));
#677=CARTESIAN_POINT('',(7.04731412115578E-16,5.,-10.));
#678=CARTESIAN_POINT('',(7.04731412115578E-16,5.,-11.5));
#679=CARTESIAN_POINT('',(-8.,5.,-10.));
#680=CARTESIAN_POINT('',(-7.7295,5.,-10.));
#681=CARTESIAN_POINT('',(-7.7295,5.,-11.2295));
#682=CARTESIAN_POINT('',(6.12323399573677E-16,5.,-10.));
#683=CARTESIAN_POINT('',(-0.270499999999999,5.,-10.));
#684=CARTESIAN_POINT('',(-0.270499999999999,5.,-11.2295));
#685=CARTESIAN_POINT('',(-0.270499999999999,5.,-10.));
#686=CARTESIAN_POINT('',(-8.,5.,-30.));
#687=CARTESIAN_POINT('',(-7.7295,5.,-30.));
#688=CARTESIAN_POINT('',(-7.7295,5.,-31.2295));
#689=CARTESIAN_POINT('',(1.83697019872103E-15,5.,-30.));
#690=CARTESIAN_POINT('',(-0.270499999999996,5.,-30.));
#691=CARTESIAN_POINT('',(-0.270499999999996,5.,-31.2295));
#692=CARTESIAN_POINT('',(-0.270499999999996,5.,-30.));
#693=CARTESIAN_POINT('',(-4.,8.1,-5.));
#694=CARTESIAN_POINT('',(-4.,7.9,-5.));
#695=CARTESIAN_POINT('',(-2.,7.9,-5.));
#696=CARTESIAN_POINT('',(-4.,7.9,-5.));
#697=CARTESIAN_POINT('',(-4.,4.,-54.));
#698=CARTESIAN_POINT('',(-4.,4.,-54.));
#699=CARTESIAN_POINT('',(-1.1,4.,-54.));
#700=CARTESIAN_POINT('',(-4.,5.75,-54.));
#701=CARTESIAN_POINT('',(-3.5,5.75,-54.));
#702=CARTESIAN_POINT('',(-5.75,4.,-54.));
#703=CARTESIAN_POINT('',(-5.25,4.,-54.));
#704=CARTESIAN_POINT('',(-2.25,4.,-54.));
#705=CARTESIAN_POINT('',(-1.75,4.,-54.));
#706=CARTESIAN_POINT('',(-4.,4.,-50.));
#707=CARTESIAN_POINT('',(-4.,4.,-59.));
#708=CARTESIAN_POINT('',(-1.1,4.,-59.));
#709=CARTESIAN_POINT('',(-4.,1.1,-59.));
#710=CARTESIAN_POINT('',(-4.,4.,-59.));
#711=CARTESIAN_POINT('',(-0.55,4.,-59.));
#712=CARTESIAN_POINT('',(-4.,4.,-50.));
#713=CARTESIAN_POINT('',(-4.,4.,-57.5));
#714=CARTESIAN_POINT('',(-0.55,4.,-57.5));
#715=CARTESIAN_POINT('',(-4.,4.,-57.5));
#716=CARTESIAN_POINT('',(-4.,4.,-57.25));
#717=CARTESIAN_POINT('',(-0.3,4.,-57.25));
#718=CARTESIAN_POINT('',(-4.,4.,-57.25));
#719=CARTESIAN_POINT('',(-4.,4.,-57.));
#720=CARTESIAN_POINT('',(-0.55,4.,-57.));
#721=CARTESIAN_POINT('',(-4.,4.,-50.));
#722=CARTESIAN_POINT('',(-4.,4.,-56.));
#723=CARTESIAN_POINT('',(-0.55,4.,-56.));
#724=CARTESIAN_POINT('',(-4.,0.55,-56.));
#725=CARTESIAN_POINT('',(-4.,4.,-56.));
#726=CARTESIAN_POINT('',(-0.6135,4.,-56.));
#727=CARTESIAN_POINT('',(-4.,4.,-56.));
#728=CARTESIAN_POINT('',(-4.,4.,-55.3865));
#729=CARTESIAN_POINT('',(0.,4.,-55.3865));
#730=CARTESIAN_POINT('',(-4.,4.,-50.));
#731=CARTESIAN_POINT('',(-4.,4.,-52.6135));
#732=CARTESIAN_POINT('',(0.,4.,-52.6135));
#733=CARTESIAN_POINT('',(-4.,4.,-52.6135));
#734=CARTESIAN_POINT('',(-4.,4.,-52.));
#735=CARTESIAN_POINT('',(-0.6135,4.,-52.));
#736=CARTESIAN_POINT('',(-4.,0.6135,-52.));
#737=CARTESIAN_POINT('',(-4.,4.,-52.));
#738=CARTESIAN_POINT('',(-1.,4.,-52.));
#739=CARTESIAN_POINT('',(-4.,4.,-50.));
#740=CARTESIAN_POINT('',(-2.25,4.,-58.7));
#741=CARTESIAN_POINT('',(-2.25,4.,-58.7));
#742=CARTESIAN_POINT('',(-2.75,4.,-58.7));
#743=CARTESIAN_POINT('',(-2.25,4.5,-58.7));
#744=CARTESIAN_POINT('',(-5.75,4.,-58.7));
#745=CARTESIAN_POINT('',(-5.75,4.,-58.7));
#746=CARTESIAN_POINT('',(-6.25,4.,-58.7));
#747=CARTESIAN_POINT('',(-5.75,4.5,-58.7));
#748=CARTESIAN_POINT('',(-4.,5.75,-58.7));
#749=CARTESIAN_POINT('',(-4.,5.75,-58.7));
#750=CARTESIAN_POINT('',(-4.5,5.75,-58.7));
#751=CARTESIAN_POINT('',(-4.,6.25,-58.7));
#752=MECHANICAL_DESIGN_GEOMETRIC_PRESENTATION_REPRESENTATION('',(#428),
#753);
#753=(
GEOMETRIC_REPRESENTATION_CONTEXT(3)
GLOBAL_UNCERTAINTY_ASSIGNED_CONTEXT((#754))
GLOBAL_UNIT_ASSIGNED_CONTEXT((#757,#756,#755))
REPRESENTATION_CONTEXT('178295 SIES-Q8B-PS-S-L',
'TOP_LEVEL_ASSEMBLY_PART')
);
#754=UNCERTAINTY_MEASURE_WITH_UNIT(LENGTH_MEASURE(0.005),#757,
'DISTANCE_ACCURACY_VALUE','Maximum Tolerance applied to model');
#755=(
NAMED_UNIT(*)
SI_UNIT($,.STERADIAN.)
SOLID_ANGLE_UNIT()
);
#756=(
NAMED_UNIT(*)
PLANE_ANGLE_UNIT()
SI_UNIT($,.RADIAN.)
);
#757=(
LENGTH_UNIT()
NAMED_UNIT(*)
SI_UNIT(.MILLI.,.METRE.)
);
#758=PRODUCT_DEFINITION_SHAPE('','',#759);
#759=PRODUCT_DEFINITION('','',#761,#760);
#760=PRODUCT_DEFINITION_CONTEXT('',#767,'design');
#761=PRODUCT_DEFINITION_FORMATION_WITH_SPECIFIED_SOURCE('','',#763,
 .NOT_KNOWN.);
#762=PRODUCT_RELATED_PRODUCT_CATEGORY('','',(#763));
#763=PRODUCT('178295 SIES-Q8B-PS-S-L','178295 SIES-Q8B-PS-S-L',
'178295 SIES-Q8B-PS-S-L',(#765));
#764=PRODUCT_CATEGORY('','');
#765=PRODUCT_CONTEXT('',#767,'mechanical');
#766=APPLICATION_PROTOCOL_DEFINITION('international standard',
'automotive_design',2010,#767);
#767=APPLICATION_CONTEXT(
'core data for automotive mechanical design processes');
ENDSEC;
END-ISO-10303-21;
