ISO-10303-21;
HEADER;
/* Generated by software containing ST-Developer
 * from STEP Tools, Inc. (www.steptools.com) 
 */
/* OPTION: using custom renumber hook */

FILE_DESCRIPTION(
/* description */ ('STEP AP214'),
/* implementation_level */ '2;1');

FILE_NAME(
/* name */ '183897_MA-23-10-R1_8',
/* time_stamp */ '2024-09-05T02:48:51+02:00',
/* author */ ('License CC BY-ND 4.0'),
/* organization */ ('CADENAS'),
/* preprocessor_version */ 'ST-DEVELOPER v19.3',
/* originating_system */ 'PARTsolutions',
/* authorisation */ '  ');

FILE_SCHEMA (('AUTOMOTIVE_DESIGN {1 0 10303 214 3 1 1}'));
ENDSEC;

DATA;
#10=PROPERTY_DEFINITION_REPRESENTATION(#14,#12);
#11=PROPERTY_DEFINITION_REPRESENTATION(#15,#13);
#12=REPRESENTATION('',(#16),#391);
#13=REPRESENTATION('',(#17),#391);
#14=PROPERTY_DEFINITION('pmi validation property','',#396);
#15=PROPERTY_DEFINITION('pmi validation property','',#396);
#16=VALUE_REPRESENTATION_ITEM('number of annotations',COUNT_MEASURE(0.));
#17=VALUE_REPRESENTATION_ITEM('number of views',COUNT_MEASURE(0.));
#18=SHAPE_REPRESENTATION_RELATIONSHIP('','',#242,#19);
#19=ADVANCED_BREP_SHAPE_REPRESENTATION('',(#240),#391);
#20=CYLINDRICAL_SURFACE('',#250,11.5);
#21=CONICAL_SURFACE('',#248,10.7230364849708,0.0872664625997162);
#22=CONICAL_SURFACE('',#263,4.15812183247441,0.785398163397448);
#23=CONICAL_SURFACE('',#265,4.75784491228169,0.0312094049979787);
#24=TOROIDAL_SURFACE('',#246,9.22874443783315,1.5);
#25=LINE('',#334,#43);
#26=LINE('',#337,#44);
#27=LINE('',#339,#45);
#28=LINE('',#341,#46);
#29=LINE('',#343,#47);
#30=LINE('',#345,#48);
#31=LINE('',#357,#49);
#32=LINE('',#360,#50);
#33=LINE('',#361,#51);
#34=LINE('',#363,#52);
#35=LINE('',#365,#53);
#36=LINE('',#367,#54);
#37=LINE('',#369,#55);
#38=LINE('',#371,#56);
#39=LINE('',#373,#57);
#40=LINE('',#375,#58);
#41=LINE('',#377,#59);
#42=LINE('',#379,#60);
#43=VECTOR('',#272,1000.);
#44=VECTOR('',#273,1000.);
#45=VECTOR('',#274,1000.);
#46=VECTOR('',#275,1000.);
#47=VECTOR('',#276,1000.);
#48=VECTOR('',#277,1000.);
#49=VECTOR('',#294,1000.);
#50=VECTOR('',#295,1000.);
#51=VECTOR('',#296,1000.);
#52=VECTOR('',#299,1000.);
#53=VECTOR('',#300,1000.);
#54=VECTOR('',#303,1000.);
#55=VECTOR('',#304,1000.);
#56=VECTOR('',#307,1000.);
#57=VECTOR('',#308,1000.);
#58=VECTOR('',#311,1000.);
#59=VECTOR('',#312,1000.);
#60=VECTOR('',#315,1000.);
#61=ORIENTED_EDGE('',*,*,#111,.F.);
#62=ORIENTED_EDGE('',*,*,#112,.T.);
#63=ORIENTED_EDGE('',*,*,#113,.T.);
#64=ORIENTED_EDGE('',*,*,#114,.T.);
#65=ORIENTED_EDGE('',*,*,#115,.T.);
#66=ORIENTED_EDGE('',*,*,#116,.T.);
#67=ORIENTED_EDGE('',*,*,#117,.F.);
#68=ORIENTED_EDGE('',*,*,#111,.T.);
#69=ORIENTED_EDGE('',*,*,#118,.F.);
#70=ORIENTED_EDGE('',*,*,#119,.F.);
#71=ORIENTED_EDGE('',*,*,#118,.T.);
#72=ORIENTED_EDGE('',*,*,#120,.F.);
#73=ORIENTED_EDGE('',*,*,#119,.T.);
#74=ORIENTED_EDGE('',*,*,#120,.T.);
#75=ORIENTED_EDGE('',*,*,#121,.T.);
#76=ORIENTED_EDGE('',*,*,#122,.F.);
#77=ORIENTED_EDGE('',*,*,#112,.F.);
#78=ORIENTED_EDGE('',*,*,#123,.T.);
#79=ORIENTED_EDGE('',*,*,#124,.T.);
#80=ORIENTED_EDGE('',*,*,#125,.F.);
#81=ORIENTED_EDGE('',*,*,#113,.F.);
#82=ORIENTED_EDGE('',*,*,#122,.T.);
#83=ORIENTED_EDGE('',*,*,#126,.T.);
#84=ORIENTED_EDGE('',*,*,#127,.F.);
#85=ORIENTED_EDGE('',*,*,#114,.F.);
#86=ORIENTED_EDGE('',*,*,#125,.T.);
#87=ORIENTED_EDGE('',*,*,#128,.T.);
#88=ORIENTED_EDGE('',*,*,#129,.F.);
#89=ORIENTED_EDGE('',*,*,#115,.F.);
#90=ORIENTED_EDGE('',*,*,#127,.T.);
#91=ORIENTED_EDGE('',*,*,#130,.T.);
#92=ORIENTED_EDGE('',*,*,#131,.F.);
#93=ORIENTED_EDGE('',*,*,#116,.F.);
#94=ORIENTED_EDGE('',*,*,#129,.T.);
#95=ORIENTED_EDGE('',*,*,#132,.T.);
#96=ORIENTED_EDGE('',*,*,#123,.F.);
#97=ORIENTED_EDGE('',*,*,#117,.T.);
#98=ORIENTED_EDGE('',*,*,#131,.T.);
#99=ORIENTED_EDGE('',*,*,#133,.F.);
#100=ORIENTED_EDGE('',*,*,#121,.F.);
#101=ORIENTED_EDGE('',*,*,#132,.F.);
#102=ORIENTED_EDGE('',*,*,#130,.F.);
#103=ORIENTED_EDGE('',*,*,#128,.F.);
#104=ORIENTED_EDGE('',*,*,#126,.F.);
#105=ORIENTED_EDGE('',*,*,#124,.F.);
#106=ORIENTED_EDGE('',*,*,#134,.F.);
#107=ORIENTED_EDGE('',*,*,#135,.F.);
#108=ORIENTED_EDGE('',*,*,#134,.T.);
#109=ORIENTED_EDGE('',*,*,#133,.T.);
#110=ORIENTED_EDGE('',*,*,#135,.T.);
#111=EDGE_CURVE('',#136,#136,#155,.T.);
#112=EDGE_CURVE('',#137,#138,#25,.T.);
#113=EDGE_CURVE('',#138,#139,#26,.T.);
#114=EDGE_CURVE('',#139,#140,#27,.T.);
#115=EDGE_CURVE('',#140,#141,#28,.T.);
#116=EDGE_CURVE('',#141,#142,#29,.T.);
#117=EDGE_CURVE('',#137,#142,#30,.T.);
#118=EDGE_CURVE('',#143,#143,#156,.T.);
#119=EDGE_CURVE('',#144,#144,#157,.T.);
#120=EDGE_CURVE('',#145,#145,#158,.T.);
#121=EDGE_CURVE('',#146,#147,#31,.T.);
#122=EDGE_CURVE('',#138,#147,#32,.T.);
#123=EDGE_CURVE('',#137,#146,#33,.T.);
#124=EDGE_CURVE('',#147,#148,#34,.T.);
#125=EDGE_CURVE('',#139,#148,#35,.T.);
#126=EDGE_CURVE('',#148,#149,#36,.T.);
#127=EDGE_CURVE('',#140,#149,#37,.T.);
#128=EDGE_CURVE('',#149,#150,#38,.T.);
#129=EDGE_CURVE('',#141,#150,#39,.T.);
#130=EDGE_CURVE('',#150,#151,#40,.T.);
#131=EDGE_CURVE('',#142,#151,#41,.T.);
#132=EDGE_CURVE('',#151,#146,#42,.T.);
#133=EDGE_CURVE('',#152,#152,#159,.F.);
#134=EDGE_CURVE('',#153,#153,#160,.T.);
#135=EDGE_CURVE('',#154,#154,#161,.T.);
#136=VERTEX_POINT('',#333);
#137=VERTEX_POINT('',#335);
#138=VERTEX_POINT('',#336);
#139=VERTEX_POINT('',#338);
#140=VERTEX_POINT('',#340);
#141=VERTEX_POINT('',#342);
#142=VERTEX_POINT('',#344);
#143=VERTEX_POINT('',#348);
#144=VERTEX_POINT('',#351);
#145=VERTEX_POINT('',#354);
#146=VERTEX_POINT('',#358);
#147=VERTEX_POINT('',#359);
#148=VERTEX_POINT('',#364);
#149=VERTEX_POINT('',#368);
#150=VERTEX_POINT('',#372);
#151=VERTEX_POINT('',#376);
#152=VERTEX_POINT('',#382);
#153=VERTEX_POINT('',#385);
#154=VERTEX_POINT('',#388);
#155=CIRCLE('',#245,9.22874443783315);
#156=CIRCLE('',#247,10.7230364849708);
#157=CIRCLE('',#249,11.5);
#158=CIRCLE('',#251,11.5);
#159=CIRCLE('',#260,5.05131725128838);
#160=CIRCLE('',#262,4.15812183247441);
#161=CIRCLE('',#264,4.75784491228169);
#162=EDGE_LOOP('',(#61));
#163=EDGE_LOOP('',(#62,#63,#64,#65,#66,#67));
#164=EDGE_LOOP('',(#68));
#165=EDGE_LOOP('',(#69));
#166=EDGE_LOOP('',(#70));
#167=EDGE_LOOP('',(#71));
#168=EDGE_LOOP('',(#72));
#169=EDGE_LOOP('',(#73));
#170=EDGE_LOOP('',(#74));
#171=EDGE_LOOP('',(#75,#76,#77,#78));
#172=EDGE_LOOP('',(#79,#80,#81,#82));
#173=EDGE_LOOP('',(#83,#84,#85,#86));
#174=EDGE_LOOP('',(#87,#88,#89,#90));
#175=EDGE_LOOP('',(#91,#92,#93,#94));
#176=EDGE_LOOP('',(#95,#96,#97,#98));
#177=EDGE_LOOP('',(#99));
#178=EDGE_LOOP('',(#100,#101,#102,#103,#104,#105));
#179=EDGE_LOOP('',(#106));
#180=EDGE_LOOP('',(#107));
#181=EDGE_LOOP('',(#108));
#182=EDGE_LOOP('',(#109));
#183=EDGE_LOOP('',(#110));
#184=FACE_BOUND('',#162,.T.);
#185=FACE_BOUND('',#163,.T.);
#186=FACE_BOUND('',#164,.T.);
#187=FACE_BOUND('',#165,.T.);
#188=FACE_BOUND('',#166,.T.);
#189=FACE_BOUND('',#167,.T.);
#190=FACE_BOUND('',#168,.T.);
#191=FACE_BOUND('',#169,.T.);
#192=FACE_BOUND('',#170,.T.);
#193=FACE_BOUND('',#171,.T.);
#194=FACE_BOUND('',#172,.T.);
#195=FACE_BOUND('',#173,.T.);
#196=FACE_BOUND('',#174,.T.);
#197=FACE_BOUND('',#175,.T.);
#198=FACE_BOUND('',#176,.T.);
#199=FACE_BOUND('',#177,.T.);
#200=FACE_BOUND('',#178,.T.);
#201=FACE_BOUND('',#179,.T.);
#202=FACE_BOUND('',#180,.T.);
#203=FACE_BOUND('',#181,.T.);
#204=FACE_BOUND('',#182,.T.);
#205=FACE_BOUND('',#183,.T.);
#206=PLANE('',#244);
#207=PLANE('',#252);
#208=PLANE('',#253);
#209=PLANE('',#254);
#210=PLANE('',#255);
#211=PLANE('',#256);
#212=PLANE('',#257);
#213=PLANE('',#258);
#214=PLANE('',#259);
#215=PLANE('',#261);
#216=ADVANCED_FACE('',(#184,#185),#206,.F.);
#217=ADVANCED_FACE('',(#186,#187),#24,.T.);
#218=ADVANCED_FACE('',(#188,#189),#21,.T.);
#219=ADVANCED_FACE('',(#190,#191),#20,.T.);
#220=ADVANCED_FACE('',(#192),#207,.F.);
#221=ADVANCED_FACE('',(#193),#208,.F.);
#222=ADVANCED_FACE('',(#194),#209,.F.);
#223=ADVANCED_FACE('',(#195),#210,.F.);
#224=ADVANCED_FACE('',(#196),#211,.F.);
#225=ADVANCED_FACE('',(#197),#212,.F.);
#226=ADVANCED_FACE('',(#198),#213,.F.);
#227=ADVANCED_FACE('',(#199,#200),#214,.F.);
#228=ADVANCED_FACE('',(#201),#215,.F.);
#229=ADVANCED_FACE('',(#202,#203),#22,.T.);
#230=ADVANCED_FACE('',(#204,#205),#23,.T.);
#231=CLOSED_SHELL('',(#216,#217,#218,#219,#220,#221,#222,#223,#224,#225,
#226,#227,#228,#229,#230));
#232=STYLED_ITEM('',(#233),#240);
#233=PRESENTATION_STYLE_ASSIGNMENT((#234));
#234=SURFACE_STYLE_USAGE(.BOTH.,#235);
#235=SURFACE_SIDE_STYLE('',(#236));
#236=SURFACE_STYLE_FILL_AREA(#237);
#237=FILL_AREA_STYLE('',(#238));
#238=FILL_AREA_STYLE_COLOUR('',#239);
#239=COLOUR_RGB('',0.689999997615814,0.689999997615814,0.689999997615814);
#240=MANIFOLD_SOLID_BREP('183897 MA-23-10-R1/8',#231);
#241=SHAPE_DEFINITION_REPRESENTATION(#396,#242);
#242=SHAPE_REPRESENTATION('183897 MA-23-10-R1/8',(#243),#391);
#243=AXIS2_PLACEMENT_3D('',#330,#266,#267);
#244=AXIS2_PLACEMENT_3D('',#331,#268,#269);
#245=AXIS2_PLACEMENT_3D('',#332,#270,#271);
#246=AXIS2_PLACEMENT_3D('',#346,#278,#279);
#247=AXIS2_PLACEMENT_3D('',#347,#280,#281);
#248=AXIS2_PLACEMENT_3D('',#349,#282,#283);
#249=AXIS2_PLACEMENT_3D('',#350,#284,#285);
#250=AXIS2_PLACEMENT_3D('',#352,#286,#287);
#251=AXIS2_PLACEMENT_3D('',#353,#288,#289);
#252=AXIS2_PLACEMENT_3D('',#355,#290,#291);
#253=AXIS2_PLACEMENT_3D('',#356,#292,#293);
#254=AXIS2_PLACEMENT_3D('',#362,#297,#298);
#255=AXIS2_PLACEMENT_3D('',#366,#301,#302);
#256=AXIS2_PLACEMENT_3D('',#370,#305,#306);
#257=AXIS2_PLACEMENT_3D('',#374,#309,#310);
#258=AXIS2_PLACEMENT_3D('',#378,#313,#314);
#259=AXIS2_PLACEMENT_3D('',#380,#316,#317);
#260=AXIS2_PLACEMENT_3D('',#381,#318,#319);
#261=AXIS2_PLACEMENT_3D('',#383,#320,#321);
#262=AXIS2_PLACEMENT_3D('',#384,#322,#323);
#263=AXIS2_PLACEMENT_3D('',#386,#324,#325);
#264=AXIS2_PLACEMENT_3D('',#387,#326,#327);
#265=AXIS2_PLACEMENT_3D('',#389,#328,#329);
#266=DIRECTION('',(0.,0.,1.));
#267=DIRECTION('',(1.,0.,0.));
#268=DIRECTION('',(1.,0.,0.));
#269=DIRECTION('',(0.,0.,-1.));
#270=DIRECTION('',(1.,0.,0.));
#271=DIRECTION('',(0.,0.,-1.));
#272=DIRECTION('',(0.,-0.866025403784438,0.5));
#273=DIRECTION('',(0.,-0.866025403784439,-0.5));
#274=DIRECTION('',(0.,1.07308185624083E-16,-1.));
#275=DIRECTION('',(0.,0.866025403784438,-0.5));
#276=DIRECTION('',(0.,0.866025403784439,0.5));
#277=DIRECTION('',(0.,1.07308185624083E-16,-1.));
#278=DIRECTION('',(1.,0.,0.));
#279=DIRECTION('',(0.,0.,-1.));
#280=DIRECTION('',(1.,0.,0.));
#281=DIRECTION('',(0.,0.,-1.));
#282=DIRECTION('',(1.,0.,0.));
#283=DIRECTION('',(0.,0.,-1.));
#284=DIRECTION('',(1.,0.,0.));
#285=DIRECTION('',(0.,0.,-1.));
#286=DIRECTION('',(1.,0.,0.));
#287=DIRECTION('',(0.,0.,-1.));
#288=DIRECTION('',(1.,0.,0.));
#289=DIRECTION('',(0.,0.,-1.));
#290=DIRECTION('',(-1.,0.,0.));
#291=DIRECTION('',(0.,0.,1.));
#292=DIRECTION('',(0.,-0.5,-0.866025403784438));
#293=DIRECTION('',(0.,0.866025403784438,-0.5));
#294=DIRECTION('',(0.,-0.866025403784438,0.5));
#295=DIRECTION('',(-1.,0.,0.));
#296=DIRECTION('',(-1.,0.,0.));
#297=DIRECTION('',(0.,0.5,-0.866025403784439));
#298=DIRECTION('',(0.,0.866025403784439,0.5));
#299=DIRECTION('',(0.,-0.866025403784439,-0.5));
#300=DIRECTION('',(-1.,0.,0.));
#301=DIRECTION('',(0.,1.,1.07308185624083E-16));
#302=DIRECTION('',(0.,-1.07308185624083E-16,1.));
#303=DIRECTION('',(0.,1.07308185624083E-16,-1.));
#304=DIRECTION('',(-1.,0.,0.));
#305=DIRECTION('',(0.,0.5,0.866025403784438));
#306=DIRECTION('',(0.,-0.866025403784438,0.5));
#307=DIRECTION('',(0.,0.866025403784438,-0.5));
#308=DIRECTION('',(-1.,0.,0.));
#309=DIRECTION('',(0.,-0.5,0.866025403784439));
#310=DIRECTION('',(0.,-0.866025403784439,-0.5));
#311=DIRECTION('',(0.,0.866025403784439,0.5));
#312=DIRECTION('',(-1.,0.,0.));
#313=DIRECTION('',(0.,-1.,-1.07308185624083E-16));
#314=DIRECTION('',(0.,1.07308185624083E-16,-1.));
#315=DIRECTION('',(0.,-1.07308185624083E-16,1.));
#316=DIRECTION('',(1.,0.,0.));
#317=DIRECTION('',(0.,0.,-1.));
#318=DIRECTION('',(1.,0.,0.));
#319=DIRECTION('',(0.,0.,-1.));
#320=DIRECTION('',(1.,0.,0.));
#321=DIRECTION('',(0.,0.,-1.));
#322=DIRECTION('',(1.,0.,0.));
#323=DIRECTION('',(0.,0.,-1.));
#324=DIRECTION('',(1.,0.,0.));
#325=DIRECTION('',(0.,0.,-1.));
#326=DIRECTION('',(1.,0.,0.));
#327=DIRECTION('',(0.,0.,-1.));
#328=DIRECTION('',(1.,0.,0.));
#329=DIRECTION('',(0.,0.,-1.));
#330=CARTESIAN_POINT('',(0.,0.,0.));
#331=CARTESIAN_POINT('',(3.,0.,0.));
#332=CARTESIAN_POINT('',(3.,0.,0.));
#333=CARTESIAN_POINT('',(3.,0.,-9.22874443783315));
#334=CARTESIAN_POINT('',(3.,7.,4.04145188432738));
#335=CARTESIAN_POINT('',(3.,7.,4.04145188432738));
#336=CARTESIAN_POINT('',(3.,1.30104260698261E-15,8.08290376865476));
#337=CARTESIAN_POINT('',(3.,8.88178419700125E-16,8.08290376865476));
#338=CARTESIAN_POINT('',(3.,-7.,4.04145188432738));
#339=CARTESIAN_POINT('',(3.,-7.,4.04145188432738));
#340=CARTESIAN_POINT('',(3.,-7.,-4.04145188432738));
#341=CARTESIAN_POINT('',(3.,-7.,-4.04145188432738));
#342=CARTESIAN_POINT('',(3.,-1.30104260698261E-15,-8.08290376865476));
#343=CARTESIAN_POINT('',(3.,-8.88178419700125E-16,-8.08290376865476));
#344=CARTESIAN_POINT('',(3.,7.,-4.04145188432738));
#345=CARTESIAN_POINT('',(3.,7.,7.5115729936858E-16));
#346=CARTESIAN_POINT('',(4.5,0.,0.));
#347=CARTESIAN_POINT('',(4.36926638587851,0.,0.));
#348=CARTESIAN_POINT('',(4.36926638587851,0.,-10.7230364849708));
#349=CARTESIAN_POINT('',(4.36926638587851,0.,0.));
#350=CARTESIAN_POINT('',(13.25,0.,0.));
#351=CARTESIAN_POINT('',(13.25,0.,-11.5));
#352=CARTESIAN_POINT('',(17.,0.,0.));
#353=CARTESIAN_POINT('',(17.,0.,0.));
#354=CARTESIAN_POINT('',(17.,0.,-11.5));
#355=CARTESIAN_POINT('',(17.,11.5,0.));
#356=CARTESIAN_POINT('',(3.,7.,4.04145188432738));
#357=CARTESIAN_POINT('',(0.,7.,4.04145188432738));
#358=CARTESIAN_POINT('',(0.,7.,4.04145188432738));
#359=CARTESIAN_POINT('',(0.,8.88178419700125E-16,8.08290376865476));
#360=CARTESIAN_POINT('',(3.,8.88178419700125E-16,8.08290376865476));
#361=CARTESIAN_POINT('',(3.,7.,4.04145188432738));
#362=CARTESIAN_POINT('',(3.,8.88178419700125E-16,8.08290376865476));
#363=CARTESIAN_POINT('',(0.,8.88178419700125E-16,8.08290376865476));
#364=CARTESIAN_POINT('',(0.,-7.,4.04145188432738));
#365=CARTESIAN_POINT('',(3.,-7.,4.04145188432738));
#366=CARTESIAN_POINT('',(3.,-7.,4.04145188432738));
#367=CARTESIAN_POINT('',(0.,-7.,4.04145188432738));
#368=CARTESIAN_POINT('',(0.,-7.,-4.04145188432738));
#369=CARTESIAN_POINT('',(3.,-7.,-4.04145188432738));
#370=CARTESIAN_POINT('',(3.,-7.,-4.04145188432738));
#371=CARTESIAN_POINT('',(0.,-7.,-4.04145188432738));
#372=CARTESIAN_POINT('',(0.,-8.67361737988404E-16,-8.08290376865476));
#373=CARTESIAN_POINT('',(3.,-8.67361737988404E-16,-8.08290376865476));
#374=CARTESIAN_POINT('',(3.,-8.88178419700125E-16,-8.08290376865476));
#375=CARTESIAN_POINT('',(0.,-8.88178419700125E-16,-8.08290376865476));
#376=CARTESIAN_POINT('',(0.,7.,-4.04145188432738));
#377=CARTESIAN_POINT('',(3.,7.,-4.04145188432738));
#378=CARTESIAN_POINT('',(3.,7.,-4.04145188432738));
#379=CARTESIAN_POINT('',(0.,7.,-4.04145188432738));
#380=CARTESIAN_POINT('',(0.,0.,0.));
#381=CARTESIAN_POINT('',(0.,0.,0.));
#382=CARTESIAN_POINT('',(0.,0.,-5.05131725128838));
#383=CARTESIAN_POINT('',(-10.,0.,0.));
#384=CARTESIAN_POINT('',(-10.,0.,0.));
#385=CARTESIAN_POINT('',(-10.,0.,-4.15812183247441));
#386=CARTESIAN_POINT('',(-10.,0.,0.));
#387=CARTESIAN_POINT('',(-9.40027692019272,0.,0.));
#388=CARTESIAN_POINT('',(-9.40027692019272,0.,-4.75784491228169));
#389=CARTESIAN_POINT('',(-9.40027692019272,0.,0.));
#390=MECHANICAL_DESIGN_GEOMETRIC_PRESENTATION_REPRESENTATION('',(#232),
#391);
#391=(
GEOMETRIC_REPRESENTATION_CONTEXT(3)
GLOBAL_UNCERTAINTY_ASSIGNED_CONTEXT((#392))
GLOBAL_UNIT_ASSIGNED_CONTEXT((#395,#394,#393))
REPRESENTATION_CONTEXT('183897 MA-23-10-R1/8','TOP_LEVEL_ASSEMBLY_PART')
);
#392=UNCERTAINTY_MEASURE_WITH_UNIT(LENGTH_MEASURE(0.005),#395,
'DISTANCE_ACCURACY_VALUE','Maximum Tolerance applied to model');
#393=(
NAMED_UNIT(*)
SI_UNIT($,.STERADIAN.)
SOLID_ANGLE_UNIT()
);
#394=(
NAMED_UNIT(*)
PLANE_ANGLE_UNIT()
SI_UNIT($,.RADIAN.)
);
#395=(
LENGTH_UNIT()
NAMED_UNIT(*)
SI_UNIT(.MILLI.,.METRE.)
);
#396=PRODUCT_DEFINITION_SHAPE('','',#397);
#397=PRODUCT_DEFINITION('','',#399,#398);
#398=PRODUCT_DEFINITION_CONTEXT('',#405,'design');
#399=PRODUCT_DEFINITION_FORMATION_WITH_SPECIFIED_SOURCE('','',#401,
 .NOT_KNOWN.);
#400=PRODUCT_RELATED_PRODUCT_CATEGORY('','',(#401));
#401=PRODUCT('183897 MA-23-10-R1/8','183897 MA-23-10-R1/8',
'183897 MA-23-10-R1/8',(#403));
#402=PRODUCT_CATEGORY('','');
#403=PRODUCT_CONTEXT('',#405,'mechanical');
#404=APPLICATION_PROTOCOL_DEFINITION('international standard',
'automotive_design',2010,#405);
#405=APPLICATION_CONTEXT(
'core data for automotive mechanical design processes');
ENDSEC;
END-ISO-10303-21;
