ISO-10303-21;
HEADER;
/* Generated by software containing ST-Developer
 * from STEP Tools, Inc. (www.steptools.com) 
 */
/* OPTION: using custom renumber hook */

FILE_DESCRIPTION(
/* description */ ('STEP AP214'),
/* implementation_level */ '2;1');

FILE_NAME(
/* name */ '183901_MA-40-16-G1_4-EN',
/* time_stamp */ '2024-09-05T03:16:29+02:00',
/* author */ ('License CC BY-ND 4.0'),
/* organization */ ('CADENAS'),
/* preprocessor_version */ 'ST-DEVELOPER v19.3',
/* originating_system */ 'PARTsolutions',
/* authorisation */ '  ');

FILE_SCHEMA (('AUTOMOTIVE_DESIGN {1 0 10303 214 3 1 1}'));
ENDSEC;

DATA;
#10=PROPERTY_DEFINITION_REPRESENTATION(#14,#12);
#11=PROPERTY_DEFINITION_REPRESENTATION(#15,#13);
#12=REPRESENTATION('',(#16),#465);
#13=REPRESENTATION('',(#17),#465);
#14=PROPERTY_DEFINITION('pmi validation property','',#470);
#15=PROPERTY_DEFINITION('pmi validation property','',#470);
#16=VALUE_REPRESENTATION_ITEM('number of annotations',COUNT_MEASURE(0.));
#17=VALUE_REPRESENTATION_ITEM('number of views',COUNT_MEASURE(0.));
#18=SHAPE_REPRESENTATION_RELATIONSHIP('','',#277,#19);
#19=ADVANCED_BREP_SHAPE_REPRESENTATION('',(#275),#465);
#20=CONICAL_SURFACE('',#298,5.7225,0.785398163397448);
#21=CONICAL_SURFACE('',#302,6.5785,0.785398163397449);
#22=CYLINDRICAL_SURFACE('',#285,20.5);
#23=CYLINDRICAL_SURFACE('',#296,5.7225);
#24=CYLINDRICAL_SURFACE('',#300,6.5785);
#25=CYLINDRICAL_SURFACE('',#306,4.65);
#26=CYLINDRICAL_SURFACE('',#310,4.25);
#27=TOROIDAL_SURFACE('',#283,20.,0.500000000000007);
#28=TOROIDAL_SURFACE('',#287,17.5,3.);
#29=TOROIDAL_SURFACE('',#294,6.2225,0.5);
#30=CIRCLE('',#280,17.5);
#31=CIRCLE('',#282,20.);
#32=CIRCLE('',#284,20.5);
#33=CIRCLE('',#286,20.5);
#34=CIRCLE('',#293,6.2225);
#35=CIRCLE('',#295,5.7225);
#36=CIRCLE('',#297,5.7225);
#37=CIRCLE('',#299,6.5785);
#38=CIRCLE('',#301,6.5785);
#39=CIRCLE('',#303,5.7225);
#40=CIRCLE('',#305,4.65);
#41=CIRCLE('',#307,4.65);
#42=CIRCLE('',#309,4.25);
#43=CIRCLE('',#311,4.25);
#44=ORIENTED_EDGE('',*,*,#96,.F.);
#45=ORIENTED_EDGE('',*,*,#97,.F.);
#46=ORIENTED_EDGE('',*,*,#98,.F.);
#47=ORIENTED_EDGE('',*,*,#99,.F.);
#48=ORIENTED_EDGE('',*,*,#100,.T.);
#49=ORIENTED_EDGE('',*,*,#101,.F.);
#50=ORIENTED_EDGE('',*,*,#101,.T.);
#51=ORIENTED_EDGE('',*,*,#102,.F.);
#52=ORIENTED_EDGE('',*,*,#103,.F.);
#53=ORIENTED_EDGE('',*,*,#102,.T.);
#54=ORIENTED_EDGE('',*,*,#103,.T.);
#55=ORIENTED_EDGE('',*,*,#100,.F.);
#56=ORIENTED_EDGE('',*,*,#98,.T.);
#57=ORIENTED_EDGE('',*,*,#104,.F.);
#58=ORIENTED_EDGE('',*,*,#105,.F.);
#59=ORIENTED_EDGE('',*,*,#106,.T.);
#60=ORIENTED_EDGE('',*,*,#97,.T.);
#61=ORIENTED_EDGE('',*,*,#107,.F.);
#62=ORIENTED_EDGE('',*,*,#108,.F.);
#63=ORIENTED_EDGE('',*,*,#104,.T.);
#64=ORIENTED_EDGE('',*,*,#107,.T.);
#65=ORIENTED_EDGE('',*,*,#96,.T.);
#66=ORIENTED_EDGE('',*,*,#109,.F.);
#67=ORIENTED_EDGE('',*,*,#110,.F.);
#68=ORIENTED_EDGE('',*,*,#99,.T.);
#69=ORIENTED_EDGE('',*,*,#106,.F.);
#70=ORIENTED_EDGE('',*,*,#111,.F.);
#71=ORIENTED_EDGE('',*,*,#109,.T.);
#72=ORIENTED_EDGE('',*,*,#112,.F.);
#73=ORIENTED_EDGE('',*,*,#105,.T.);
#74=ORIENTED_EDGE('',*,*,#108,.T.);
#75=ORIENTED_EDGE('',*,*,#110,.T.);
#76=ORIENTED_EDGE('',*,*,#111,.T.);
#77=ORIENTED_EDGE('',*,*,#113,.F.);
#78=ORIENTED_EDGE('',*,*,#112,.T.);
#79=ORIENTED_EDGE('',*,*,#114,.F.);
#80=ORIENTED_EDGE('',*,*,#113,.T.);
#81=ORIENTED_EDGE('',*,*,#115,.F.);
#82=ORIENTED_EDGE('',*,*,#114,.T.);
#83=ORIENTED_EDGE('',*,*,#116,.F.);
#84=ORIENTED_EDGE('',*,*,#115,.T.);
#85=ORIENTED_EDGE('',*,*,#117,.F.);
#86=ORIENTED_EDGE('',*,*,#116,.T.);
#87=ORIENTED_EDGE('',*,*,#118,.F.);
#88=ORIENTED_EDGE('',*,*,#117,.T.);
#89=ORIENTED_EDGE('',*,*,#119,.F.);
#90=ORIENTED_EDGE('',*,*,#118,.T.);
#91=ORIENTED_EDGE('',*,*,#120,.F.);
#92=ORIENTED_EDGE('',*,*,#119,.T.);
#93=ORIENTED_EDGE('',*,*,#121,.F.);
#94=ORIENTED_EDGE('',*,*,#120,.T.);
#95=ORIENTED_EDGE('',*,*,#121,.T.);
#96=EDGE_CURVE('',#122,#123,#144,.T.);
#97=EDGE_CURVE('',#124,#122,#145,.T.);
#98=EDGE_CURVE('',#125,#124,#146,.T.);
#99=EDGE_CURVE('',#123,#125,#147,.T.);
#100=EDGE_CURVE('',#126,#126,#30,.T.);
#101=EDGE_CURVE('',#127,#127,#31,.T.);
#102=EDGE_CURVE('',#128,#128,#32,.T.);
#103=EDGE_CURVE('',#129,#129,#33,.T.);
#104=EDGE_CURVE('',#130,#124,#148,.T.);
#105=EDGE_CURVE('',#131,#130,#149,.T.);
#106=EDGE_CURVE('',#131,#125,#150,.T.);
#107=EDGE_CURVE('',#132,#122,#151,.T.);
#108=EDGE_CURVE('',#130,#132,#152,.T.);
#109=EDGE_CURVE('',#133,#123,#153,.T.);
#110=EDGE_CURVE('',#132,#133,#154,.T.);
#111=EDGE_CURVE('',#133,#131,#155,.T.);
#112=EDGE_CURVE('',#134,#134,#34,.T.);
#113=EDGE_CURVE('',#135,#135,#35,.T.);
#114=EDGE_CURVE('',#136,#136,#36,.T.);
#115=EDGE_CURVE('',#137,#137,#37,.T.);
#116=EDGE_CURVE('',#138,#138,#38,.T.);
#117=EDGE_CURVE('',#139,#139,#39,.T.);
#118=EDGE_CURVE('',#140,#140,#40,.T.);
#119=EDGE_CURVE('',#141,#141,#41,.T.);
#120=EDGE_CURVE('',#142,#142,#42,.T.);
#121=EDGE_CURVE('',#143,#143,#43,.T.);
#122=VERTEX_POINT('',#398);
#123=VERTEX_POINT('',#399);
#124=VERTEX_POINT('',#401);
#125=VERTEX_POINT('',#403);
#126=VERTEX_POINT('',#406);
#127=VERTEX_POINT('',#409);
#128=VERTEX_POINT('',#412);
#129=VERTEX_POINT('',#415);
#130=VERTEX_POINT('',#419);
#131=VERTEX_POINT('',#421);
#132=VERTEX_POINT('',#425);
#133=VERTEX_POINT('',#429);
#134=VERTEX_POINT('',#435);
#135=VERTEX_POINT('',#438);
#136=VERTEX_POINT('',#441);
#137=VERTEX_POINT('',#444);
#138=VERTEX_POINT('',#447);
#139=VERTEX_POINT('',#450);
#140=VERTEX_POINT('',#453);
#141=VERTEX_POINT('',#456);
#142=VERTEX_POINT('',#459);
#143=VERTEX_POINT('',#462);
#144=LINE('',#397,#156);
#145=LINE('',#400,#157);
#146=LINE('',#402,#158);
#147=LINE('',#404,#159);
#148=LINE('',#418,#160);
#149=LINE('',#420,#161);
#150=LINE('',#422,#162);
#151=LINE('',#424,#163);
#152=LINE('',#426,#164);
#153=LINE('',#428,#165);
#154=LINE('',#430,#166);
#155=LINE('',#432,#167);
#156=VECTOR('',#317,1000.);
#157=VECTOR('',#318,1000.);
#158=VECTOR('',#319,1000.);
#159=VECTOR('',#320,1000.);
#160=VECTOR('',#339,1000.);
#161=VECTOR('',#340,1000.);
#162=VECTOR('',#341,1000.);
#163=VECTOR('',#344,1000.);
#164=VECTOR('',#345,1000.);
#165=VECTOR('',#348,1000.);
#166=VECTOR('',#349,1000.);
#167=VECTOR('',#352,1000.);
#168=EDGE_LOOP('',(#44,#45,#46,#47));
#169=EDGE_LOOP('',(#48));
#170=EDGE_LOOP('',(#49));
#171=EDGE_LOOP('',(#50));
#172=EDGE_LOOP('',(#51));
#173=EDGE_LOOP('',(#52));
#174=EDGE_LOOP('',(#53));
#175=EDGE_LOOP('',(#54));
#176=EDGE_LOOP('',(#55));
#177=EDGE_LOOP('',(#56,#57,#58,#59));
#178=EDGE_LOOP('',(#60,#61,#62,#63));
#179=EDGE_LOOP('',(#64,#65,#66,#67));
#180=EDGE_LOOP('',(#68,#69,#70,#71));
#181=EDGE_LOOP('',(#72));
#182=EDGE_LOOP('',(#73,#74,#75,#76));
#183=EDGE_LOOP('',(#77));
#184=EDGE_LOOP('',(#78));
#185=EDGE_LOOP('',(#79));
#186=EDGE_LOOP('',(#80));
#187=EDGE_LOOP('',(#81));
#188=EDGE_LOOP('',(#82));
#189=EDGE_LOOP('',(#83));
#190=EDGE_LOOP('',(#84));
#191=EDGE_LOOP('',(#85));
#192=EDGE_LOOP('',(#86));
#193=EDGE_LOOP('',(#87));
#194=EDGE_LOOP('',(#88));
#195=EDGE_LOOP('',(#89));
#196=EDGE_LOOP('',(#90));
#197=EDGE_LOOP('',(#91));
#198=EDGE_LOOP('',(#92));
#199=EDGE_LOOP('',(#93));
#200=EDGE_LOOP('',(#94));
#201=EDGE_LOOP('',(#95));
#202=FACE_BOUND('',#168,.T.);
#203=FACE_BOUND('',#169,.T.);
#204=FACE_BOUND('',#170,.T.);
#205=FACE_BOUND('',#171,.T.);
#206=FACE_BOUND('',#172,.T.);
#207=FACE_BOUND('',#173,.T.);
#208=FACE_BOUND('',#174,.T.);
#209=FACE_BOUND('',#175,.T.);
#210=FACE_BOUND('',#176,.T.);
#211=FACE_BOUND('',#177,.T.);
#212=FACE_BOUND('',#178,.T.);
#213=FACE_BOUND('',#179,.T.);
#214=FACE_BOUND('',#180,.T.);
#215=FACE_BOUND('',#181,.T.);
#216=FACE_BOUND('',#182,.T.);
#217=FACE_BOUND('',#183,.T.);
#218=FACE_BOUND('',#184,.T.);
#219=FACE_BOUND('',#185,.T.);
#220=FACE_BOUND('',#186,.T.);
#221=FACE_BOUND('',#187,.T.);
#222=FACE_BOUND('',#188,.T.);
#223=FACE_BOUND('',#189,.T.);
#224=FACE_BOUND('',#190,.T.);
#225=FACE_BOUND('',#191,.T.);
#226=FACE_BOUND('',#192,.T.);
#227=FACE_BOUND('',#193,.T.);
#228=FACE_BOUND('',#194,.T.);
#229=FACE_BOUND('',#195,.T.);
#230=FACE_BOUND('',#196,.T.);
#231=FACE_BOUND('',#197,.T.);
#232=FACE_BOUND('',#198,.T.);
#233=FACE_BOUND('',#199,.T.);
#234=FACE_BOUND('',#200,.T.);
#235=FACE_BOUND('',#201,.T.);
#236=PLANE('',#279);
#237=PLANE('',#281);
#238=PLANE('',#288);
#239=PLANE('',#289);
#240=PLANE('',#290);
#241=PLANE('',#291);
#242=PLANE('',#292);
#243=PLANE('',#304);
#244=PLANE('',#308);
#245=PLANE('',#312);
#246=ADVANCED_FACE('',(#202,#203),#236,.F.);
#247=ADVANCED_FACE('',(#204),#237,.F.);
#248=ADVANCED_FACE('',(#205,#206),#27,.T.);
#249=ADVANCED_FACE('',(#207,#208),#22,.T.);
#250=ADVANCED_FACE('',(#209,#210),#28,.T.);
#251=ADVANCED_FACE('',(#211),#238,.F.);
#252=ADVANCED_FACE('',(#212),#239,.F.);
#253=ADVANCED_FACE('',(#213),#240,.F.);
#254=ADVANCED_FACE('',(#214),#241,.F.);
#255=ADVANCED_FACE('',(#215,#216),#242,.T.);
#256=ADVANCED_FACE('',(#217,#218),#29,.F.);
#257=ADVANCED_FACE('',(#219,#220),#23,.T.);
#258=ADVANCED_FACE('',(#221,#222),#20,.T.);
#259=ADVANCED_FACE('',(#223,#224),#24,.T.);
#260=ADVANCED_FACE('',(#225,#226),#21,.T.);
#261=ADVANCED_FACE('',(#227,#228),#243,.F.);
#262=ADVANCED_FACE('',(#229,#230),#25,.T.);
#263=ADVANCED_FACE('',(#231,#232),#244,.F.);
#264=ADVANCED_FACE('',(#233,#234),#26,.T.);
#265=ADVANCED_FACE('',(#235),#245,.F.);
#266=CLOSED_SHELL('',(#246,#247,#248,#249,#250,#251,#252,#253,#254,#255,
#256,#257,#258,#259,#260,#261,#262,#263,#264,#265));
#267=STYLED_ITEM('',(#268),#275);
#268=PRESENTATION_STYLE_ASSIGNMENT((#269));
#269=SURFACE_STYLE_USAGE(.BOTH.,#270);
#270=SURFACE_SIDE_STYLE('',(#271));
#271=SURFACE_STYLE_FILL_AREA(#272);
#272=FILL_AREA_STYLE('',(#273));
#273=FILL_AREA_STYLE_COLOUR('',#274);
#274=COLOUR_RGB('',0.689999997615814,0.689999997615814,0.689999997615814);
#275=MANIFOLD_SOLID_BREP('183901 MA-40-16-G1/4-EN',#266);
#276=SHAPE_DEFINITION_REPRESENTATION(#470,#277);
#277=SHAPE_REPRESENTATION('183901 MA-40-16-G1/4-EN',(#278),#465);
#278=AXIS2_PLACEMENT_3D('',#395,#313,#314);
#279=AXIS2_PLACEMENT_3D('',#396,#315,#316);
#280=AXIS2_PLACEMENT_3D('',#405,#321,#322);
#281=AXIS2_PLACEMENT_3D('',#407,#323,#324);
#282=AXIS2_PLACEMENT_3D('',#408,#325,#326);
#283=AXIS2_PLACEMENT_3D('',#410,#327,#328);
#284=AXIS2_PLACEMENT_3D('',#411,#329,#330);
#285=AXIS2_PLACEMENT_3D('',#413,#331,#332);
#286=AXIS2_PLACEMENT_3D('',#414,#333,#334);
#287=AXIS2_PLACEMENT_3D('',#416,#335,#336);
#288=AXIS2_PLACEMENT_3D('',#417,#337,#338);
#289=AXIS2_PLACEMENT_3D('',#423,#342,#343);
#290=AXIS2_PLACEMENT_3D('',#427,#346,#347);
#291=AXIS2_PLACEMENT_3D('',#431,#350,#351);
#292=AXIS2_PLACEMENT_3D('',#433,#353,#354);
#293=AXIS2_PLACEMENT_3D('',#434,#355,#356);
#294=AXIS2_PLACEMENT_3D('',#436,#357,#358);
#295=AXIS2_PLACEMENT_3D('',#437,#359,#360);
#296=AXIS2_PLACEMENT_3D('',#439,#361,#362);
#297=AXIS2_PLACEMENT_3D('',#440,#363,#364);
#298=AXIS2_PLACEMENT_3D('',#442,#365,#366);
#299=AXIS2_PLACEMENT_3D('',#443,#367,#368);
#300=AXIS2_PLACEMENT_3D('',#445,#369,#370);
#301=AXIS2_PLACEMENT_3D('',#446,#371,#372);
#302=AXIS2_PLACEMENT_3D('',#448,#373,#374);
#303=AXIS2_PLACEMENT_3D('',#449,#375,#376);
#304=AXIS2_PLACEMENT_3D('',#451,#377,#378);
#305=AXIS2_PLACEMENT_3D('',#452,#379,#380);
#306=AXIS2_PLACEMENT_3D('',#454,#381,#382);
#307=AXIS2_PLACEMENT_3D('',#455,#383,#384);
#308=AXIS2_PLACEMENT_3D('',#457,#385,#386);
#309=AXIS2_PLACEMENT_3D('',#458,#387,#388);
#310=AXIS2_PLACEMENT_3D('',#460,#389,#390);
#311=AXIS2_PLACEMENT_3D('',#461,#391,#392);
#312=AXIS2_PLACEMENT_3D('',#463,#393,#394);
#313=DIRECTION('',(0.,0.,1.));
#314=DIRECTION('',(1.,0.,0.));
#315=DIRECTION('',(-1.,0.,0.));
#316=DIRECTION('',(0.,0.,1.));
#317=DIRECTION('',(0.,0.,1.));
#318=DIRECTION('',(0.,1.,0.));
#319=DIRECTION('',(0.,0.,-1.));
#320=DIRECTION('',(0.,-1.,0.));
#321=DIRECTION('',(1.,0.,0.));
#322=DIRECTION('',(0.,0.,-1.));
#323=DIRECTION('',(1.,0.,0.));
#324=DIRECTION('',(0.,0.,-1.));
#325=DIRECTION('',(1.,0.,0.));
#326=DIRECTION('',(0.,0.,-1.));
#327=DIRECTION('',(1.,0.,0.));
#328=DIRECTION('',(0.,0.,-1.));
#329=DIRECTION('',(1.,0.,0.));
#330=DIRECTION('',(0.,0.,-1.));
#331=DIRECTION('',(1.,0.,0.));
#332=DIRECTION('',(0.,0.,-1.));
#333=DIRECTION('',(1.,0.,0.));
#334=DIRECTION('',(0.,0.,-1.));
#335=DIRECTION('',(1.,0.,0.));
#336=DIRECTION('',(0.,0.,-1.));
#337=DIRECTION('',(0.,1.,0.));
#338=DIRECTION('',(0.,0.,1.));
#339=DIRECTION('',(-1.,0.,0.));
#340=DIRECTION('',(0.,0.,-1.));
#341=DIRECTION('',(-1.,0.,0.));
#342=DIRECTION('',(0.,0.,1.));
#343=DIRECTION('',(1.,0.,0.));
#344=DIRECTION('',(-1.,0.,0.));
#345=DIRECTION('',(0.,1.,0.));
#346=DIRECTION('',(0.,-1.,0.));
#347=DIRECTION('',(0.,0.,-1.));
#348=DIRECTION('',(-1.,0.,0.));
#349=DIRECTION('',(0.,0.,1.));
#350=DIRECTION('',(0.,0.,-1.));
#351=DIRECTION('',(-1.,0.,0.));
#352=DIRECTION('',(0.,-1.,0.));
#353=DIRECTION('',(1.,0.,0.));
#354=DIRECTION('',(0.,0.,-1.));
#355=DIRECTION('',(1.,5.133979304625E-17,0.));
#356=DIRECTION('',(-5.133979304625E-17,1.,0.));
#357=DIRECTION('',(1.,5.133979304625E-17,0.));
#358=DIRECTION('',(-5.133979304625E-17,1.,0.));
#359=DIRECTION('',(1.,5.133979304625E-17,0.));
#360=DIRECTION('',(-5.133979304625E-17,1.,0.));
#361=DIRECTION('',(1.,5.133979304625E-17,0.));
#362=DIRECTION('',(-5.133979304625E-17,1.,0.));
#363=DIRECTION('',(1.,5.133979304625E-17,0.));
#364=DIRECTION('',(-5.133979304625E-17,1.,0.));
#365=DIRECTION('',(1.,5.133979304625E-17,0.));
#366=DIRECTION('',(-5.133979304625E-17,1.,0.));
#367=DIRECTION('',(1.,5.133979304625E-17,0.));
#368=DIRECTION('',(-5.133979304625E-17,1.,0.));
#369=DIRECTION('',(1.,5.133979304625E-17,0.));
#370=DIRECTION('',(-5.133979304625E-17,1.,0.));
#371=DIRECTION('',(1.,5.133979304625E-17,0.));
#372=DIRECTION('',(-5.133979304625E-17,1.,0.));
#373=DIRECTION('',(-1.,-5.133979304625E-17,0.));
#374=DIRECTION('',(5.133979304625E-17,-1.,0.));
#375=DIRECTION('',(1.,5.133979304625E-17,0.));
#376=DIRECTION('',(-5.133979304625E-17,1.,0.));
#377=DIRECTION('',(-1.,-5.133979304625E-17,0.));
#378=DIRECTION('',(5.133979304625E-17,-1.,0.));
#379=DIRECTION('',(1.,5.133979304625E-17,0.));
#380=DIRECTION('',(-5.133979304625E-17,1.,0.));
#381=DIRECTION('',(1.,5.133979304625E-17,0.));
#382=DIRECTION('',(-5.133979304625E-17,1.,0.));
#383=DIRECTION('',(1.,5.133979304625E-17,0.));
#384=DIRECTION('',(-5.133979304625E-17,1.,0.));
#385=DIRECTION('',(-1.,-5.133979304625E-17,0.));
#386=DIRECTION('',(5.133979304625E-17,-1.,0.));
#387=DIRECTION('',(1.,5.133979304625E-17,0.));
#388=DIRECTION('',(-5.133979304625E-17,1.,0.));
#389=DIRECTION('',(1.,5.133979304625E-17,0.));
#390=DIRECTION('',(-5.133979304625E-17,1.,0.));
#391=DIRECTION('',(1.,5.133979304625E-17,0.));
#392=DIRECTION('',(-5.133979304625E-17,1.,0.));
#393=DIRECTION('',(-1.,-5.133979304625E-17,0.));
#394=DIRECTION('',(5.133979304625E-17,-1.,0.));
#395=CARTESIAN_POINT('',(0.,0.,0.));
#396=CARTESIAN_POINT('',(-8.,17.5,0.));
#397=CARTESIAN_POINT('',(-8.,7.,0.));
#398=CARTESIAN_POINT('',(-8.,7.,-7.));
#399=CARTESIAN_POINT('',(-8.,7.,7.));
#400=CARTESIAN_POINT('',(-8.,-7.,-7.));
#401=CARTESIAN_POINT('',(-8.,-7.,-7.));
#402=CARTESIAN_POINT('',(-8.,-7.,7.));
#403=CARTESIAN_POINT('',(-8.,-7.,7.));
#404=CARTESIAN_POINT('',(-8.,7.,7.));
#405=CARTESIAN_POINT('',(-8.,0.,0.));
#406=CARTESIAN_POINT('',(-8.,0.,-17.5));
#407=CARTESIAN_POINT('',(-33.5,0.,0.));
#408=CARTESIAN_POINT('',(-33.5,0.,0.));
#409=CARTESIAN_POINT('',(-33.5,0.,-20.));
#410=CARTESIAN_POINT('',(-33.,0.,0.));
#411=CARTESIAN_POINT('',(-33.,0.,0.));
#412=CARTESIAN_POINT('',(-33.,0.,-20.5));
#413=CARTESIAN_POINT('',(-8.,0.,0.));
#414=CARTESIAN_POINT('',(-11.,0.,0.));
#415=CARTESIAN_POINT('',(-11.,0.,-20.5));
#416=CARTESIAN_POINT('',(-11.,0.,0.));
#417=CARTESIAN_POINT('',(-3.46944695195361E-15,-7.,7.));
#418=CARTESIAN_POINT('',(-3.46944695195361E-15,-7.,-7.));
#419=CARTESIAN_POINT('',(-3.46944695195361E-15,-7.,-7.));
#420=CARTESIAN_POINT('',(-3.46944695195361E-15,-7.,7.));
#421=CARTESIAN_POINT('',(-3.46944695195361E-15,-7.,7.));
#422=CARTESIAN_POINT('',(-3.46944695195361E-15,-7.,7.));
#423=CARTESIAN_POINT('',(-3.46944695195361E-15,-7.,-7.));
#424=CARTESIAN_POINT('',(-3.46944695195361E-15,7.,-7.));
#425=CARTESIAN_POINT('',(-3.46944695195361E-15,7.,-7.));
#426=CARTESIAN_POINT('',(-3.46944695195361E-15,-7.,-7.));
#427=CARTESIAN_POINT('',(-3.46944695195361E-15,7.,-7.));
#428=CARTESIAN_POINT('',(-3.46944695195361E-15,7.,7.));
#429=CARTESIAN_POINT('',(-3.46944695195361E-15,7.,7.));
#430=CARTESIAN_POINT('',(-3.46944695195361E-15,7.,-7.));
#431=CARTESIAN_POINT('',(-3.46944695195361E-15,7.,7.));
#432=CARTESIAN_POINT('',(-3.46944695195361E-15,7.,7.));
#433=CARTESIAN_POINT('',(-3.46944695195361E-15,0.,0.));
#434=CARTESIAN_POINT('',(-3.46944695195361E-15,-8.67361737988404E-16,0.));
#435=CARTESIAN_POINT('',(-3.7889088141839E-15,6.2225,0.));
#436=CARTESIAN_POINT('',(0.5,-8.67361737988404E-16,0.));
#437=CARTESIAN_POINT('',(0.5,-8.62508523177E-16,0.));
#438=CARTESIAN_POINT('',(0.5,5.7225,0.));
#439=CARTESIAN_POINT('',(17.3,0.,0.));
#440=CARTESIAN_POINT('',(2.,-7.85498833607625E-16,0.));
#441=CARTESIAN_POINT('',(2.,5.7225,0.));
#442=CARTESIAN_POINT('',(2.,-7.85498833607625E-16,0.));
#443=CARTESIAN_POINT('',(2.856,-7.41551970760035E-16,0.));
#444=CARTESIAN_POINT('',(2.856,6.5785,0.));
#445=CARTESIAN_POINT('',(17.3,0.,0.));
#446=CARTESIAN_POINT('',(10.144,-3.67387559038965E-16,0.));
#447=CARTESIAN_POINT('',(10.144,6.5785,0.));
#448=CARTESIAN_POINT('',(10.144,-3.67387559038965E-16,0.));
#449=CARTESIAN_POINT('',(11.,-3.23440696191375E-16,0.));
#450=CARTESIAN_POINT('',(11.,5.7225,0.));
#451=CARTESIAN_POINT('',(11.,5.7225,0.));
#452=CARTESIAN_POINT('',(11.,-3.23440696191375E-16,0.));
#453=CARTESIAN_POINT('',(11.,4.65,0.));
#454=CARTESIAN_POINT('',(17.3,0.,0.));
#455=CARTESIAN_POINT('',(13.,-2.20761110098875E-16,0.));
#456=CARTESIAN_POINT('',(13.,4.65,0.));
#457=CARTESIAN_POINT('',(13.,4.65,0.));
#458=CARTESIAN_POINT('',(13.,-2.20761110098875E-16,0.));
#459=CARTESIAN_POINT('',(13.,4.25,0.));
#460=CARTESIAN_POINT('',(17.3,0.,0.));
#461=CARTESIAN_POINT('',(17.3,1.12020409876351E-32,0.));
#462=CARTESIAN_POINT('',(17.3,4.25,0.));
#463=CARTESIAN_POINT('',(17.3,4.25,0.));
#464=MECHANICAL_DESIGN_GEOMETRIC_PRESENTATION_REPRESENTATION('',(#267),
#465);
#465=(
GEOMETRIC_REPRESENTATION_CONTEXT(3)
GLOBAL_UNCERTAINTY_ASSIGNED_CONTEXT((#466))
GLOBAL_UNIT_ASSIGNED_CONTEXT((#469,#468,#467))
REPRESENTATION_CONTEXT('183901 MA-40-16-G1/4-EN',
'TOP_LEVEL_ASSEMBLY_PART')
);
#466=UNCERTAINTY_MEASURE_WITH_UNIT(LENGTH_MEASURE(0.005),#469,
'DISTANCE_ACCURACY_VALUE','Maximum Tolerance applied to model');
#467=(
NAMED_UNIT(*)
SI_UNIT($,.STERADIAN.)
SOLID_ANGLE_UNIT()
);
#468=(
NAMED_UNIT(*)
PLANE_ANGLE_UNIT()
SI_UNIT($,.RADIAN.)
);
#469=(
LENGTH_UNIT()
NAMED_UNIT(*)
SI_UNIT(.MILLI.,.METRE.)
);
#470=PRODUCT_DEFINITION_SHAPE('','',#471);
#471=PRODUCT_DEFINITION('','',#473,#472);
#472=PRODUCT_DEFINITION_CONTEXT('',#479,'design');
#473=PRODUCT_DEFINITION_FORMATION_WITH_SPECIFIED_SOURCE('','',#475,
 .NOT_KNOWN.);
#474=PRODUCT_RELATED_PRODUCT_CATEGORY('','',(#475));
#475=PRODUCT('183901 MA-40-16-G1/4-EN','183901 MA-40-16-G1/4-EN',
'183901 MA-40-16-G1/4-EN',(#477));
#476=PRODUCT_CATEGORY('','');
#477=PRODUCT_CONTEXT('',#479,'mechanical');
#478=APPLICATION_PROTOCOL_DEFINITION('international standard',
'automotive_design',2010,#479);
#479=APPLICATION_CONTEXT(
'core data for automotive mechanical design processes');
ENDSEC;
END-ISO-10303-21;
