ISO-10303-21;
HEADER;
/* Generated by software containing ST-Developer
 * from STEP Tools, Inc. (www.steptools.com) 
 */
/* OPTION: using custom renumber hook */

FILE_DESCRIPTION(
/* description */ ('STEP AP214'),
/* implementation_level */ '2;1');

FILE_NAME(
/* name */ '18576_IBS-6X10',
/* time_stamp */ '2024-08-29T13:49:29+02:00',
/* author */ ('License CC BY-ND 4.0'),
/* organization */ ('CADENAS'),
/* preprocessor_version */ 'ST-DEVELOPER v19.3',
/* originating_system */ 'PARTsolutions',
/* authorisation */ '  ');

FILE_SCHEMA (('AUTOMOTIVE_DESIGN {1 0 10303 214 3 1 1}'));
ENDSEC;

DATA;
#10=PROPERTY_DEFINITION_REPRESENTATION(#14,#12);
#11=PROPERTY_DEFINITION_REPRESENTATION(#15,#13);
#12=REPRESENTATION('',(#16),#647);
#13=REPRESENTATION('',(#17),#647);
#14=PROPERTY_DEFINITION('pmi validation property','',#652);
#15=PROPERTY_DEFINITION('pmi validation property','',#652);
#16=VALUE_REPRESENTATION_ITEM('number of annotations',COUNT_MEASURE(0.));
#17=VALUE_REPRESENTATION_ITEM('number of views',COUNT_MEASURE(0.));
#18=SHAPE_REPRESENTATION_RELATIONSHIP('','',#417,#19);
#19=ADVANCED_BREP_SHAPE_REPRESENTATION('',(#415),#647);
#20=ORIENTED_EDGE('',*,*,#128,.T.);
#21=ORIENTED_EDGE('',*,*,#129,.F.);
#22=ORIENTED_EDGE('',*,*,#130,.F.);
#23=ORIENTED_EDGE('',*,*,#131,.T.);
#24=ORIENTED_EDGE('',*,*,#132,.T.);
#25=ORIENTED_EDGE('',*,*,#133,.F.);
#26=ORIENTED_EDGE('',*,*,#134,.F.);
#27=ORIENTED_EDGE('',*,*,#129,.T.);
#28=ORIENTED_EDGE('',*,*,#135,.T.);
#29=ORIENTED_EDGE('',*,*,#136,.F.);
#30=ORIENTED_EDGE('',*,*,#137,.F.);
#31=ORIENTED_EDGE('',*,*,#133,.T.);
#32=ORIENTED_EDGE('',*,*,#138,.T.);
#33=ORIENTED_EDGE('',*,*,#139,.F.);
#34=ORIENTED_EDGE('',*,*,#140,.F.);
#35=ORIENTED_EDGE('',*,*,#136,.T.);
#36=ORIENTED_EDGE('',*,*,#141,.T.);
#37=ORIENTED_EDGE('',*,*,#142,.F.);
#38=ORIENTED_EDGE('',*,*,#143,.F.);
#39=ORIENTED_EDGE('',*,*,#139,.T.);
#40=ORIENTED_EDGE('',*,*,#144,.T.);
#41=ORIENTED_EDGE('',*,*,#145,.F.);
#42=ORIENTED_EDGE('',*,*,#146,.F.);
#43=ORIENTED_EDGE('',*,*,#142,.T.);
#44=ORIENTED_EDGE('',*,*,#147,.T.);
#45=ORIENTED_EDGE('',*,*,#148,.F.);
#46=ORIENTED_EDGE('',*,*,#149,.F.);
#47=ORIENTED_EDGE('',*,*,#145,.T.);
#48=ORIENTED_EDGE('',*,*,#150,.T.);
#49=ORIENTED_EDGE('',*,*,#151,.F.);
#50=ORIENTED_EDGE('',*,*,#152,.F.);
#51=ORIENTED_EDGE('',*,*,#148,.T.);
#52=ORIENTED_EDGE('',*,*,#153,.T.);
#53=ORIENTED_EDGE('',*,*,#154,.F.);
#54=ORIENTED_EDGE('',*,*,#155,.F.);
#55=ORIENTED_EDGE('',*,*,#151,.T.);
#56=ORIENTED_EDGE('',*,*,#156,.T.);
#57=ORIENTED_EDGE('',*,*,#157,.F.);
#58=ORIENTED_EDGE('',*,*,#158,.F.);
#59=ORIENTED_EDGE('',*,*,#154,.T.);
#60=ORIENTED_EDGE('',*,*,#159,.T.);
#61=ORIENTED_EDGE('',*,*,#160,.F.);
#62=ORIENTED_EDGE('',*,*,#161,.F.);
#63=ORIENTED_EDGE('',*,*,#157,.T.);
#64=ORIENTED_EDGE('',*,*,#162,.T.);
#65=ORIENTED_EDGE('',*,*,#163,.F.);
#66=ORIENTED_EDGE('',*,*,#164,.F.);
#67=ORIENTED_EDGE('',*,*,#160,.T.);
#68=ORIENTED_EDGE('',*,*,#165,.T.);
#69=ORIENTED_EDGE('',*,*,#166,.F.);
#70=ORIENTED_EDGE('',*,*,#167,.F.);
#71=ORIENTED_EDGE('',*,*,#163,.T.);
#72=ORIENTED_EDGE('',*,*,#168,.T.);
#73=ORIENTED_EDGE('',*,*,#169,.F.);
#74=ORIENTED_EDGE('',*,*,#170,.F.);
#75=ORIENTED_EDGE('',*,*,#166,.T.);
#76=ORIENTED_EDGE('',*,*,#171,.T.);
#77=ORIENTED_EDGE('',*,*,#172,.F.);
#78=ORIENTED_EDGE('',*,*,#173,.F.);
#79=ORIENTED_EDGE('',*,*,#169,.T.);
#80=ORIENTED_EDGE('',*,*,#174,.T.);
#81=ORIENTED_EDGE('',*,*,#175,.F.);
#82=ORIENTED_EDGE('',*,*,#176,.F.);
#83=ORIENTED_EDGE('',*,*,#172,.T.);
#84=ORIENTED_EDGE('',*,*,#177,.T.);
#85=ORIENTED_EDGE('',*,*,#178,.F.);
#86=ORIENTED_EDGE('',*,*,#179,.F.);
#87=ORIENTED_EDGE('',*,*,#175,.T.);
#88=ORIENTED_EDGE('',*,*,#180,.T.);
#89=ORIENTED_EDGE('',*,*,#131,.F.);
#90=ORIENTED_EDGE('',*,*,#181,.F.);
#91=ORIENTED_EDGE('',*,*,#178,.T.);
#92=ORIENTED_EDGE('',*,*,#130,.T.);
#93=ORIENTED_EDGE('',*,*,#134,.T.);
#94=ORIENTED_EDGE('',*,*,#137,.T.);
#95=ORIENTED_EDGE('',*,*,#140,.T.);
#96=ORIENTED_EDGE('',*,*,#143,.T.);
#97=ORIENTED_EDGE('',*,*,#146,.T.);
#98=ORIENTED_EDGE('',*,*,#149,.T.);
#99=ORIENTED_EDGE('',*,*,#152,.T.);
#100=ORIENTED_EDGE('',*,*,#155,.T.);
#101=ORIENTED_EDGE('',*,*,#158,.T.);
#102=ORIENTED_EDGE('',*,*,#161,.T.);
#103=ORIENTED_EDGE('',*,*,#164,.T.);
#104=ORIENTED_EDGE('',*,*,#167,.T.);
#105=ORIENTED_EDGE('',*,*,#170,.T.);
#106=ORIENTED_EDGE('',*,*,#173,.T.);
#107=ORIENTED_EDGE('',*,*,#176,.T.);
#108=ORIENTED_EDGE('',*,*,#179,.T.);
#109=ORIENTED_EDGE('',*,*,#181,.T.);
#110=ORIENTED_EDGE('',*,*,#128,.F.);
#111=ORIENTED_EDGE('',*,*,#180,.F.);
#112=ORIENTED_EDGE('',*,*,#177,.F.);
#113=ORIENTED_EDGE('',*,*,#174,.F.);
#114=ORIENTED_EDGE('',*,*,#171,.F.);
#115=ORIENTED_EDGE('',*,*,#168,.F.);
#116=ORIENTED_EDGE('',*,*,#165,.F.);
#117=ORIENTED_EDGE('',*,*,#162,.F.);
#118=ORIENTED_EDGE('',*,*,#159,.F.);
#119=ORIENTED_EDGE('',*,*,#156,.F.);
#120=ORIENTED_EDGE('',*,*,#153,.F.);
#121=ORIENTED_EDGE('',*,*,#150,.F.);
#122=ORIENTED_EDGE('',*,*,#147,.F.);
#123=ORIENTED_EDGE('',*,*,#144,.F.);
#124=ORIENTED_EDGE('',*,*,#141,.F.);
#125=ORIENTED_EDGE('',*,*,#138,.F.);
#126=ORIENTED_EDGE('',*,*,#135,.F.);
#127=ORIENTED_EDGE('',*,*,#132,.F.);
#128=EDGE_CURVE('',#182,#183,#218,.T.);
#129=EDGE_CURVE('',#184,#183,#219,.T.);
#130=EDGE_CURVE('',#185,#184,#220,.T.);
#131=EDGE_CURVE('',#185,#182,#221,.T.);
#132=EDGE_CURVE('',#183,#186,#222,.T.);
#133=EDGE_CURVE('',#187,#186,#223,.T.);
#134=EDGE_CURVE('',#184,#187,#224,.T.);
#135=EDGE_CURVE('',#186,#188,#225,.T.);
#136=EDGE_CURVE('',#189,#188,#226,.T.);
#137=EDGE_CURVE('',#187,#189,#227,.T.);
#138=EDGE_CURVE('',#188,#190,#228,.T.);
#139=EDGE_CURVE('',#191,#190,#229,.T.);
#140=EDGE_CURVE('',#189,#191,#230,.T.);
#141=EDGE_CURVE('',#190,#192,#231,.T.);
#142=EDGE_CURVE('',#193,#192,#232,.T.);
#143=EDGE_CURVE('',#191,#193,#233,.T.);
#144=EDGE_CURVE('',#192,#194,#234,.T.);
#145=EDGE_CURVE('',#195,#194,#235,.T.);
#146=EDGE_CURVE('',#193,#195,#236,.T.);
#147=EDGE_CURVE('',#194,#196,#237,.T.);
#148=EDGE_CURVE('',#197,#196,#238,.T.);
#149=EDGE_CURVE('',#195,#197,#239,.T.);
#150=EDGE_CURVE('',#196,#198,#240,.T.);
#151=EDGE_CURVE('',#199,#198,#241,.T.);
#152=EDGE_CURVE('',#197,#199,#242,.T.);
#153=EDGE_CURVE('',#198,#200,#243,.T.);
#154=EDGE_CURVE('',#201,#200,#244,.T.);
#155=EDGE_CURVE('',#199,#201,#245,.T.);
#156=EDGE_CURVE('',#200,#202,#246,.T.);
#157=EDGE_CURVE('',#203,#202,#247,.T.);
#158=EDGE_CURVE('',#201,#203,#248,.T.);
#159=EDGE_CURVE('',#202,#204,#249,.T.);
#160=EDGE_CURVE('',#205,#204,#250,.T.);
#161=EDGE_CURVE('',#203,#205,#251,.T.);
#162=EDGE_CURVE('',#204,#206,#252,.T.);
#163=EDGE_CURVE('',#207,#206,#253,.T.);
#164=EDGE_CURVE('',#205,#207,#254,.T.);
#165=EDGE_CURVE('',#206,#208,#255,.T.);
#166=EDGE_CURVE('',#209,#208,#256,.T.);
#167=EDGE_CURVE('',#207,#209,#257,.T.);
#168=EDGE_CURVE('',#208,#210,#258,.T.);
#169=EDGE_CURVE('',#211,#210,#259,.T.);
#170=EDGE_CURVE('',#209,#211,#260,.T.);
#171=EDGE_CURVE('',#210,#212,#261,.T.);
#172=EDGE_CURVE('',#213,#212,#262,.T.);
#173=EDGE_CURVE('',#211,#213,#263,.T.);
#174=EDGE_CURVE('',#212,#214,#264,.T.);
#175=EDGE_CURVE('',#215,#214,#265,.T.);
#176=EDGE_CURVE('',#213,#215,#266,.T.);
#177=EDGE_CURVE('',#214,#216,#267,.T.);
#178=EDGE_CURVE('',#217,#216,#268,.T.);
#179=EDGE_CURVE('',#215,#217,#269,.T.);
#180=EDGE_CURVE('',#216,#182,#270,.T.);
#181=EDGE_CURVE('',#217,#185,#271,.T.);
#182=VERTEX_POINT('',#538);
#183=VERTEX_POINT('',#539);
#184=VERTEX_POINT('',#541);
#185=VERTEX_POINT('',#543);
#186=VERTEX_POINT('',#547);
#187=VERTEX_POINT('',#549);
#188=VERTEX_POINT('',#553);
#189=VERTEX_POINT('',#555);
#190=VERTEX_POINT('',#559);
#191=VERTEX_POINT('',#561);
#192=VERTEX_POINT('',#565);
#193=VERTEX_POINT('',#567);
#194=VERTEX_POINT('',#571);
#195=VERTEX_POINT('',#573);
#196=VERTEX_POINT('',#577);
#197=VERTEX_POINT('',#579);
#198=VERTEX_POINT('',#583);
#199=VERTEX_POINT('',#585);
#200=VERTEX_POINT('',#589);
#201=VERTEX_POINT('',#591);
#202=VERTEX_POINT('',#595);
#203=VERTEX_POINT('',#597);
#204=VERTEX_POINT('',#601);
#205=VERTEX_POINT('',#603);
#206=VERTEX_POINT('',#607);
#207=VERTEX_POINT('',#609);
#208=VERTEX_POINT('',#613);
#209=VERTEX_POINT('',#615);
#210=VERTEX_POINT('',#619);
#211=VERTEX_POINT('',#621);
#212=VERTEX_POINT('',#625);
#213=VERTEX_POINT('',#627);
#214=VERTEX_POINT('',#631);
#215=VERTEX_POINT('',#633);
#216=VERTEX_POINT('',#637);
#217=VERTEX_POINT('',#639);
#218=LINE('',#537,#272);
#219=LINE('',#540,#273);
#220=LINE('',#542,#274);
#221=LINE('',#544,#275);
#222=LINE('',#546,#276);
#223=LINE('',#548,#277);
#224=LINE('',#550,#278);
#225=LINE('',#552,#279);
#226=LINE('',#554,#280);
#227=LINE('',#556,#281);
#228=LINE('',#558,#282);
#229=LINE('',#560,#283);
#230=LINE('',#562,#284);
#231=LINE('',#564,#285);
#232=LINE('',#566,#286);
#233=LINE('',#568,#287);
#234=LINE('',#570,#288);
#235=LINE('',#572,#289);
#236=LINE('',#574,#290);
#237=LINE('',#576,#291);
#238=LINE('',#578,#292);
#239=LINE('',#580,#293);
#240=LINE('',#582,#294);
#241=LINE('',#584,#295);
#242=LINE('',#586,#296);
#243=LINE('',#588,#297);
#244=LINE('',#590,#298);
#245=LINE('',#592,#299);
#246=LINE('',#594,#300);
#247=LINE('',#596,#301);
#248=LINE('',#598,#302);
#249=LINE('',#600,#303);
#250=LINE('',#602,#304);
#251=LINE('',#604,#305);
#252=LINE('',#606,#306);
#253=LINE('',#608,#307);
#254=LINE('',#610,#308);
#255=LINE('',#612,#309);
#256=LINE('',#614,#310);
#257=LINE('',#616,#311);
#258=LINE('',#618,#312);
#259=LINE('',#620,#313);
#260=LINE('',#622,#314);
#261=LINE('',#624,#315);
#262=LINE('',#626,#316);
#263=LINE('',#628,#317);
#264=LINE('',#630,#318);
#265=LINE('',#632,#319);
#266=LINE('',#634,#320);
#267=LINE('',#636,#321);
#268=LINE('',#638,#322);
#269=LINE('',#640,#323);
#270=LINE('',#642,#324);
#271=LINE('',#643,#325);
#272=VECTOR('',#443,1000.);
#273=VECTOR('',#444,1000.);
#274=VECTOR('',#445,1000.);
#275=VECTOR('',#446,1000.);
#276=VECTOR('',#449,1000.);
#277=VECTOR('',#450,1000.);
#278=VECTOR('',#451,1000.);
#279=VECTOR('',#454,1000.);
#280=VECTOR('',#455,1000.);
#281=VECTOR('',#456,1000.);
#282=VECTOR('',#459,1000.);
#283=VECTOR('',#460,1000.);
#284=VECTOR('',#461,1000.);
#285=VECTOR('',#464,1000.);
#286=VECTOR('',#465,1000.);
#287=VECTOR('',#466,1000.);
#288=VECTOR('',#469,1000.);
#289=VECTOR('',#470,1000.);
#290=VECTOR('',#471,1000.);
#291=VECTOR('',#474,1000.);
#292=VECTOR('',#475,1000.);
#293=VECTOR('',#476,1000.);
#294=VECTOR('',#479,1000.);
#295=VECTOR('',#480,1000.);
#296=VECTOR('',#481,1000.);
#297=VECTOR('',#484,1000.);
#298=VECTOR('',#485,1000.);
#299=VECTOR('',#486,1000.);
#300=VECTOR('',#489,1000.);
#301=VECTOR('',#490,1000.);
#302=VECTOR('',#491,1000.);
#303=VECTOR('',#494,1000.);
#304=VECTOR('',#495,1000.);
#305=VECTOR('',#496,1000.);
#306=VECTOR('',#499,1000.);
#307=VECTOR('',#500,1000.);
#308=VECTOR('',#501,1000.);
#309=VECTOR('',#504,1000.);
#310=VECTOR('',#505,1000.);
#311=VECTOR('',#506,1000.);
#312=VECTOR('',#509,1000.);
#313=VECTOR('',#510,1000.);
#314=VECTOR('',#511,1000.);
#315=VECTOR('',#514,1000.);
#316=VECTOR('',#515,1000.);
#317=VECTOR('',#516,1000.);
#318=VECTOR('',#519,1000.);
#319=VECTOR('',#520,1000.);
#320=VECTOR('',#521,1000.);
#321=VECTOR('',#524,1000.);
#322=VECTOR('',#525,1000.);
#323=VECTOR('',#526,1000.);
#324=VECTOR('',#529,1000.);
#325=VECTOR('',#530,1000.);
#326=EDGE_LOOP('',(#20,#21,#22,#23));
#327=EDGE_LOOP('',(#24,#25,#26,#27));
#328=EDGE_LOOP('',(#28,#29,#30,#31));
#329=EDGE_LOOP('',(#32,#33,#34,#35));
#330=EDGE_LOOP('',(#36,#37,#38,#39));
#331=EDGE_LOOP('',(#40,#41,#42,#43));
#332=EDGE_LOOP('',(#44,#45,#46,#47));
#333=EDGE_LOOP('',(#48,#49,#50,#51));
#334=EDGE_LOOP('',(#52,#53,#54,#55));
#335=EDGE_LOOP('',(#56,#57,#58,#59));
#336=EDGE_LOOP('',(#60,#61,#62,#63));
#337=EDGE_LOOP('',(#64,#65,#66,#67));
#338=EDGE_LOOP('',(#68,#69,#70,#71));
#339=EDGE_LOOP('',(#72,#73,#74,#75));
#340=EDGE_LOOP('',(#76,#77,#78,#79));
#341=EDGE_LOOP('',(#80,#81,#82,#83));
#342=EDGE_LOOP('',(#84,#85,#86,#87));
#343=EDGE_LOOP('',(#88,#89,#90,#91));
#344=EDGE_LOOP('',(#92,#93,#94,#95,#96,#97,#98,#99,#100,#101,#102,#103,
#104,#105,#106,#107,#108,#109));
#345=EDGE_LOOP('',(#110,#111,#112,#113,#114,#115,#116,#117,#118,#119,#120,
#121,#122,#123,#124,#125,#126,#127));
#346=FACE_BOUND('',#326,.T.);
#347=FACE_BOUND('',#327,.T.);
#348=FACE_BOUND('',#328,.T.);
#349=FACE_BOUND('',#329,.T.);
#350=FACE_BOUND('',#330,.T.);
#351=FACE_BOUND('',#331,.T.);
#352=FACE_BOUND('',#332,.T.);
#353=FACE_BOUND('',#333,.T.);
#354=FACE_BOUND('',#334,.T.);
#355=FACE_BOUND('',#335,.T.);
#356=FACE_BOUND('',#336,.T.);
#357=FACE_BOUND('',#337,.T.);
#358=FACE_BOUND('',#338,.T.);
#359=FACE_BOUND('',#339,.T.);
#360=FACE_BOUND('',#340,.T.);
#361=FACE_BOUND('',#341,.T.);
#362=FACE_BOUND('',#342,.T.);
#363=FACE_BOUND('',#343,.T.);
#364=FACE_BOUND('',#344,.T.);
#365=FACE_BOUND('',#345,.T.);
#366=PLANE('',#419);
#367=PLANE('',#420);
#368=PLANE('',#421);
#369=PLANE('',#422);
#370=PLANE('',#423);
#371=PLANE('',#424);
#372=PLANE('',#425);
#373=PLANE('',#426);
#374=PLANE('',#427);
#375=PLANE('',#428);
#376=PLANE('',#429);
#377=PLANE('',#430);
#378=PLANE('',#431);
#379=PLANE('',#432);
#380=PLANE('',#433);
#381=PLANE('',#434);
#382=PLANE('',#435);
#383=PLANE('',#436);
#384=PLANE('',#437);
#385=PLANE('',#438);
#386=ADVANCED_FACE('',(#346),#366,.F.);
#387=ADVANCED_FACE('',(#347),#367,.F.);
#388=ADVANCED_FACE('',(#348),#368,.F.);
#389=ADVANCED_FACE('',(#349),#369,.F.);
#390=ADVANCED_FACE('',(#350),#370,.F.);
#391=ADVANCED_FACE('',(#351),#371,.F.);
#392=ADVANCED_FACE('',(#352),#372,.F.);
#393=ADVANCED_FACE('',(#353),#373,.F.);
#394=ADVANCED_FACE('',(#354),#374,.F.);
#395=ADVANCED_FACE('',(#355),#375,.F.);
#396=ADVANCED_FACE('',(#356),#376,.F.);
#397=ADVANCED_FACE('',(#357),#377,.F.);
#398=ADVANCED_FACE('',(#358),#378,.F.);
#399=ADVANCED_FACE('',(#359),#379,.F.);
#400=ADVANCED_FACE('',(#360),#380,.F.);
#401=ADVANCED_FACE('',(#361),#381,.F.);
#402=ADVANCED_FACE('',(#362),#382,.F.);
#403=ADVANCED_FACE('',(#363),#383,.F.);
#404=ADVANCED_FACE('',(#364),#384,.T.);
#405=ADVANCED_FACE('',(#365),#385,.F.);
#406=CLOSED_SHELL('',(#386,#387,#388,#389,#390,#391,#392,#393,#394,#395,
#396,#397,#398,#399,#400,#401,#402,#403,#404,#405));
#407=STYLED_ITEM('',(#408),#415);
#408=PRESENTATION_STYLE_ASSIGNMENT((#409));
#409=SURFACE_STYLE_USAGE(.BOTH.,#410);
#410=SURFACE_SIDE_STYLE('',(#411));
#411=SURFACE_STYLE_FILL_AREA(#412);
#412=FILL_AREA_STYLE('',(#413));
#413=FILL_AREA_STYLE_COLOUR('',#414);
#414=COLOUR_RGB('',0.689999997615814,0.689999997615814,0.689999997615814);
#415=MANIFOLD_SOLID_BREP('18576 IBS-6X10---(400)',#406);
#416=SHAPE_DEFINITION_REPRESENTATION(#652,#417);
#417=SHAPE_REPRESENTATION('18576 IBS-6X10---(400)',(#418),#647);
#418=AXIS2_PLACEMENT_3D('',#535,#439,#440);
#419=AXIS2_PLACEMENT_3D('',#536,#441,#442);
#420=AXIS2_PLACEMENT_3D('',#545,#447,#448);
#421=AXIS2_PLACEMENT_3D('',#551,#452,#453);
#422=AXIS2_PLACEMENT_3D('',#557,#457,#458);
#423=AXIS2_PLACEMENT_3D('',#563,#462,#463);
#424=AXIS2_PLACEMENT_3D('',#569,#467,#468);
#425=AXIS2_PLACEMENT_3D('',#575,#472,#473);
#426=AXIS2_PLACEMENT_3D('',#581,#477,#478);
#427=AXIS2_PLACEMENT_3D('',#587,#482,#483);
#428=AXIS2_PLACEMENT_3D('',#593,#487,#488);
#429=AXIS2_PLACEMENT_3D('',#599,#492,#493);
#430=AXIS2_PLACEMENT_3D('',#605,#497,#498);
#431=AXIS2_PLACEMENT_3D('',#611,#502,#503);
#432=AXIS2_PLACEMENT_3D('',#617,#507,#508);
#433=AXIS2_PLACEMENT_3D('',#623,#512,#513);
#434=AXIS2_PLACEMENT_3D('',#629,#517,#518);
#435=AXIS2_PLACEMENT_3D('',#635,#522,#523);
#436=AXIS2_PLACEMENT_3D('',#641,#527,#528);
#437=AXIS2_PLACEMENT_3D('',#644,#531,#532);
#438=AXIS2_PLACEMENT_3D('',#645,#533,#534);
#439=DIRECTION('',(0.,0.,1.));
#440=DIRECTION('',(1.,0.,0.));
#441=DIRECTION('',(1.,0.,0.));
#442=DIRECTION('',(0.,0.,-1.));
#443=DIRECTION('',(0.,-1.,0.));
#444=DIRECTION('',(0.,0.,-1.));
#445=DIRECTION('',(0.,-1.,0.));
#446=DIRECTION('',(0.,0.,-1.));
#447=DIRECTION('',(0.,1.,0.));
#448=DIRECTION('',(0.,0.,1.));
#449=DIRECTION('',(1.,0.,0.));
#450=DIRECTION('',(0.,0.,-1.));
#451=DIRECTION('',(1.,0.,0.));
#452=DIRECTION('',(1.,-2.16840434497101E-16,0.));
#453=DIRECTION('',(2.16840434497101E-16,1.,0.));
#454=DIRECTION('',(-2.16840434497101E-16,-1.,0.));
#455=DIRECTION('',(0.,0.,-1.));
#456=DIRECTION('',(-2.16840434497101E-16,-1.,0.));
#457=DIRECTION('',(0.,-1.,0.));
#458=DIRECTION('',(0.,0.,-1.));
#459=DIRECTION('',(-1.,0.,0.));
#460=DIRECTION('',(0.,0.,-1.));
#461=DIRECTION('',(-1.,0.,0.));
#462=DIRECTION('',(1.,0.,0.));
#463=DIRECTION('',(0.,0.,-1.));
#464=DIRECTION('',(0.,-1.,0.));
#465=DIRECTION('',(0.,0.,-1.));
#466=DIRECTION('',(0.,-1.,0.));
#467=DIRECTION('',(0.707106781186548,0.707106781186548,0.));
#468=DIRECTION('',(-0.707106781186548,0.707106781186548,0.));
#469=DIRECTION('',(0.707106781186547,-0.707106781186547,0.));
#470=DIRECTION('',(0.,0.,-1.));
#471=DIRECTION('',(0.707106781186547,-0.707106781186547,0.));
#472=DIRECTION('',(0.,1.,0.));
#473=DIRECTION('',(0.,0.,1.));
#474=DIRECTION('',(1.,0.,0.));
#475=DIRECTION('',(0.,0.,-1.));
#476=DIRECTION('',(1.,0.,0.));
#477=DIRECTION('',(-1.,0.,0.));
#478=DIRECTION('',(0.,0.,1.));
#479=DIRECTION('',(0.,1.,0.));
#480=DIRECTION('',(0.,0.,-1.));
#481=DIRECTION('',(0.,1.,0.));
#482=DIRECTION('',(0.,1.,0.));
#483=DIRECTION('',(0.,0.,1.));
#484=DIRECTION('',(1.,0.,0.));
#485=DIRECTION('',(0.,0.,-1.));
#486=DIRECTION('',(1.,0.,0.));
#487=DIRECTION('',(1.,-1.4954512723938E-16,0.));
#488=DIRECTION('',(1.4954512723938E-16,1.,0.));
#489=DIRECTION('',(-1.4954512723938E-16,-1.,0.));
#490=DIRECTION('',(0.,0.,-1.));
#491=DIRECTION('',(-1.4954512723938E-16,-1.,0.));
#492=DIRECTION('',(0.,1.,0.));
#493=DIRECTION('',(0.,0.,1.));
#494=DIRECTION('',(1.,0.,0.));
#495=DIRECTION('',(0.,0.,-1.));
#496=DIRECTION('',(1.,0.,0.));
#497=DIRECTION('',(-0.707106781186548,0.707106781186548,0.));
#498=DIRECTION('',(-0.707106781186548,-0.707106781186548,0.));
#499=DIRECTION('',(0.707106781186547,0.707106781186547,0.));
#500=DIRECTION('',(0.,0.,-1.));
#501=DIRECTION('',(0.707106781186547,0.707106781186547,0.));
#502=DIRECTION('',(-1.,0.,0.));
#503=DIRECTION('',(0.,0.,1.));
#504=DIRECTION('',(0.,1.,0.));
#505=DIRECTION('',(0.,0.,-1.));
#506=DIRECTION('',(0.,1.,0.));
#507=DIRECTION('',(0.,-1.,0.));
#508=DIRECTION('',(0.,0.,-1.));
#509=DIRECTION('',(-1.,0.,0.));
#510=DIRECTION('',(0.,0.,-1.));
#511=DIRECTION('',(-1.,0.,0.));
#512=DIRECTION('',(-1.,0.,0.));
#513=DIRECTION('',(0.,0.,1.));
#514=DIRECTION('',(0.,1.,0.));
#515=DIRECTION('',(0.,0.,-1.));
#516=DIRECTION('',(0.,1.,0.));
#517=DIRECTION('',(0.,1.,0.));
#518=DIRECTION('',(0.,0.,1.));
#519=DIRECTION('',(1.,0.,0.));
#520=DIRECTION('',(0.,0.,-1.));
#521=DIRECTION('',(1.,0.,0.));
#522=DIRECTION('',(-1.,0.,0.));
#523=DIRECTION('',(0.,0.,1.));
#524=DIRECTION('',(0.,1.,0.));
#525=DIRECTION('',(0.,0.,-1.));
#526=DIRECTION('',(0.,1.,0.));
#527=DIRECTION('',(0.,-1.,0.));
#528=DIRECTION('',(0.,0.,-1.));
#529=DIRECTION('',(-1.,0.,0.));
#530=DIRECTION('',(-1.,0.,0.));
#531=DIRECTION('',(0.,0.,1.));
#532=DIRECTION('',(1.,0.,0.));
#533=DIRECTION('',(0.,0.,1.));
#534=DIRECTION('',(1.,0.,0.));
#535=CARTESIAN_POINT('',(0.,0.,0.));
#536=CARTESIAN_POINT('',(-5.,0.,6.));
#537=CARTESIAN_POINT('',(-5.,0.,0.));
#538=CARTESIAN_POINT('',(-5.,0.,0.));
#539=CARTESIAN_POINT('',(-5.,-1.,0.));
#540=CARTESIAN_POINT('',(-5.,-1.,6.));
#541=CARTESIAN_POINT('',(-5.,-1.,6.));
#542=CARTESIAN_POINT('',(-5.,0.,6.));
#543=CARTESIAN_POINT('',(-5.,0.,6.));
#544=CARTESIAN_POINT('',(-5.,0.,6.));
#545=CARTESIAN_POINT('',(-5.,-1.,6.));
#546=CARTESIAN_POINT('',(-5.,-1.,0.));
#547=CARTESIAN_POINT('',(-2.6,-1.,0.));
#548=CARTESIAN_POINT('',(-2.6,-1.,6.));
#549=CARTESIAN_POINT('',(-2.6,-1.,6.));
#550=CARTESIAN_POINT('',(-5.,-1.,6.));
#551=CARTESIAN_POINT('',(-2.6,-1.,6.));
#552=CARTESIAN_POINT('',(-2.6,-1.,0.));
#553=CARTESIAN_POINT('',(-2.6,-3.,0.));
#554=CARTESIAN_POINT('',(-2.6,-3.,6.));
#555=CARTESIAN_POINT('',(-2.6,-3.,6.));
#556=CARTESIAN_POINT('',(-2.6,-1.,6.));
#557=CARTESIAN_POINT('',(-2.6,-3.,6.));
#558=CARTESIAN_POINT('',(-2.6,-3.,0.));
#559=CARTESIAN_POINT('',(-3.2,-3.,0.));
#560=CARTESIAN_POINT('',(-3.2,-3.,6.));
#561=CARTESIAN_POINT('',(-3.2,-3.,6.));
#562=CARTESIAN_POINT('',(-2.6,-3.,6.));
#563=CARTESIAN_POINT('',(-3.2,-3.,6.));
#564=CARTESIAN_POINT('',(-3.2,-3.,0.));
#565=CARTESIAN_POINT('',(-3.2,-3.3,0.));
#566=CARTESIAN_POINT('',(-3.2,-3.3,6.));
#567=CARTESIAN_POINT('',(-3.2,-3.3,6.));
#568=CARTESIAN_POINT('',(-3.2,-3.,6.));
#569=CARTESIAN_POINT('',(-3.2,-3.3,6.));
#570=CARTESIAN_POINT('',(-3.2,-3.3,0.));
#571=CARTESIAN_POINT('',(-2.6,-3.9,0.));
#572=CARTESIAN_POINT('',(-2.6,-3.9,6.));
#573=CARTESIAN_POINT('',(-2.6,-3.9,6.));
#574=CARTESIAN_POINT('',(-3.2,-3.3,6.));
#575=CARTESIAN_POINT('',(-2.6,-3.9,6.));
#576=CARTESIAN_POINT('',(-2.6,-3.9,0.));
#577=CARTESIAN_POINT('',(-1.9,-3.9,0.));
#578=CARTESIAN_POINT('',(-1.9,-3.9,6.));
#579=CARTESIAN_POINT('',(-1.9,-3.9,6.));
#580=CARTESIAN_POINT('',(-2.6,-3.9,6.));
#581=CARTESIAN_POINT('',(-1.9,-3.9,6.));
#582=CARTESIAN_POINT('',(-1.9,-3.9,0.));
#583=CARTESIAN_POINT('',(-1.9,-1.,0.));
#584=CARTESIAN_POINT('',(-1.9,-1.,6.));
#585=CARTESIAN_POINT('',(-1.9,-1.,6.));
#586=CARTESIAN_POINT('',(-1.9,-3.9,6.));
#587=CARTESIAN_POINT('',(-1.9,-1.,6.));
#588=CARTESIAN_POINT('',(-1.9,-1.,0.));
#589=CARTESIAN_POINT('',(1.9,-1.,0.));
#590=CARTESIAN_POINT('',(1.9,-1.,6.));
#591=CARTESIAN_POINT('',(1.9,-1.,6.));
#592=CARTESIAN_POINT('',(-1.9,-1.,6.));
#593=CARTESIAN_POINT('',(1.9,-1.,6.));
#594=CARTESIAN_POINT('',(1.9,-1.,0.));
#595=CARTESIAN_POINT('',(1.9,-3.9,0.));
#596=CARTESIAN_POINT('',(1.9,-3.9,6.));
#597=CARTESIAN_POINT('',(1.9,-3.9,6.));
#598=CARTESIAN_POINT('',(1.9,-1.,6.));
#599=CARTESIAN_POINT('',(1.9,-3.9,6.));
#600=CARTESIAN_POINT('',(1.9,-3.9,0.));
#601=CARTESIAN_POINT('',(2.6,-3.9,0.));
#602=CARTESIAN_POINT('',(2.6,-3.9,6.));
#603=CARTESIAN_POINT('',(2.6,-3.9,6.));
#604=CARTESIAN_POINT('',(1.9,-3.9,6.));
#605=CARTESIAN_POINT('',(2.6,-3.9,6.));
#606=CARTESIAN_POINT('',(2.6,-3.9,0.));
#607=CARTESIAN_POINT('',(3.2,-3.3,0.));
#608=CARTESIAN_POINT('',(3.2,-3.3,6.));
#609=CARTESIAN_POINT('',(3.2,-3.3,6.));
#610=CARTESIAN_POINT('',(2.6,-3.9,6.));
#611=CARTESIAN_POINT('',(3.2,-3.3,6.));
#612=CARTESIAN_POINT('',(3.2,-3.3,0.));
#613=CARTESIAN_POINT('',(3.2,-3.,0.));
#614=CARTESIAN_POINT('',(3.2,-3.,6.));
#615=CARTESIAN_POINT('',(3.2,-3.,6.));
#616=CARTESIAN_POINT('',(3.2,-3.3,6.));
#617=CARTESIAN_POINT('',(3.2,-3.,6.));
#618=CARTESIAN_POINT('',(3.2,-3.,0.));
#619=CARTESIAN_POINT('',(2.6,-3.,0.));
#620=CARTESIAN_POINT('',(2.6,-3.,6.));
#621=CARTESIAN_POINT('',(2.6,-3.,6.));
#622=CARTESIAN_POINT('',(3.2,-3.,6.));
#623=CARTESIAN_POINT('',(2.6,-3.,6.));
#624=CARTESIAN_POINT('',(2.6,-3.,0.));
#625=CARTESIAN_POINT('',(2.6,-1.,0.));
#626=CARTESIAN_POINT('',(2.6,-1.,6.));
#627=CARTESIAN_POINT('',(2.6,-1.,6.));
#628=CARTESIAN_POINT('',(2.6,-3.,6.));
#629=CARTESIAN_POINT('',(2.6,-1.,6.));
#630=CARTESIAN_POINT('',(2.6,-1.,0.));
#631=CARTESIAN_POINT('',(5.,-1.,0.));
#632=CARTESIAN_POINT('',(5.,-1.,6.));
#633=CARTESIAN_POINT('',(5.,-1.,6.));
#634=CARTESIAN_POINT('',(2.6,-1.,6.));
#635=CARTESIAN_POINT('',(5.,-1.,6.));
#636=CARTESIAN_POINT('',(5.,-1.,0.));
#637=CARTESIAN_POINT('',(5.,0.,0.));
#638=CARTESIAN_POINT('',(5.,0.,6.));
#639=CARTESIAN_POINT('',(5.,0.,6.));
#640=CARTESIAN_POINT('',(5.,-1.,6.));
#641=CARTESIAN_POINT('',(5.,0.,6.));
#642=CARTESIAN_POINT('',(5.,0.,0.));
#643=CARTESIAN_POINT('',(5.,0.,6.));
#644=CARTESIAN_POINT('',(0.,0.,6.));
#645=CARTESIAN_POINT('',(0.,0.,0.));
#646=MECHANICAL_DESIGN_GEOMETRIC_PRESENTATION_REPRESENTATION('',(#407),
#647);
#647=(
GEOMETRIC_REPRESENTATION_CONTEXT(3)
GLOBAL_UNCERTAINTY_ASSIGNED_CONTEXT((#648))
GLOBAL_UNIT_ASSIGNED_CONTEXT((#651,#650,#649))
REPRESENTATION_CONTEXT('18576 IBS-6X10---(400)',
'TOP_LEVEL_ASSEMBLY_PART')
);
#648=UNCERTAINTY_MEASURE_WITH_UNIT(LENGTH_MEASURE(0.005),#651,
'DISTANCE_ACCURACY_VALUE','Maximum Tolerance applied to model');
#649=(
NAMED_UNIT(*)
SI_UNIT($,.STERADIAN.)
SOLID_ANGLE_UNIT()
);
#650=(
NAMED_UNIT(*)
PLANE_ANGLE_UNIT()
SI_UNIT($,.RADIAN.)
);
#651=(
LENGTH_UNIT()
NAMED_UNIT(*)
SI_UNIT(.MILLI.,.METRE.)
);
#652=PRODUCT_DEFINITION_SHAPE('','',#653);
#653=PRODUCT_DEFINITION('','',#655,#654);
#654=PRODUCT_DEFINITION_CONTEXT('',#661,'design');
#655=PRODUCT_DEFINITION_FORMATION_WITH_SPECIFIED_SOURCE('','',#657,
 .NOT_KNOWN.);
#656=PRODUCT_RELATED_PRODUCT_CATEGORY('','',(#657));
#657=PRODUCT('18576 IBS-6X10---(400)','18576 IBS-6X10---(400)',
'18576 IBS-6X10---(400)',(#659));
#658=PRODUCT_CATEGORY('','');
#659=PRODUCT_CONTEXT('',#661,'mechanical');
#660=APPLICATION_PROTOCOL_DEFINITION('international standard',
'automotive_design',2010,#661);
#661=APPLICATION_CONTEXT(
'core data for automotive mechanical design processes');
ENDSEC;
END-ISO-10303-21;
