ISO-10303-21;
HEADER;
/* Generated by software containing ST-Developer
 * from STEP Tools, Inc. (www.steptools.com) 
 */
/* OPTION: using custom renumber hook */

FILE_DESCRIPTION(
/* description */ ('STEP AP214'),
/* implementation_level */ '2;1');

FILE_NAME(
/* name */ '186563_HMBRD',
/* time_stamp */ '2024-08-29T08:20:56+02:00',
/* author */ ('License CC BY-ND 4.0'),
/* organization */ ('CADENAS'),
/* preprocessor_version */ 'ST-DEVELOPER v19.3',
/* originating_system */ 'PARTsolutions',
/* authorisation */ '  ');

FILE_SCHEMA (('AUTOMOTIVE_DESIGN {1 0 10303 214 3 1 1}'));
ENDSEC;

DATA;
#10=PROPERTY_DEFINITION_REPRESENTATION(#14,#12);
#11=PROPERTY_DEFINITION_REPRESENTATION(#15,#13);
#12=REPRESENTATION('',(#16),#137);
#13=REPRESENTATION('',(#17),#137);
#14=PROPERTY_DEFINITION('pmi validation property','',#142);
#15=PROPERTY_DEFINITION('pmi validation property','',#142);
#16=VALUE_REPRESENTATION_ITEM('number of annotations',COUNT_MEASURE(0.));
#17=VALUE_REPRESENTATION_ITEM('number of views',COUNT_MEASURE(0.));
#18=SHAPE_REPRESENTATION_RELATIONSHIP('','',#86,#19);
#19=ADVANCED_BREP_SHAPE_REPRESENTATION('',(#84),#137);
#20=CONICAL_SURFACE('',#97,5.,0.26179938779915);
#21=CYLINDRICAL_SURFACE('',#91,2.65);
#22=CYLINDRICAL_SURFACE('',#95,5.);
#23=ORIENTED_EDGE('',*,*,#33,.T.);
#24=ORIENTED_EDGE('',*,*,#34,.F.);
#25=ORIENTED_EDGE('',*,*,#35,.T.);
#26=ORIENTED_EDGE('',*,*,#33,.F.);
#27=ORIENTED_EDGE('',*,*,#36,.T.);
#28=ORIENTED_EDGE('',*,*,#35,.F.);
#29=ORIENTED_EDGE('',*,*,#37,.T.);
#30=ORIENTED_EDGE('',*,*,#36,.F.);
#31=ORIENTED_EDGE('',*,*,#34,.T.);
#32=ORIENTED_EDGE('',*,*,#37,.F.);
#33=EDGE_CURVE('',#38,#38,#43,.T.);
#34=EDGE_CURVE('',#39,#39,#44,.T.);
#35=EDGE_CURVE('',#40,#40,#45,.T.);
#36=EDGE_CURVE('',#41,#41,#46,.T.);
#37=EDGE_CURVE('',#42,#42,#47,.T.);
#38=VERTEX_POINT('',#123);
#39=VERTEX_POINT('',#125);
#40=VERTEX_POINT('',#128);
#41=VERTEX_POINT('',#131);
#42=VERTEX_POINT('',#134);
#43=CIRCLE('',#89,2.65);
#44=CIRCLE('',#90,4.12916512459885);
#45=CIRCLE('',#92,2.65);
#46=CIRCLE('',#94,5.);
#47=CIRCLE('',#96,5.);
#48=EDGE_LOOP('',(#23));
#49=EDGE_LOOP('',(#24));
#50=EDGE_LOOP('',(#25));
#51=EDGE_LOOP('',(#26));
#52=EDGE_LOOP('',(#27));
#53=EDGE_LOOP('',(#28));
#54=EDGE_LOOP('',(#29));
#55=EDGE_LOOP('',(#30));
#56=EDGE_LOOP('',(#31));
#57=EDGE_LOOP('',(#32));
#58=FACE_BOUND('',#48,.T.);
#59=FACE_BOUND('',#49,.T.);
#60=FACE_BOUND('',#50,.T.);
#61=FACE_BOUND('',#51,.T.);
#62=FACE_BOUND('',#52,.T.);
#63=FACE_BOUND('',#53,.T.);
#64=FACE_BOUND('',#54,.T.);
#65=FACE_BOUND('',#55,.T.);
#66=FACE_BOUND('',#56,.T.);
#67=FACE_BOUND('',#57,.T.);
#68=PLANE('',#88);
#69=PLANE('',#93);
#70=ADVANCED_FACE('',(#58,#59),#68,.T.);
#71=ADVANCED_FACE('',(#60,#61),#21,.F.);
#72=ADVANCED_FACE('',(#62,#63),#69,.T.);
#73=ADVANCED_FACE('',(#64,#65),#22,.T.);
#74=ADVANCED_FACE('',(#66,#67),#20,.T.);
#75=CLOSED_SHELL('',(#70,#71,#72,#73,#74));
#76=STYLED_ITEM('',(#77),#84);
#77=PRESENTATION_STYLE_ASSIGNMENT((#78));
#78=SURFACE_STYLE_USAGE(.BOTH.,#79);
#79=SURFACE_SIDE_STYLE('',(#80));
#80=SURFACE_STYLE_FILL_AREA(#81);
#81=FILL_AREA_STYLE('',(#82));
#82=FILL_AREA_STYLE_COLOUR('',#83);
#83=COLOUR_RGB('',0.689999997615814,0.689999997615814,0.689999997615814);
#84=MANIFOLD_SOLID_BREP('186563 HMBRD',#75);
#85=SHAPE_DEFINITION_REPRESENTATION(#142,#86);
#86=SHAPE_REPRESENTATION('186563 HMBRD',(#87),#137);
#87=AXIS2_PLACEMENT_3D('',#120,#98,#99);
#88=AXIS2_PLACEMENT_3D('',#121,#100,#101);
#89=AXIS2_PLACEMENT_3D('',#122,#102,#103);
#90=AXIS2_PLACEMENT_3D('',#124,#104,#105);
#91=AXIS2_PLACEMENT_3D('',#126,#106,#107);
#92=AXIS2_PLACEMENT_3D('',#127,#108,#109);
#93=AXIS2_PLACEMENT_3D('',#129,#110,#111);
#94=AXIS2_PLACEMENT_3D('',#130,#112,#113);
#95=AXIS2_PLACEMENT_3D('',#132,#114,#115);
#96=AXIS2_PLACEMENT_3D('',#133,#116,#117);
#97=AXIS2_PLACEMENT_3D('',#135,#118,#119);
#98=DIRECTION('',(0.,0.,1.));
#99=DIRECTION('',(1.,0.,0.));
#100=DIRECTION('',(0.,1.,0.));
#101=DIRECTION('',(0.,0.,1.));
#102=DIRECTION('',(0.,-1.,0.));
#103=DIRECTION('',(0.,0.,-1.));
#104=DIRECTION('',(0.,-1.,0.));
#105=DIRECTION('',(0.,0.,-1.));
#106=DIRECTION('',(0.,-1.,0.));
#107=DIRECTION('',(0.,0.,-1.));
#108=DIRECTION('',(0.,-1.,0.));
#109=DIRECTION('',(0.,0.,-1.));
#110=DIRECTION('',(0.,-1.,0.));
#111=DIRECTION('',(0.,0.,-1.));
#112=DIRECTION('',(0.,-1.,0.));
#113=DIRECTION('',(0.,0.,-1.));
#114=DIRECTION('',(0.,-1.,0.));
#115=DIRECTION('',(0.,0.,-1.));
#116=DIRECTION('',(0.,-1.,0.));
#117=DIRECTION('',(0.,0.,-1.));
#118=DIRECTION('',(0.,-1.,0.));
#119=DIRECTION('',(0.,0.,-1.));
#120=CARTESIAN_POINT('',(0.,0.,0.));
#121=CARTESIAN_POINT('',(4.12916512459885,6.5,0.));
#122=CARTESIAN_POINT('',(0.,6.5,0.));
#123=CARTESIAN_POINT('',(0.,6.5,-2.65));
#124=CARTESIAN_POINT('',(0.,6.5,0.));
#125=CARTESIAN_POINT('',(0.,6.5,-4.12916512459885));
#126=CARTESIAN_POINT('',(0.,0.,0.));
#127=CARTESIAN_POINT('',(0.,0.,0.));
#128=CARTESIAN_POINT('',(0.,0.,-2.65));
#129=CARTESIAN_POINT('',(2.65,0.,0.));
#130=CARTESIAN_POINT('',(0.,0.,0.));
#131=CARTESIAN_POINT('',(0.,0.,-5.));
#132=CARTESIAN_POINT('',(0.,0.,0.));
#133=CARTESIAN_POINT('',(0.,3.25,0.));
#134=CARTESIAN_POINT('',(0.,3.25,-5.));
#135=CARTESIAN_POINT('',(0.,3.25,0.));
#136=MECHANICAL_DESIGN_GEOMETRIC_PRESENTATION_REPRESENTATION('',(#76),#137);
#137=(
GEOMETRIC_REPRESENTATION_CONTEXT(3)
GLOBAL_UNCERTAINTY_ASSIGNED_CONTEXT((#138))
GLOBAL_UNIT_ASSIGNED_CONTEXT((#141,#140,#139))
REPRESENTATION_CONTEXT('186563 HMBRD','TOP_LEVEL_ASSEMBLY_PART')
);
#138=UNCERTAINTY_MEASURE_WITH_UNIT(LENGTH_MEASURE(0.005),#141,
'DISTANCE_ACCURACY_VALUE','Maximum Tolerance applied to model');
#139=(
NAMED_UNIT(*)
SI_UNIT($,.STERADIAN.)
SOLID_ANGLE_UNIT()
);
#140=(
NAMED_UNIT(*)
PLANE_ANGLE_UNIT()
SI_UNIT($,.RADIAN.)
);
#141=(
LENGTH_UNIT()
NAMED_UNIT(*)
SI_UNIT(.MILLI.,.METRE.)
);
#142=PRODUCT_DEFINITION_SHAPE('','',#143);
#143=PRODUCT_DEFINITION('','',#145,#144);
#144=PRODUCT_DEFINITION_CONTEXT('',#151,'design');
#145=PRODUCT_DEFINITION_FORMATION_WITH_SPECIFIED_SOURCE('','',#147,
 .NOT_KNOWN.);
#146=PRODUCT_RELATED_PRODUCT_CATEGORY('','',(#147));
#147=PRODUCT('186563 HMBRD','186563 HMBRD','186563 HMBRD',(#149));
#148=PRODUCT_CATEGORY('','');
#149=PRODUCT_CONTEXT('',#151,'mechanical');
#150=APPLICATION_PROTOCOL_DEFINITION('international standard',
'automotive_design',2010,#151);
#151=APPLICATION_CONTEXT(
'core data for automotive mechanical design processes');
ENDSEC;
END-ISO-10303-21;
