ISO-10303-21;
HEADER;
/* Generated by software containing ST-Developer
 * from STEP Tools, Inc. (www.steptools.com) 
 */
/* OPTION: using custom renumber hook */

FILE_DESCRIPTION(
/* description */ ('STEP AP214'),
/* implementation_level */ '2;1');

FILE_NAME(
/* name */ '186566_HMBN-5-2M5',
/* time_stamp */ '2024-08-29T08:19:39+02:00',
/* author */ ('License CC BY-ND 4.0'),
/* organization */ ('CADENAS'),
/* preprocessor_version */ 'ST-DEVELOPER v19.3',
/* originating_system */ 'PARTsolutions',
/* authorisation */ '  ');

FILE_SCHEMA (('AUTOMOTIVE_DESIGN {1 0 10303 214 3 1 1}'));
ENDSEC;

DATA;
#10=PROPERTY_DEFINITION_REPRESENTATION(#14,#12);
#11=PROPERTY_DEFINITION_REPRESENTATION(#15,#13);
#12=REPRESENTATION('',(#16),#585);
#13=REPRESENTATION('',(#17),#585);
#14=PROPERTY_DEFINITION('pmi validation property','',#590);
#15=PROPERTY_DEFINITION('pmi validation property','',#590);
#16=VALUE_REPRESENTATION_ITEM('number of annotations',COUNT_MEASURE(0.));
#17=VALUE_REPRESENTATION_ITEM('number of views',COUNT_MEASURE(0.));
#18=SHAPE_REPRESENTATION_RELATIONSHIP('','',#337,#19);
#19=ADVANCED_BREP_SHAPE_REPRESENTATION('',(#335),#585);
#20=CONICAL_SURFACE('',#365,2.067,0.785398163397449);
#21=CONICAL_SURFACE('',#367,2.5,0.78539816339745);
#22=CONICAL_SURFACE('',#370,2.067,0.785398163397448);
#23=CONICAL_SURFACE('',#372,2.5,0.785398163397449);
#24=PLANE('',#345);
#25=PLANE('',#348);
#26=PLANE('',#350);
#27=PLANE('',#356);
#28=PLANE('',#357);
#29=PLANE('',#359);
#30=PLANE('',#363);
#31=PLANE('',#364);
#32=CIRCLE('',#340,0.699999999999994);
#33=CIRCLE('',#341,0.699999999999994);
#34=CIRCLE('',#343,0.699999999999997);
#35=CIRCLE('',#344,0.699999999999997);
#36=CIRCLE('',#346,2.5);
#37=CIRCLE('',#347,2.5);
#38=CIRCLE('',#349,2.5);
#39=CIRCLE('',#351,2.5);
#40=CIRCLE('',#352,2.5);
#41=CIRCLE('',#354,0.700000000000001);
#42=CIRCLE('',#355,0.700000000000001);
#43=CIRCLE('',#358,2.5);
#44=CIRCLE('',#361,0.700000000000001);
#45=CIRCLE('',#362,0.700000000000001);
#46=CIRCLE('',#366,2.067);
#47=CIRCLE('',#368,2.067);
#48=CIRCLE('',#371,2.067);
#49=CIRCLE('',#373,2.067);
#50=LINE('',#480,#70);
#51=LINE('',#484,#71);
#52=LINE('',#488,#72);
#53=LINE('',#498,#73);
#54=LINE('',#509,#74);
#55=LINE('',#519,#75);
#56=LINE('',#523,#76);
#57=LINE('',#527,#77);
#58=LINE('',#533,#78);
#59=LINE('',#539,#79);
#60=LINE('',#542,#80);
#61=LINE('',#544,#81);
#62=LINE('',#546,#82);
#63=LINE('',#550,#83);
#64=LINE('',#554,#84);
#65=LINE('',#555,#85);
#66=LINE('',#558,#86);
#67=LINE('',#560,#87);
#68=LINE('',#562,#88);
#69=LINE('',#564,#89);
#70=VECTOR('',#379,1000.);
#71=VECTOR('',#382,1000.);
#72=VECTOR('',#385,1000.);
#73=VECTOR('',#386,1000.);
#74=VECTOR('',#389,1000.);
#75=VECTOR('',#390,1000.);
#76=VECTOR('',#393,1000.);
#77=VECTOR('',#396,1000.);
#78=VECTOR('',#407,1000.);
#79=VECTOR('',#414,1000.);
#80=VECTOR('',#415,1000.);
#81=VECTOR('',#416,1000.);
#82=VECTOR('',#417,1000.);
#83=VECTOR('',#422,1000.);
#84=VECTOR('',#427,1000.);
#85=VECTOR('',#428,1000.);
#86=VECTOR('',#433,1000.);
#87=VECTOR('',#436,1000.);
#88=VECTOR('',#437,1000.);
#89=VECTOR('',#438,1000.);
#90=ORIENTED_EDGE('',*,*,#174,.F.);
#91=ORIENTED_EDGE('',*,*,#175,.F.);
#92=ORIENTED_EDGE('',*,*,#176,.F.);
#93=ORIENTED_EDGE('',*,*,#177,.T.);
#94=ORIENTED_EDGE('',*,*,#178,.T.);
#95=ORIENTED_EDGE('',*,*,#179,.F.);
#96=ORIENTED_EDGE('',*,*,#180,.F.);
#97=ORIENTED_EDGE('',*,*,#181,.F.);
#98=ORIENTED_EDGE('',*,*,#182,.F.);
#99=ORIENTED_EDGE('',*,*,#183,.T.);
#100=ORIENTED_EDGE('',*,*,#184,.F.);
#101=ORIENTED_EDGE('',*,*,#185,.T.);
#102=ORIENTED_EDGE('',*,*,#186,.T.);
#103=ORIENTED_EDGE('',*,*,#187,.F.);
#104=ORIENTED_EDGE('',*,*,#188,.F.);
#105=ORIENTED_EDGE('',*,*,#189,.T.);
#106=ORIENTED_EDGE('',*,*,#183,.F.);
#107=ORIENTED_EDGE('',*,*,#190,.F.);
#108=ORIENTED_EDGE('',*,*,#181,.T.);
#109=ORIENTED_EDGE('',*,*,#191,.F.);
#110=ORIENTED_EDGE('',*,*,#185,.F.);
#111=ORIENTED_EDGE('',*,*,#192,.F.);
#112=ORIENTED_EDGE('',*,*,#179,.T.);
#113=ORIENTED_EDGE('',*,*,#193,.T.);
#114=ORIENTED_EDGE('',*,*,#194,.T.);
#115=ORIENTED_EDGE('',*,*,#195,.T.);
#116=ORIENTED_EDGE('',*,*,#196,.T.);
#117=ORIENTED_EDGE('',*,*,#197,.F.);
#118=ORIENTED_EDGE('',*,*,#198,.F.);
#119=ORIENTED_EDGE('',*,*,#199,.T.);
#120=ORIENTED_EDGE('',*,*,#200,.T.);
#121=ORIENTED_EDGE('',*,*,#201,.F.);
#122=ORIENTED_EDGE('',*,*,#202,.F.);
#123=ORIENTED_EDGE('',*,*,#197,.T.);
#124=ORIENTED_EDGE('',*,*,#203,.T.);
#125=ORIENTED_EDGE('',*,*,#177,.F.);
#126=ORIENTED_EDGE('',*,*,#204,.F.);
#127=ORIENTED_EDGE('',*,*,#201,.T.);
#128=ORIENTED_EDGE('',*,*,#205,.F.);
#129=ORIENTED_EDGE('',*,*,#189,.F.);
#130=ORIENTED_EDGE('',*,*,#206,.F.);
#131=ORIENTED_EDGE('',*,*,#175,.T.);
#132=ORIENTED_EDGE('',*,*,#207,.T.);
#133=ORIENTED_EDGE('',*,*,#208,.F.);
#134=ORIENTED_EDGE('',*,*,#209,.F.);
#135=ORIENTED_EDGE('',*,*,#187,.T.);
#136=ORIENTED_EDGE('',*,*,#210,.T.);
#137=ORIENTED_EDGE('',*,*,#199,.F.);
#138=ORIENTED_EDGE('',*,*,#211,.F.);
#139=ORIENTED_EDGE('',*,*,#208,.T.);
#140=ORIENTED_EDGE('',*,*,#198,.T.);
#141=ORIENTED_EDGE('',*,*,#202,.T.);
#142=ORIENTED_EDGE('',*,*,#204,.T.);
#143=ORIENTED_EDGE('',*,*,#176,.T.);
#144=ORIENTED_EDGE('',*,*,#206,.T.);
#145=ORIENTED_EDGE('',*,*,#188,.T.);
#146=ORIENTED_EDGE('',*,*,#209,.T.);
#147=ORIENTED_EDGE('',*,*,#211,.T.);
#148=ORIENTED_EDGE('',*,*,#196,.F.);
#149=ORIENTED_EDGE('',*,*,#210,.F.);
#150=ORIENTED_EDGE('',*,*,#207,.F.);
#151=ORIENTED_EDGE('',*,*,#186,.F.);
#152=ORIENTED_EDGE('',*,*,#193,.F.);
#153=ORIENTED_EDGE('',*,*,#178,.F.);
#154=ORIENTED_EDGE('',*,*,#203,.F.);
#155=ORIENTED_EDGE('',*,*,#200,.F.);
#156=ORIENTED_EDGE('',*,*,#192,.T.);
#157=ORIENTED_EDGE('',*,*,#184,.T.);
#158=ORIENTED_EDGE('',*,*,#191,.T.);
#159=ORIENTED_EDGE('',*,*,#180,.T.);
#160=ORIENTED_EDGE('',*,*,#212,.F.);
#161=ORIENTED_EDGE('',*,*,#213,.T.);
#162=ORIENTED_EDGE('',*,*,#195,.F.);
#163=ORIENTED_EDGE('',*,*,#212,.T.);
#164=ORIENTED_EDGE('',*,*,#213,.F.);
#165=ORIENTED_EDGE('',*,*,#190,.T.);
#166=ORIENTED_EDGE('',*,*,#182,.T.);
#167=ORIENTED_EDGE('',*,*,#205,.T.);
#168=ORIENTED_EDGE('',*,*,#174,.T.);
#169=ORIENTED_EDGE('',*,*,#214,.F.);
#170=ORIENTED_EDGE('',*,*,#215,.T.);
#171=ORIENTED_EDGE('',*,*,#194,.F.);
#172=ORIENTED_EDGE('',*,*,#214,.T.);
#173=ORIENTED_EDGE('',*,*,#215,.F.);
#174=EDGE_CURVE('',#216,#217,#246,.T.);
#175=EDGE_CURVE('',#218,#216,#50,.T.);
#176=EDGE_CURVE('',#219,#218,#32,.T.);
#177=EDGE_CURVE('',#219,#220,#51,.T.);
#178=EDGE_CURVE('',#220,#221,#33,.T.);
#179=EDGE_CURVE('',#222,#221,#52,.T.);
#180=EDGE_CURVE('',#223,#222,#247,.T.);
#181=EDGE_CURVE('',#217,#223,#53,.T.);
#182=EDGE_CURVE('',#224,#225,#248,.T.);
#183=EDGE_CURVE('',#224,#226,#54,.T.);
#184=EDGE_CURVE('',#227,#226,#249,.T.);
#185=EDGE_CURVE('',#227,#228,#55,.T.);
#186=EDGE_CURVE('',#228,#229,#34,.T.);
#187=EDGE_CURVE('',#230,#229,#56,.T.);
#188=EDGE_CURVE('',#231,#230,#35,.T.);
#189=EDGE_CURVE('',#231,#225,#57,.T.);
#190=EDGE_CURVE('',#217,#224,#36,.F.);
#191=EDGE_CURVE('',#226,#223,#37,.T.);
#192=EDGE_CURVE('',#222,#227,#38,.T.);
#193=EDGE_CURVE('',#221,#228,#58,.T.);
#194=EDGE_CURVE('',#232,#232,#39,.T.);
#195=EDGE_CURVE('',#233,#233,#40,.T.);
#196=EDGE_CURVE('',#234,#235,#59,.T.);
#197=EDGE_CURVE('',#236,#235,#60,.T.);
#198=EDGE_CURVE('',#237,#236,#61,.T.);
#199=EDGE_CURVE('',#237,#234,#62,.T.);
#200=EDGE_CURVE('',#235,#238,#41,.T.);
#201=EDGE_CURVE('',#239,#238,#63,.T.);
#202=EDGE_CURVE('',#236,#239,#42,.T.);
#203=EDGE_CURVE('',#238,#220,#64,.T.);
#204=EDGE_CURVE('',#239,#219,#65,.T.);
#205=EDGE_CURVE('',#225,#216,#43,.F.);
#206=EDGE_CURVE('',#218,#231,#66,.T.);
#207=EDGE_CURVE('',#229,#240,#67,.T.);
#208=EDGE_CURVE('',#241,#240,#68,.T.);
#209=EDGE_CURVE('',#230,#241,#69,.T.);
#210=EDGE_CURVE('',#240,#234,#44,.T.);
#211=EDGE_CURVE('',#241,#237,#45,.T.);
#212=EDGE_CURVE('',#242,#242,#46,.T.);
#213=EDGE_CURVE('',#243,#243,#47,.T.);
#214=EDGE_CURVE('',#244,#244,#48,.T.);
#215=EDGE_CURVE('',#245,#245,#49,.T.);
#216=VERTEX_POINT('',#478);
#217=VERTEX_POINT('',#479);
#218=VERTEX_POINT('',#481);
#219=VERTEX_POINT('',#483);
#220=VERTEX_POINT('',#485);
#221=VERTEX_POINT('',#487);
#222=VERTEX_POINT('',#489);
#223=VERTEX_POINT('',#497);
#224=VERTEX_POINT('',#507);
#225=VERTEX_POINT('',#508);
#226=VERTEX_POINT('',#510);
#227=VERTEX_POINT('',#518);
#228=VERTEX_POINT('',#520);
#229=VERTEX_POINT('',#522);
#230=VERTEX_POINT('',#524);
#231=VERTEX_POINT('',#526);
#232=VERTEX_POINT('',#536);
#233=VERTEX_POINT('',#538);
#234=VERTEX_POINT('',#540);
#235=VERTEX_POINT('',#541);
#236=VERTEX_POINT('',#543);
#237=VERTEX_POINT('',#545);
#238=VERTEX_POINT('',#549);
#239=VERTEX_POINT('',#551);
#240=VERTEX_POINT('',#561);
#241=VERTEX_POINT('',#563);
#242=VERTEX_POINT('',#572);
#243=VERTEX_POINT('',#575);
#244=VERTEX_POINT('',#579);
#245=VERTEX_POINT('',#582);
#246=B_SPLINE_CURVE_WITH_KNOTS('',3,(#471,#472,#473,#474,#475,#476,#477),
 .UNSPECIFIED.,.F.,.F.,(4,1,1,1,4),(7.57473011378155E-5,0.000895033725102172,
0.00171432014906653,0.00253360657303089,0.00335289299699524),
 .UNSPECIFIED.);
#247=B_SPLINE_CURVE_WITH_KNOTS('',3,(#490,#491,#492,#493,#494,#495,#496),
 .UNSPECIFIED.,.F.,.F.,(4,1,1,1,4),(7.57473011378155E-5,0.000895033725102172,
0.00171432014906653,0.00253360657303089,0.00335289299699524),
 .UNSPECIFIED.);
#248=B_SPLINE_CURVE_WITH_KNOTS('',3,(#500,#501,#502,#503,#504,#505,#506),
 .UNSPECIFIED.,.F.,.F.,(4,1,1,1,4),(7.57473011378144E-5,0.000895033725102172,
0.00171432014906653,0.00253360657303089,0.00335289299699524),
 .UNSPECIFIED.);
#249=B_SPLINE_CURVE_WITH_KNOTS('',3,(#511,#512,#513,#514,#515,#516,#517),
 .UNSPECIFIED.,.F.,.F.,(4,1,1,1,4),(7.57473011378142E-5,0.000895033725102171,
0.00171432014906653,0.00253360657303089,0.00335289299699524),
 .UNSPECIFIED.);
#250=EDGE_LOOP('',(#90,#91,#92,#93,#94,#95,#96,#97));
#251=EDGE_LOOP('',(#98,#99,#100,#101,#102,#103,#104,#105));
#252=EDGE_LOOP('',(#106,#107,#108,#109));
#253=EDGE_LOOP('',(#110,#111,#112,#113));
#254=EDGE_LOOP('',(#114));
#255=EDGE_LOOP('',(#115));
#256=EDGE_LOOP('',(#116,#117,#118,#119));
#257=EDGE_LOOP('',(#120,#121,#122,#123));
#258=EDGE_LOOP('',(#124,#125,#126,#127));
#259=EDGE_LOOP('',(#128,#129,#130,#131));
#260=EDGE_LOOP('',(#132,#133,#134,#135));
#261=EDGE_LOOP('',(#136,#137,#138,#139));
#262=EDGE_LOOP('',(#140,#141,#142,#143,#144,#145,#146,#147));
#263=EDGE_LOOP('',(#148,#149,#150,#151,#152,#153,#154,#155));
#264=EDGE_LOOP('',(#156,#157,#158,#159));
#265=EDGE_LOOP('',(#160));
#266=EDGE_LOOP('',(#161));
#267=EDGE_LOOP('',(#162));
#268=EDGE_LOOP('',(#163));
#269=EDGE_LOOP('',(#164));
#270=EDGE_LOOP('',(#165,#166,#167,#168));
#271=EDGE_LOOP('',(#169));
#272=EDGE_LOOP('',(#170));
#273=EDGE_LOOP('',(#171));
#274=EDGE_LOOP('',(#172));
#275=EDGE_LOOP('',(#173));
#276=FACE_BOUND('',#250,.T.);
#277=FACE_BOUND('',#251,.T.);
#278=FACE_BOUND('',#252,.T.);
#279=FACE_BOUND('',#253,.T.);
#280=FACE_BOUND('',#254,.T.);
#281=FACE_BOUND('',#255,.T.);
#282=FACE_BOUND('',#256,.T.);
#283=FACE_BOUND('',#257,.T.);
#284=FACE_BOUND('',#258,.T.);
#285=FACE_BOUND('',#259,.T.);
#286=FACE_BOUND('',#260,.T.);
#287=FACE_BOUND('',#261,.T.);
#288=FACE_BOUND('',#262,.T.);
#289=FACE_BOUND('',#263,.T.);
#290=FACE_BOUND('',#264,.T.);
#291=FACE_BOUND('',#265,.T.);
#292=FACE_BOUND('',#266,.T.);
#293=FACE_BOUND('',#267,.T.);
#294=FACE_BOUND('',#268,.T.);
#295=FACE_BOUND('',#269,.T.);
#296=FACE_BOUND('',#270,.T.);
#297=FACE_BOUND('',#271,.T.);
#298=FACE_BOUND('',#272,.T.);
#299=FACE_BOUND('',#273,.T.);
#300=FACE_BOUND('',#274,.T.);
#301=FACE_BOUND('',#275,.T.);
#302=CYLINDRICAL_SURFACE('',#339,0.699999999999994);
#303=CYLINDRICAL_SURFACE('',#342,0.699999999999997);
#304=CYLINDRICAL_SURFACE('',#353,0.700000000000001);
#305=CYLINDRICAL_SURFACE('',#360,0.700000000000001);
#306=CYLINDRICAL_SURFACE('',#369,2.067);
#307=CYLINDRICAL_SURFACE('',#374,2.067);
#308=ADVANCED_FACE('',(#276),#302,.T.);
#309=ADVANCED_FACE('',(#277),#303,.T.);
#310=ADVANCED_FACE('',(#278),#24,.F.);
#311=ADVANCED_FACE('',(#279),#25,.F.);
#312=ADVANCED_FACE('',(#280,#281,#282),#26,.F.);
#313=ADVANCED_FACE('',(#283),#304,.T.);
#314=ADVANCED_FACE('',(#284),#27,.F.);
#315=ADVANCED_FACE('',(#285),#28,.F.);
#316=ADVANCED_FACE('',(#286),#29,.F.);
#317=ADVANCED_FACE('',(#287),#305,.T.);
#318=ADVANCED_FACE('',(#288),#30,.T.);
#319=ADVANCED_FACE('',(#289),#31,.F.);
#320=ADVANCED_FACE('',(#290,#291),#20,.F.);
#321=ADVANCED_FACE('',(#292,#293),#21,.F.);
#322=ADVANCED_FACE('',(#294,#295),#306,.F.);
#323=ADVANCED_FACE('',(#296,#297),#22,.F.);
#324=ADVANCED_FACE('',(#298,#299),#23,.F.);
#325=ADVANCED_FACE('',(#300,#301),#307,.F.);
#326=CLOSED_SHELL('',(#308,#309,#310,#311,#312,#313,#314,#315,#316,#317,
#318,#319,#320,#321,#322,#323,#324,#325));
#327=STYLED_ITEM('',(#328),#335);
#328=PRESENTATION_STYLE_ASSIGNMENT((#329));
#329=SURFACE_STYLE_USAGE(.BOTH.,#330);
#330=SURFACE_SIDE_STYLE('',(#331));
#331=SURFACE_STYLE_FILL_AREA(#332);
#332=FILL_AREA_STYLE('',(#333));
#333=FILL_AREA_STYLE_COLOUR('',#334);
#334=COLOUR_RGB('',0.689999997615814,0.689999997615814,0.689999997615814);
#335=MANIFOLD_SOLID_BREP('186566 HMBN-5-2M5',#326);
#336=SHAPE_DEFINITION_REPRESENTATION(#590,#337);
#337=SHAPE_REPRESENTATION('186566 HMBN-5-2M5',(#338),#585);
#338=AXIS2_PLACEMENT_3D('',#469,#375,#376);
#339=AXIS2_PLACEMENT_3D('',#470,#377,#378);
#340=AXIS2_PLACEMENT_3D('',#482,#380,#381);
#341=AXIS2_PLACEMENT_3D('',#486,#383,#384);
#342=AXIS2_PLACEMENT_3D('',#499,#387,#388);
#343=AXIS2_PLACEMENT_3D('',#521,#391,#392);
#344=AXIS2_PLACEMENT_3D('',#525,#394,#395);
#345=AXIS2_PLACEMENT_3D('',#528,#397,#398);
#346=AXIS2_PLACEMENT_3D('',#529,#399,#400);
#347=AXIS2_PLACEMENT_3D('',#530,#401,#402);
#348=AXIS2_PLACEMENT_3D('',#531,#403,#404);
#349=AXIS2_PLACEMENT_3D('',#532,#405,#406);
#350=AXIS2_PLACEMENT_3D('',#534,#408,#409);
#351=AXIS2_PLACEMENT_3D('',#535,#410,#411);
#352=AXIS2_PLACEMENT_3D('',#537,#412,#413);
#353=AXIS2_PLACEMENT_3D('',#547,#418,#419);
#354=AXIS2_PLACEMENT_3D('',#548,#420,#421);
#355=AXIS2_PLACEMENT_3D('',#552,#423,#424);
#356=AXIS2_PLACEMENT_3D('',#553,#425,#426);
#357=AXIS2_PLACEMENT_3D('',#556,#429,#430);
#358=AXIS2_PLACEMENT_3D('',#557,#431,#432);
#359=AXIS2_PLACEMENT_3D('',#559,#434,#435);
#360=AXIS2_PLACEMENT_3D('',#565,#439,#440);
#361=AXIS2_PLACEMENT_3D('',#566,#441,#442);
#362=AXIS2_PLACEMENT_3D('',#567,#443,#444);
#363=AXIS2_PLACEMENT_3D('',#568,#445,#446);
#364=AXIS2_PLACEMENT_3D('',#569,#447,#448);
#365=AXIS2_PLACEMENT_3D('',#570,#449,#450);
#366=AXIS2_PLACEMENT_3D('',#571,#451,#452);
#367=AXIS2_PLACEMENT_3D('',#573,#453,#454);
#368=AXIS2_PLACEMENT_3D('',#574,#455,#456);
#369=AXIS2_PLACEMENT_3D('',#576,#457,#458);
#370=AXIS2_PLACEMENT_3D('',#577,#459,#460);
#371=AXIS2_PLACEMENT_3D('',#578,#461,#462);
#372=AXIS2_PLACEMENT_3D('',#580,#463,#464);
#373=AXIS2_PLACEMENT_3D('',#581,#465,#466);
#374=AXIS2_PLACEMENT_3D('',#583,#467,#468);
#375=DIRECTION('',(0.,0.,1.));
#376=DIRECTION('',(1.,0.,0.));
#377=DIRECTION('',(0.,0.,-1.));
#378=DIRECTION('',(-1.,0.,0.));
#379=DIRECTION('',(0.,0.,-1.));
#380=DIRECTION('',(0.,0.,1.));
#381=DIRECTION('',(1.,0.,0.));
#382=DIRECTION('',(0.,0.,-1.));
#383=DIRECTION('',(0.,0.,1.));
#384=DIRECTION('',(1.,0.,0.));
#385=DIRECTION('',(0.,0.,-1.));
#386=DIRECTION('',(0.,0.,-1.));
#387=DIRECTION('',(0.,0.,-1.));
#388=DIRECTION('',(-1.,0.,0.));
#389=DIRECTION('',(0.,0.,-1.));
#390=DIRECTION('',(0.,0.,-1.));
#391=DIRECTION('',(0.,0.,1.));
#392=DIRECTION('',(1.,0.,0.));
#393=DIRECTION('',(0.,0.,-1.));
#394=DIRECTION('',(0.,0.,1.));
#395=DIRECTION('',(1.,0.,0.));
#396=DIRECTION('',(0.,0.,-1.));
#397=DIRECTION('',(0.,1.,0.));
#398=DIRECTION('',(0.,0.,1.));
#399=DIRECTION('',(0.,1.,0.));
#400=DIRECTION('',(0.,0.,1.));
#401=DIRECTION('',(0.,-1.,0.));
#402=DIRECTION('',(0.,0.,-1.));
#403=DIRECTION('',(0.,1.,0.));
#404=DIRECTION('',(0.,0.,1.));
#405=DIRECTION('',(0.,-1.,0.));
#406=DIRECTION('',(0.,0.,-1.));
#407=DIRECTION('',(1.,0.,0.));
#408=DIRECTION('',(0.,-1.,0.));
#409=DIRECTION('',(0.,0.,-1.));
#410=DIRECTION('',(0.,-1.,0.));
#411=DIRECTION('',(0.,0.,-1.));
#412=DIRECTION('',(0.,-1.,0.));
#413=DIRECTION('',(0.,0.,-1.));
#414=DIRECTION('',(-1.,0.,0.));
#415=DIRECTION('',(0.,0.,-1.));
#416=DIRECTION('',(-1.,0.,0.));
#417=DIRECTION('',(0.,0.,-1.));
#418=DIRECTION('',(0.,0.,-1.));
#419=DIRECTION('',(-1.,0.,0.));
#420=DIRECTION('',(0.,0.,1.));
#421=DIRECTION('',(1.,0.,0.));
#422=DIRECTION('',(0.,0.,-1.));
#423=DIRECTION('',(0.,0.,1.));
#424=DIRECTION('',(1.,0.,0.));
#425=DIRECTION('',(0.707106781186547,0.707106781186547,0.));
#426=DIRECTION('',(-0.707106781186548,0.707106781186548,0.));
#427=DIRECTION('',(0.707106781186548,-0.707106781186548,0.));
#428=DIRECTION('',(0.707106781186548,-0.707106781186548,0.));
#429=DIRECTION('',(0.,1.,0.));
#430=DIRECTION('',(0.,0.,1.));
#431=DIRECTION('',(0.,1.,0.));
#432=DIRECTION('',(0.,0.,1.));
#433=DIRECTION('',(1.,0.,0.));
#434=DIRECTION('',(-0.707106781186548,0.707106781186548,0.));
#435=DIRECTION('',(-0.707106781186548,-0.707106781186548,0.));
#436=DIRECTION('',(0.707106781186547,0.707106781186547,0.));
#437=DIRECTION('',(0.,0.,-1.));
#438=DIRECTION('',(0.707106781186547,0.707106781186547,0.));
#439=DIRECTION('',(0.,0.,-1.));
#440=DIRECTION('',(-1.,0.,0.));
#441=DIRECTION('',(0.,0.,1.));
#442=DIRECTION('',(1.,0.,0.));
#443=DIRECTION('',(0.,0.,1.));
#444=DIRECTION('',(1.,0.,0.));
#445=DIRECTION('',(0.,0.,1.));
#446=DIRECTION('',(1.,0.,0.));
#447=DIRECTION('',(0.,0.,1.));
#448=DIRECTION('',(1.,0.,0.));
#449=DIRECTION('',(0.,-1.,0.));
#450=DIRECTION('',(0.,0.,-1.));
#451=DIRECTION('',(0.,-1.,0.));
#452=DIRECTION('',(0.,0.,-1.));
#453=DIRECTION('',(0.,1.,0.));
#454=DIRECTION('',(0.,0.,1.));
#455=DIRECTION('',(0.,-1.,0.));
#456=DIRECTION('',(0.,0.,-1.));
#457=DIRECTION('',(0.,-1.,0.));
#458=DIRECTION('',(0.,0.,-1.));
#459=DIRECTION('',(0.,-1.,0.));
#460=DIRECTION('',(0.,0.,-1.));
#461=DIRECTION('',(0.,-1.,0.));
#462=DIRECTION('',(0.,0.,-1.));
#463=DIRECTION('',(0.,1.,0.));
#464=DIRECTION('',(0.,0.,1.));
#465=DIRECTION('',(0.,-1.,0.));
#466=DIRECTION('',(0.,0.,-1.));
#467=DIRECTION('',(0.,-1.,0.));
#468=DIRECTION('',(0.,0.,-1.));
#469=CARTESIAN_POINT('',(0.,0.,0.));
#470=CARTESIAN_POINT('',(-1.96005050633884,0.699999999999995,13.5));
#471=CARTESIAN_POINT('',(-1.96005050633883,2.53333979270141E-16,7.80183826882858));
#472=CARTESIAN_POINT('',(-2.13025039077481,-2.73897690622047E-16,7.58686717527554));
#473=CARTESIAN_POINT('',(-2.31501457247759,0.0913192630840679,7.06400873109738));
#474=CARTESIAN_POINT('',(-2.39516963940822,0.151534167160008,6.25226747132351));
#475=CARTESIAN_POINT('',(-2.3152335333865,0.0916140123647813,5.43674068648323));
#476=CARTESIAN_POINT('',(-2.13106545717859,-2.63470352948227E-12,4.91416229496174));
#477=CARTESIAN_POINT('',(-1.96005050634137,-3.25261153182539E-12,4.69816173116938));
#478=CARTESIAN_POINT('',(-1.96005050633883,0.,7.80183826882858));
#479=CARTESIAN_POINT('',(-1.96005050633883,0.,4.69816173117142));
#480=CARTESIAN_POINT('',(-1.96005050633883,2.16840434497101E-16,13.5));
#481=CARTESIAN_POINT('',(-1.96005050633883,2.16840434497101E-16,13.5));
#482=CARTESIAN_POINT('',(-1.96005050633884,0.699999999999995,13.5));
#483=CARTESIAN_POINT('',(-2.45502525316942,0.205025253169417,13.5));
#484=CARTESIAN_POINT('',(-2.45502525316942,0.205025253169417,13.5));
#485=CARTESIAN_POINT('',(-2.45502525316942,0.205025253169417,-13.5));
#486=CARTESIAN_POINT('',(-1.96005050633884,0.699999999999995,-13.5));
#487=CARTESIAN_POINT('',(-1.96005050633883,2.16840434497101E-16,-13.5));
#488=CARTESIAN_POINT('',(-1.96005050633883,2.16840434497101E-16,13.5));
#489=CARTESIAN_POINT('',(-1.96005050633883,0.,-7.80183826882858));
#490=CARTESIAN_POINT('',(-1.96005050633883,2.63491757192292E-16,-4.69816173117142));
#491=CARTESIAN_POINT('',(-2.13025039077481,-2.63739912699895E-16,-4.91313282472446));
#492=CARTESIAN_POINT('',(-2.31501457247759,0.0913192630840678,-5.43599126890263));
#493=CARTESIAN_POINT('',(-2.39516963940822,0.151534167160008,-6.24773252867649));
#494=CARTESIAN_POINT('',(-2.3152335333865,0.0916140123647813,-7.06325931351677));
#495=CARTESIAN_POINT('',(-2.13106545717859,-2.63462744105319E-12,-7.58583770503826));
#496=CARTESIAN_POINT('',(-1.96005050634137,-3.25264139469986E-12,-7.80183826883062));
#497=CARTESIAN_POINT('',(-1.96005050633883,0.,-4.69816173117142));
#498=CARTESIAN_POINT('',(-1.96005050633883,2.16840434497101E-16,13.5));
#499=CARTESIAN_POINT('',(1.96005050633884,0.699999999999997,13.5));
#500=CARTESIAN_POINT('',(1.96005050633883,4.41036056007344E-17,4.69816173117142));
#501=CARTESIAN_POINT('',(2.13025039077481,-3.77681730313015E-16,4.91313282472446));
#502=CARTESIAN_POINT('',(2.31501457247759,0.0913192630840674,5.43599126890262));
#503=CARTESIAN_POINT('',(2.39516963940822,0.151534167160008,6.2477325286765));
#504=CARTESIAN_POINT('',(2.3152335333865,0.0916140123647808,7.06325931351677));
#505=CARTESIAN_POINT('',(2.13106545717859,-2.63459743587637E-12,7.58583770503826));
#506=CARTESIAN_POINT('',(1.96005050634137,-3.25282329213015E-12,7.80183826883062));
#507=CARTESIAN_POINT('',(1.96005050633883,0.,4.69816173117142));
#508=CARTESIAN_POINT('',(1.96005050633883,0.,7.80183826882858));
#509=CARTESIAN_POINT('',(1.96005050633883,0.,13.5));
#510=CARTESIAN_POINT('',(1.96005050633884,0.,-4.69816173117142));
#511=CARTESIAN_POINT('',(1.96005050633883,2.80165972497515E-17,-7.80183826882858));
#512=CARTESIAN_POINT('',(2.13025039077481,-3.93768738663997E-16,-7.58686717527554));
#513=CARTESIAN_POINT('',(2.31501457247759,0.0913192630840674,-7.06400873109738));
#514=CARTESIAN_POINT('',(2.39516963940822,0.151534167160008,-6.25226747132351));
#515=CARTESIAN_POINT('',(2.3152335333865,0.0916140123647812,-5.43674068648323));
#516=CARTESIAN_POINT('',(2.13106545717859,-2.63445739852772E-12,-4.91416229496175));
#517=CARTESIAN_POINT('',(1.96005050634137,-3.25278920608506E-12,-4.69816173116938));
#518=CARTESIAN_POINT('',(1.96005050633883,0.,-7.80183826882858));
#519=CARTESIAN_POINT('',(1.96005050633883,0.,13.5));
#520=CARTESIAN_POINT('',(1.96005050633883,0.,-13.5));
#521=CARTESIAN_POINT('',(1.96005050633884,0.699999999999997,-13.5));
#522=CARTESIAN_POINT('',(2.45502525316942,0.205025253169416,-13.5));
#523=CARTESIAN_POINT('',(2.45502525316942,0.205025253169416,13.5));
#524=CARTESIAN_POINT('',(2.45502525316942,0.205025253169416,13.5));
#525=CARTESIAN_POINT('',(1.96005050633884,0.699999999999997,13.5));
#526=CARTESIAN_POINT('',(1.96005050633883,0.,13.5));
#527=CARTESIAN_POINT('',(1.96005050633883,0.,13.5));
#528=CARTESIAN_POINT('',(-1.96005050633883,0.,13.5));
#529=CARTESIAN_POINT('',(0.,0.,6.25));
#530=CARTESIAN_POINT('',(0.,0.,-6.25));
#531=CARTESIAN_POINT('',(-1.96005050633883,0.,13.5));
#532=CARTESIAN_POINT('',(0.,0.,-6.25));
#533=CARTESIAN_POINT('',(-1.96005050633883,0.,-13.5));
#534=CARTESIAN_POINT('',(4.56005050633883,4.,13.5));
#535=CARTESIAN_POINT('',(0.,4.,6.25));
#536=CARTESIAN_POINT('',(0.,4.,3.75));
#537=CARTESIAN_POINT('',(0.,4.,-6.25));
#538=CARTESIAN_POINT('',(0.,4.,-8.75));
#539=CARTESIAN_POINT('',(4.56005050633883,4.,-13.5));
#540=CARTESIAN_POINT('',(4.56005050633883,4.,-13.5));
#541=CARTESIAN_POINT('',(-4.56005050633883,4.,-13.5));
#542=CARTESIAN_POINT('',(-4.56005050633883,4.,13.5));
#543=CARTESIAN_POINT('',(-4.56005050633883,4.,13.5));
#544=CARTESIAN_POINT('',(4.56005050633883,4.,13.5));
#545=CARTESIAN_POINT('',(4.56005050633883,4.,13.5));
#546=CARTESIAN_POINT('',(4.56005050633883,4.,13.5));
#547=CARTESIAN_POINT('',(-4.56005050633883,3.3,13.5));
#548=CARTESIAN_POINT('',(-4.56005050633883,3.3,-13.5));
#549=CARTESIAN_POINT('',(-5.05502525316942,2.80502525316942,-13.5));
#550=CARTESIAN_POINT('',(-5.05502525316942,2.80502525316942,13.5));
#551=CARTESIAN_POINT('',(-5.05502525316942,2.80502525316942,13.5));
#552=CARTESIAN_POINT('',(-4.56005050633883,3.3,13.5));
#553=CARTESIAN_POINT('',(-5.05502525316942,2.80502525316942,13.5));
#554=CARTESIAN_POINT('',(-5.05502525316942,2.80502525316942,-13.5));
#555=CARTESIAN_POINT('',(-5.05502525316942,2.80502525316942,13.5));
#556=CARTESIAN_POINT('',(-1.96005050633883,0.,13.5));
#557=CARTESIAN_POINT('',(0.,0.,6.25));
#558=CARTESIAN_POINT('',(-1.96005050633883,0.,13.5));
#559=CARTESIAN_POINT('',(2.45502525316942,0.205025253169417,13.5));
#560=CARTESIAN_POINT('',(2.45502525316942,0.205025253169417,-13.5));
#561=CARTESIAN_POINT('',(5.05502525316942,2.80502525316942,-13.5));
#562=CARTESIAN_POINT('',(5.05502525316942,2.80502525316942,13.5));
#563=CARTESIAN_POINT('',(5.05502525316942,2.80502525316942,13.5));
#564=CARTESIAN_POINT('',(2.45502525316942,0.205025253169417,13.5));
#565=CARTESIAN_POINT('',(4.56005050633883,3.3,13.5));
#566=CARTESIAN_POINT('',(4.56005050633883,3.3,-13.5));
#567=CARTESIAN_POINT('',(4.56005050633883,3.3,13.5));
#568=CARTESIAN_POINT('',(-4.56005050633883,3.3,13.5));
#569=CARTESIAN_POINT('',(-4.56005050633883,3.3,-13.5));
#570=CARTESIAN_POINT('',(0.,0.433,-6.25));
#571=CARTESIAN_POINT('',(0.,0.433,-6.25));
#572=CARTESIAN_POINT('',(0.,0.433,-8.317));
#573=CARTESIAN_POINT('',(0.,4.,-6.25));
#574=CARTESIAN_POINT('',(0.,3.567,-6.25));
#575=CARTESIAN_POINT('',(0.,3.567,-8.317));
#576=CARTESIAN_POINT('',(0.,0.,-6.25));
#577=CARTESIAN_POINT('',(0.,0.433,6.25));
#578=CARTESIAN_POINT('',(0.,0.433,6.25));
#579=CARTESIAN_POINT('',(0.,0.433,4.183));
#580=CARTESIAN_POINT('',(0.,4.,6.25));
#581=CARTESIAN_POINT('',(0.,3.567,6.25));
#582=CARTESIAN_POINT('',(0.,3.567,4.183));
#583=CARTESIAN_POINT('',(0.,0.,6.25));
#584=MECHANICAL_DESIGN_GEOMETRIC_PRESENTATION_REPRESENTATION('',(#327),
#585);
#585=(
GEOMETRIC_REPRESENTATION_CONTEXT(3)
GLOBAL_UNCERTAINTY_ASSIGNED_CONTEXT((#586))
GLOBAL_UNIT_ASSIGNED_CONTEXT((#589,#588,#587))
REPRESENTATION_CONTEXT('186566 HMBN-5-2M5','TOP_LEVEL_ASSEMBLY_PART')
);
#586=UNCERTAINTY_MEASURE_WITH_UNIT(LENGTH_MEASURE(0.005),#589,
'DISTANCE_ACCURACY_VALUE','Maximum Tolerance applied to model');
#587=(
NAMED_UNIT(*)
SI_UNIT($,.STERADIAN.)
SOLID_ANGLE_UNIT()
);
#588=(
NAMED_UNIT(*)
PLANE_ANGLE_UNIT()
SI_UNIT($,.RADIAN.)
);
#589=(
LENGTH_UNIT()
NAMED_UNIT(*)
SI_UNIT(.MILLI.,.METRE.)
);
#590=PRODUCT_DEFINITION_SHAPE('','',#591);
#591=PRODUCT_DEFINITION('','',#593,#592);
#592=PRODUCT_DEFINITION_CONTEXT('',#599,'design');
#593=PRODUCT_DEFINITION_FORMATION_WITH_SPECIFIED_SOURCE('','',#595,
 .NOT_KNOWN.);
#594=PRODUCT_RELATED_PRODUCT_CATEGORY('','',(#595));
#595=PRODUCT('186566 HMBN-5-2M5','186566 HMBN-5-2M5',
'186566 HMBN-5-2M5',(#597));
#596=PRODUCT_CATEGORY('','');
#597=PRODUCT_CONTEXT('',#599,'mechanical');
#598=APPLICATION_PROTOCOL_DEFINITION('international standard',
'automotive_design',2010,#599);
#599=APPLICATION_CONTEXT(
'core data for automotive mechanical design processes');
ENDSEC;
END-ISO-10303-21;
